  0
SECTION
  2
HEADER
  9
$ACADVER
  1
AC1021
  9
$ACADMAINTVER
 70
    25
  9
$DWGCODEPAGE
  3
ANSI_1252
  9
$INSBASE
 10
0.0
 20
0.0
 30
0.0
  9
$EXTMIN
 10
-15.15334
 20
-15.32995
 30
0.0
  9
$EXTMAX
 10
15.15309
 20
15.32987
 30
0.0
  9
$LIMMIN
 10
0.0
 20
0.0
  9
$LIMMAX
 10
12.0
 20
9.0
  9
$ORTHOMODE
 70
     0
  9
$REGENMODE
 70
     1
  9
$FILLMODE
 70
     1
  9
$QTEXTMODE
 70
     0
  9
$MIRRTEXT
 70
     1
  9
$LTSCALE
 40
1.0
  9
$ATTMODE
 70
     1
  9
$TEXTSIZE
 40
0.2
  9
$TRACEWID
 40
0.05
  9
$TEXTSTYLE
  7
Standard
  9
$CLAYER
  8
0
  9
$CELTYPE
  6
ByLayer
  9
$CECOLOR
 62
   256
  9
$CELTSCALE
 40
1.0
  9
$DISPSILH
 70
     0
  9
$DIMSCALE
 40
1.0
  9
$DIMASZ
 40
0.18
  9
$DIMEXO
 40
0.0625
  9
$DIMDLI
 40
0.38
  9
$DIMRND
 40
0.0
  9
$DIMDLE
 40
0.0
  9
$DIMEXE
 40
0.18
  9
$DIMTP
 40
0.0
  9
$DIMTM
 40
0.0
  9
$DIMTXT
 40
0.18
  9
$DIMCEN
 40
0.09
  9
$DIMTSZ
 40
0.0
  9
$DIMTOL
 70
     0
  9
$DIMLIM
 70
     0
  9
$DIMTIH
 70
     1
  9
$DIMTOH
 70
     1
  9
$DIMSE1
 70
     0
  9
$DIMSE2
 70
     0
  9
$DIMTAD
 70
     0
  9
$DIMZIN
 70
     0
  9
$DIMBLK
  1

  9
$DIMASO
 70
     1
  9
$DIMSHO
 70
     1
  9
$DIMPOST
  1

  9
$DIMAPOST
  1

  9
$DIMALT
 70
     0
  9
$DIMALTD
 70
     2
  9
$DIMALTF
 40
25.4
  9
$DIMLFAC
 40
1.0
  9
$DIMTOFL
 70
     0
  9
$DIMTVP
 40
0.0
  9
$DIMTIX
 70
     0
  9
$DIMSOXD
 70
     0
  9
$DIMSAH
 70
     0
  9
$DIMBLK1
  1

  9
$DIMBLK2
  1

  9
$DIMSTYLE
  2
Standard
  9
$DIMCLRD
 70
     0
  9
$DIMCLRE
 70
     0
  9
$DIMCLRT
 70
     0
  9
$DIMTFAC
 40
1.0
  9
$DIMGAP
 40
0.09
  9
$DIMJUST
 70
     0
  9
$DIMSD1
 70
     0
  9
$DIMSD2
 70
     0
  9
$DIMTOLJ
 70
     1
  9
$DIMTZIN
 70
     0
  9
$DIMALTZ
 70
     0
  9
$DIMALTTZ
 70
     0
  9
$DIMUPT
 70
     0
  9
$DIMDEC
 70
     4
  9
$DIMTDEC
 70
     4
  9
$DIMALTU
 70
     2
  9
$DIMALTTD
 70
     2
  9
$DIMTXSTY
  7
Standard
  9
$DIMAUNIT
 70
     0
  9
$DIMADEC
 70
     0
  9
$DIMALTRND
 40
0.0
  9
$DIMAZIN
 70
     0
  9
$DIMDSEP
 70
    46
  9
$DIMATFIT
 70
     3
  9
$DIMFRAC
 70
     0
  9
$DIMLDRBLK
  1

  9
$DIMLUNIT
 70
     2
  9
$DIMLWD
 70
    -2
  9
$DIMLWE
 70
    -2
  9
$DIMTMOVE
 70
     0
  9
$DIMFXL
 40
1.0
  9
$DIMFXLON
 70
     0
  9
$DIMJOGANG
 40
0.7853981633974483
  9
$DIMTFILL
 70
     0
  9
$DIMTFILLCLR
 70
     0
  9
$DIMARCSYM
 70
     0
  9
$DIMLTYPE
  6

  9
$DIMLTEX1
  6

  9
$DIMLTEX2
  6

  9
$LUNITS
 70
     2
  9
$LUPREC
 70
     4
  9
$SKETCHINC
 40
0.1
  9
$FILLETRAD
 40
0.5
  9
$AUNITS
 70
     0
  9
$AUPREC
 70
     0
  9
$MENU
  1
.
  9
$ELEVATION
 40
0.0
  9
$PELEVATION
 40
0.0
  9
$THICKNESS
 40
0.0
  9
$LIMCHECK
 70
     0
  9
$CHAMFERA
 40
0.0
  9
$CHAMFERB
 40
0.0
  9
$CHAMFERC
 40
0.0
  9
$CHAMFERD
 40
0.0
  9
$SKPOLY
 70
     0
  9
$TDCREATE
 40
2458460.763640463
  9
$TDUCREATE
 40
2458460.763640463
  9
$TDUPDATE
 40
2458460.763642315
  9
$TDUUPDATE
 40
2458460.763642315
  9
$TDINDWG
 40
0.0000000116
  9
$TDUSRTIMER
 40
0.0000000116
  9
$USRTIMER
 70
     1
  9
$ANGBASE
 50
0.0
  9
$ANGDIR
 70
     0
  9
$PDMODE
 70
     0
  9
$PDSIZE
 40
0.0
  9
$PLINEWID
 40
0.0
  9
$SPLFRAME
 70
     0
  9
$SPLINETYPE
 70
     6
  9
$SPLINESEGS
 70
     8
  9
$HANDSEED
  5
BA
  9
$SURFTAB1
 70
     6
  9
$SURFTAB2
 70
     6
  9
$SURFTYPE
 70
     6
  9
$SURFU
 70
     6
  9
$SURFV
 70
     6
  9
$UCSBASE
  2

  9
$UCSNAME
  2

  9
$UCSORG
 10
0.0
 20
0.0
 30
0.0
  9
$UCSXDIR
 10
1.0
 20
0.0
 30
0.0
  9
$UCSYDIR
 10
0.0
 20
1.0
 30
0.0
  9
$UCSORTHOREF
  2

  9
$UCSORTHOVIEW
 70
     0
  9
$UCSORGTOP
 10
0.0
 20
0.0
 30
0.0
  9
$UCSORGBOTTOM
 10
0.0
 20
0.0
 30
0.0
  9
$UCSORGLEFT
 10
0.0
 20
0.0
 30
0.0
  9
$UCSORGRIGHT
 10
0.0
 20
0.0
 30
0.0
  9
$UCSORGFRONT
 10
0.0
 20
0.0
 30
0.0
  9
$UCSORGBACK
 10
0.0
 20
0.0
 30
0.0
  9
$PUCSBASE
  2

  9
$PUCSNAME
  2

  9
$PUCSORG
 10
0.0
 20
0.0
 30
0.0
  9
$PUCSXDIR
 10
1.0
 20
0.0
 30
0.0
  9
$PUCSYDIR
 10
0.0
 20
1.0
 30
0.0
  9
$PUCSORTHOREF
  2

  9
$PUCSORTHOVIEW
 70
     0
  9
$PUCSORGTOP
 10
0.0
 20
0.0
 30
0.0
  9
$PUCSORGBOTTOM
 10
0.0
 20
0.0
 30
0.0
  9
$PUCSORGLEFT
 10
0.0
 20
0.0
 30
0.0
  9
$PUCSORGRIGHT
 10
0.0
 20
0.0
 30
0.0
  9
$PUCSORGFRONT
 10
0.0
 20
0.0
 30
0.0
  9
$PUCSORGBACK
 10
0.0
 20
0.0
 30
0.0
  9
$USERI1
 70
     0
  9
$USERI2
 70
     0
  9
$USERI3
 70
     0
  9
$USERI4
 70
     0
  9
$USERI5
 70
     0
  9
$USERR1
 40
0.0
  9
$USERR2
 40
0.0
  9
$USERR3
 40
0.0
  9
$USERR4
 40
0.0
  9
$USERR5
 40
0.0
  9
$WORLDVIEW
 70
     1
  9
$SHADEDGE
 70
     3
  9
$SHADEDIF
 70
    70
  9
$TILEMODE
 70
     1
  9
$MAXACTVP
 70
    64
  9
$PINSBASE
 10
0.0
 20
0.0
 30
0.0
  9
$PLIMCHECK
 70
     0
  9
$PEXTMIN
 10
1.000000000000000E+20
 20
1.000000000000000E+20
 30
1.000000000000000E+20
  9
$PEXTMAX
 10
-1.000000000000000E+20
 20
-1.000000000000000E+20
 30
-1.000000000000000E+20
  9
$PLIMMIN
 10
0.0
 20
0.0
  9
$PLIMMAX
 10
12.0
 20
9.0
  9
$UNITMODE
 70
     0
  9
$VISRETAIN
 70
     1
  9
$PLINEGEN
 70
     0
  9
$PSLTSCALE
 70
     1
  9
$TREEDEPTH
 70
  3020
  9
$CMLSTYLE
  2
Standard
  9
$CMLJUST
 70
     0
  9
$CMLSCALE
 40
1.0
  9
$PROXYGRAPHICS
 70
     1
  9
$MEASUREMENT
 70
     0
  9
$CELWEIGHT
370
    -1
  9
$ENDCAPS
280
     0
  9
$JOINSTYLE
280
     0
  9
$LWDISPLAY
290
     0
  9
$INSUNITS
 70
     5
  9
$HYPERLINKBASE
  1

  9
$STYLESHEET
  1

  9
$XEDIT
290
     1
  9
$CEPSNTYPE
380
     0
  9
$PSTYLEMODE
290
     1
  9
$FINGERPRINTGUID
  2
{49859403-60D1-42AF-A4ED-A837F14C89AB}
  9
$VERSIONGUID
  2
{FAEB1C32-E019-11D5-929B-00C0DF256EC4}
  9
$EXTNAMES
290
     1
  9
$PSVPSCALE
 40
0.0
  9
$OLESTARTUP
290
     0
  9
$SORTENTS
280
   127
  9
$INDEXCTL
280
     0
  9
$HIDETEXT
280
     1
  9
$XCLIPFRAME
290
     0
  9
$HALOGAP
280
     0
  9
$OBSCOLOR
 70
   257
  9
$OBSLTYPE
280
     0
  9
$INTERSECTIONDISPLAY
280
     0
  9
$INTERSECTIONCOLOR
 70
   257
  9
$DIMASSOC
280
     2
  9
$PROJECTNAME
  1

  9
$CAMERADISPLAY
290
     0
  9
$LENSLENGTH
 40
50.0
  9
$CAMERAHEIGHT
 40
0.0
  9
$STEPSPERSEC
 40
2.0
  9
$STEPSIZE
 40
6.0
  9
$3DDWFPREC
 40
2.0
  9
$PSOLWIDTH
 40
0.25
  9
$PSOLHEIGHT
 40
4.0
  9
$LOFTANG1
 40
1.570796326794897
  9
$LOFTANG2
 40
1.570796326794897
  9
$LOFTMAG1
 40
0.0
  9
$LOFTMAG2
 40
0.0
  9
$LOFTPARAM
 70
     7
  9
$LOFTNORMALS
280
     1
  9
$LATITUDE
 40
37.795
  9
$LONGITUDE
 40
-122.394
  9
$NORTHDIRECTION
 40
0.0
  9
$TIMEZONE
 70
 -8000
  9
$LIGHTGLYPHDISPLAY
280
     1
  9
$TILEMODELIGHTSYNCH
280
     1
  9
$CMATERIAL
347
44
  9
$SOLIDHIST
280
     0
  9
$SHOWHIST
280
     1
  9
$DWFFRAME
280
     2
  9
$DGNFRAME
280
     2
  9
$REALWORLDSCALE
290
     1
  9
$INTERFERECOLOR
 62
   256
  9
$CSHADOW
280
     0
  9
$SHADOWPLANELOCATION
 40
0.0
  0
ENDSEC
  0
SECTION
  2
CLASSES
  0
CLASS
  1
ACDBDICTIONARYWDFLT
  2
AcDbDictionaryWithDefault
  3
ObjectDBX Classes
 90
        0
 91
        4
280
     0
281
     0
  0
CLASS
  1
VISUALSTYLE
  2
AcDbVisualStyle
  3
ObjectDBX Classes
 90
     4095
 91
        4
280
     0
281
     0
  0
CLASS
  1
MATERIAL
  2
AcDbMaterial
  3
ObjectDBX Classes
 90
     1153
 91
        4
280
     0
281
     0
  0
CLASS
  1
SCALE
  2
AcDbScale
  3
ObjectDBX Classes
 90
     1153
 91
        4
280
     0
281
     0
  0
CLASS
  1
TABLESTYLE
  2
AcDbTableStyle
  3
ObjectDBX Classes
 90
     4095
 91
        4
280
     0
281
     0
  0
CLASS
  1
MLEADERSTYLE
  2
AcDbMLeaderStyle
  3
ACDB_MLEADERSTYLE_CLASS
 90
     4095
 91
        4
280
     0
281
     0
  0
CLASS
  1
SUN
  2
AcDbSun
  3
SCENEOE
 90
     1153
 91
        4
280
     0
281
     0
  0
CLASS
  1
DICTIONARYVAR
  2
AcDbDictionaryVar
  3
ObjectDBX Classes
 90
        0
 91
        4
280
     0
281
     0
  0
CLASS
  1
CELLSTYLEMAP
  2
AcDbCellStyleMap
  3
ObjectDBX Classes
 90
     1152
 91
        4
280
     0
281
     0
  0
ENDSEC
  0
SECTION
  2
TABLES
  0
TABLE
  2
VPORT
  5
8
330
0
100
AcDbSymbolTable
 70
     1
  0
VPORT
  5
29
330
8
100
AcDbSymbolTableRecord
100
AcDbViewportTableRecord
  2
*Active
 70
     0
 10
0.0
 20
0.0
 11
1.0
 21
1.0
 12
10.42990654205607
 22
4.5
 13
0.0
 23
0.0
 14
0.5
 24
0.5
 15
0.5
 25
0.5
 16
0.0
 26
0.0
 36
1.0
 17
0.0
 27
0.0
 37
0.0
 40
9.0
 41
1.972972972850329
 42
50.0
 43
0.0
 44
0.0
 50
0.0
 51
0.0
 71
     0
 72
   100
 73
     1
 74
     3
 75
     0
 76
     0
 77
     0
 78
     0
281
     0
 65
     1
110
0.0
120
0.0
130
0.0
111
1.0
121
0.0
131
0.0
112
0.0
122
1.0
132
0.0
 79
     0
146
0.0
348
2F
 60
     3
 61
     5
292
     1
282
     1
141
0.0
142
0.0
 63
   250
361
6D
  0
ENDTAB
  0
TABLE
  2
LTYPE
  5
5
330
0
100
AcDbSymbolTable
 70
     1
  0
LTYPE
  5
14
330
5
100
AcDbSymbolTableRecord
100
AcDbLinetypeTableRecord
  2
ByBlock
 70
     0
  3

 72
    65
 73
     0
 40
0.0
  0
LTYPE
  5
15
330
5
100
AcDbSymbolTableRecord
100
AcDbLinetypeTableRecord
  2
ByLayer
 70
     0
  3

 72
    65
 73
     0
 40
0.0
  0
LTYPE
  5
16
330
5
100
AcDbSymbolTableRecord
100
AcDbLinetypeTableRecord
  2
Continuous
 70
     0
  3
Solid line
 72
    65
 73
     0
 40
0.0
  0
ENDTAB
  0
TABLE
  2
LAYER
  5
2
330
0
100
AcDbSymbolTable
 70
     2
  0
LAYER
  5
10
330
2
100
AcDbSymbolTableRecord
100
AcDbLayerTableRecord
  2
0
 70
     0
 62
     7
  6
Continuous
370
    -3
390
F
347
46
  0
LAYER
  5
6F
330
2
100
AcDbSymbolTableRecord
100
AcDbLayerTableRecord
  2
Layer 1
 70
     0
 62
     7
  6
Continuous
370
    -3
390
F
347
46
  0
ENDTAB
  0
TABLE
  2
STYLE
  5
3
330
0
100
AcDbSymbolTable
 70
     1
  0
STYLE
  5
11
330
3
100
AcDbSymbolTableRecord
100
AcDbTextStyleTableRecord
  2
Standard
 70
     0
 40
0.0
 41
1.0
 50
0.0
 71
     0
 42
0.2
  3
txt
  4

  0
ENDTAB
  0
TABLE
  2
VIEW
  5
6
330
0
100
AcDbSymbolTable
 70
     0
  0
ENDTAB
  0
TABLE
  2
UCS
  5
7
330
0
100
AcDbSymbolTable
 70
     0
  0
ENDTAB
  0
TABLE
  2
APPID
  5
9
330
0
100
AcDbSymbolTable
 70
     3
  0
APPID
  5
12
330
9
100
AcDbSymbolTableRecord
100
AcDbRegAppTableRecord
  2
ACAD
 70
     0
  0
APPID
  5
6E
330
9
100
AcDbSymbolTableRecord
100
AcDbRegAppTableRecord
  2
ODA
 70
     0
  0
APPID
  5
B2
330
9
100
AcDbSymbolTableRecord
100
AcDbRegAppTableRecord
  2
ACAD_MLEADERVER
 70
     0
  0
ENDTAB
  0
TABLE
  2
DIMSTYLE
  5
A
330
0
100
AcDbSymbolTable
 70
     1
100
AcDbDimStyleTable
  0
DIMSTYLE
105
27
330
A
100
AcDbSymbolTableRecord
100
AcDbDimStyleTableRecord
  2
Standard
 70
     0
178
     0
340
11
  0
ENDTAB
  0
TABLE
  2
BLOCK_RECORD
  5
1
330
0
100
AcDbSymbolTable
 70
     1
  0
BLOCK_RECORD
  5
1F
330
1
100
AcDbSymbolTableRecord
100
AcDbBlockTableRecord
  2
*Model_Space
340
22
 70
     0
280
     1
281
     0
  0
BLOCK_RECORD
  5
1B
330
1
100
AcDbSymbolTableRecord
100
AcDbBlockTableRecord
  2
*Paper_Space
340
1E
 70
     0
280
     1
281
     0
  0
BLOCK_RECORD
  5
23
330
1
100
AcDbSymbolTableRecord
100
AcDbBlockTableRecord
  2
*Paper_Space0
340
26
 70
     0
280
     1
281
     0
  0
ENDTAB
  0
ENDSEC
  0
SECTION
  2
BLOCKS
  0
BLOCK
  5
20
330
1F
100
AcDbEntity
  8
0
100
AcDbBlockBegin
  2
*Model_Space
 70
     0
 10
0.0
 20
0.0
 30
0.0
  3
*Model_Space
  1

  0
ENDBLK
  5
21
330
1F
100
AcDbEntity
  8
0
100
AcDbBlockEnd
  0
BLOCK
  5
1C
330
1B
100
AcDbEntity
 67
     1
  8
0
100
AcDbBlockBegin
  2
*Paper_Space
 70
     0
 10
0.0
 20
0.0
 30
0.0
  3
*Paper_Space
  1

  0
ENDBLK
  5
1D
330
1B
100
AcDbEntity
 67
     1
  8
0
100
AcDbBlockEnd
  0
BLOCK
  5
24
330
23
100
AcDbEntity
  8
0
100
AcDbBlockBegin
  2
*Paper_Space0
 70
     0
 10
0.0
 20
0.0
 30
0.0
  3
*Paper_Space0
  1

  0
ENDBLK
  5
25
330
23
100
AcDbEntity
  8
0
100
AcDbBlockEnd
  0
ENDSEC
  0
SECTION
  2
ENTITIES
  0
SPLINE
  5
70
330
1F
100
AcDbEntity
  8
Layer 1
 62
   250
370
    20
100
AcDbSpline
210
0.0
220
0.0
230
1.0
 70
    11
 71
     3
 72
  1116
 73
  1112
 74
     0
 42
0.000000001
 43
0.0000000001
 40
0.0
 40
0.0
 40
0.0
 40
0.0
 40
0.003584229390681
 40
0.003584229390681
 40
0.003584229390681
 40
0.003584229390681
 40
0.007168458781362
 40
0.007168458781362
 40
0.007168458781362
 40
0.007168458781362
 40
0.010752688172043
 40
0.010752688172043
 40
0.010752688172043
 40
0.010752688172043
 40
0.014336917562724
 40
0.014336917562724
 40
0.014336917562724
 40
0.014336917562724
 40
0.017921146953405
 40
0.017921146953405
 40
0.017921146953405
 40
0.017921146953405
 40
0.021505376344086
 40
0.021505376344086
 40
0.021505376344086
 40
0.021505376344086
 40
0.025089605734767
 40
0.025089605734767
 40
0.025089605734767
 40
0.025089605734767
 40
0.028673835125448
 40
0.028673835125448
 40
0.028673835125448
 40
0.028673835125448
 40
0.032258064516129
 40
0.032258064516129
 40
0.032258064516129
 40
0.032258064516129
 40
0.03584229390681
 40
0.03584229390681
 40
0.03584229390681
 40
0.03584229390681
 40
0.039426523297491
 40
0.039426523297491
 40
0.039426523297491
 40
0.039426523297491
 40
0.043010752688172
 40
0.043010752688172
 40
0.043010752688172
 40
0.043010752688172
 40
0.046594982078853
 40
0.046594982078853
 40
0.046594982078853
 40
0.046594982078853
 40
0.0501792114695341
 40
0.0501792114695341
 40
0.0501792114695341
 40
0.0501792114695341
 40
0.0537634408602151
 40
0.0537634408602151
 40
0.0537634408602151
 40
0.0537634408602151
 40
0.0573476702508961
 40
0.0573476702508961
 40
0.0573476702508961
 40
0.0573476702508961
 40
0.0609318996415771
 40
0.0609318996415771
 40
0.0609318996415771
 40
0.0609318996415771
 40
0.0645161290322581
 40
0.0645161290322581
 40
0.0645161290322581
 40
0.0645161290322581
 40
0.0681003584229391
 40
0.0681003584229391
 40
0.0681003584229391
 40
0.0681003584229391
 40
0.0716845878136201
 40
0.0716845878136201
 40
0.0716845878136201
 40
0.0716845878136201
 40
0.0752688172043011
 40
0.0752688172043011
 40
0.0752688172043011
 40
0.0752688172043011
 40
0.0788530465949821
 40
0.0788530465949821
 40
0.0788530465949821
 40
0.0788530465949821
 40
0.0824372759856631
 40
0.0824372759856631
 40
0.0824372759856631
 40
0.0824372759856631
 40
0.0860215053763441
 40
0.0860215053763441
 40
0.0860215053763441
 40
0.0860215053763441
 40
0.0896057347670251
 40
0.0896057347670251
 40
0.0896057347670251
 40
0.0896057347670251
 40
0.0931899641577061
 40
0.0931899641577061
 40
0.0931899641577061
 40
0.0931899641577061
 40
0.0967741935483871
 40
0.0967741935483871
 40
0.0967741935483871
 40
0.0967741935483871
 40
0.1003584229390681
 40
0.1003584229390681
 40
0.1003584229390681
 40
0.1003584229390681
 40
0.1039426523297491
 40
0.1039426523297491
 40
0.1039426523297491
 40
0.1039426523297491
 40
0.1075268817204301
 40
0.1075268817204301
 40
0.1075268817204301
 40
0.1075268817204301
 40
0.1111111111111111
 40
0.1111111111111111
 40
0.1111111111111111
 40
0.1111111111111111
 40
0.1146953405017921
 40
0.1146953405017921
 40
0.1146953405017921
 40
0.1146953405017921
 40
0.1182795698924731
 40
0.1182795698924731
 40
0.1182795698924731
 40
0.1182795698924731
 40
0.1218637992831541
 40
0.1218637992831541
 40
0.1218637992831541
 40
0.1218637992831541
 40
0.1254480286738351
 40
0.1254480286738351
 40
0.1254480286738351
 40
0.1254480286738351
 40
0.1290322580645161
 40
0.1290322580645161
 40
0.1290322580645161
 40
0.1290322580645161
 40
0.1326164874551971
 40
0.1326164874551971
 40
0.1326164874551971
 40
0.1326164874551971
 40
0.1362007168458781
 40
0.1362007168458781
 40
0.1362007168458781
 40
0.1362007168458781
 40
0.1397849462365591
 40
0.1397849462365591
 40
0.1397849462365591
 40
0.1397849462365591
 40
0.1433691756272401
 40
0.1433691756272401
 40
0.1433691756272401
 40
0.1433691756272401
 40
0.1469534050179211
 40
0.1469534050179211
 40
0.1469534050179211
 40
0.1469534050179211
 40
0.1505376344086022
 40
0.1505376344086022
 40
0.1505376344086022
 40
0.1505376344086022
 40
0.1541218637992832
 40
0.1541218637992832
 40
0.1541218637992832
 40
0.1541218637992832
 40
0.1577060931899641
 40
0.1577060931899641
 40
0.1577060931899641
 40
0.1577060931899641
 40
0.1612903225806452
 40
0.1612903225806452
 40
0.1612903225806452
 40
0.1612903225806452
 40
0.1648745519713262
 40
0.1648745519713262
 40
0.1648745519713262
 40
0.1648745519713262
 40
0.1684587813620072
 40
0.1684587813620072
 40
0.1684587813620072
 40
0.1684587813620072
 40
0.1720430107526882
 40
0.1720430107526882
 40
0.1720430107526882
 40
0.1720430107526882
 40
0.1756272401433692
 40
0.1756272401433692
 40
0.1756272401433692
 40
0.1756272401433692
 40
0.1792114695340502
 40
0.1792114695340502
 40
0.1792114695340502
 40
0.1792114695340502
 40
0.1827956989247312
 40
0.1827956989247312
 40
0.1827956989247312
 40
0.1827956989247312
 40
0.1863799283154122
 40
0.1863799283154122
 40
0.1863799283154122
 40
0.1863799283154122
 40
0.1899641577060932
 40
0.1899641577060932
 40
0.1899641577060932
 40
0.1899641577060932
 40
0.1935483870967742
 40
0.1935483870967742
 40
0.1935483870967742
 40
0.1935483870967742
 40
0.1971326164874552
 40
0.1971326164874552
 40
0.1971326164874552
 40
0.1971326164874552
 40
0.2007168458781362
 40
0.2007168458781362
 40
0.2007168458781362
 40
0.2007168458781362
 40
0.2043010752688172
 40
0.2043010752688172
 40
0.2043010752688172
 40
0.2043010752688172
 40
0.2078853046594982
 40
0.2078853046594982
 40
0.2078853046594982
 40
0.2078853046594982
 40
0.2114695340501792
 40
0.2114695340501792
 40
0.2114695340501792
 40
0.2114695340501792
 40
0.2150537634408602
 40
0.2150537634408602
 40
0.2150537634408602
 40
0.2150537634408602
 40
0.2186379928315412
 40
0.2186379928315412
 40
0.2186379928315412
 40
0.2186379928315412
 40
0.2222222222222222
 40
0.2222222222222222
 40
0.2222222222222222
 40
0.2222222222222222
 40
0.2258064516129032
 40
0.2258064516129032
 40
0.2258064516129032
 40
0.2258064516129032
 40
0.2293906810035842
 40
0.2293906810035842
 40
0.2293906810035842
 40
0.2293906810035842
 40
0.2329749103942652
 40
0.2329749103942652
 40
0.2329749103942652
 40
0.2329749103942652
 40
0.2365591397849462
 40
0.2365591397849462
 40
0.2365591397849462
 40
0.2365591397849462
 40
0.2401433691756272
 40
0.2401433691756272
 40
0.2401433691756272
 40
0.2401433691756272
 40
0.2437275985663082
 40
0.2437275985663082
 40
0.2437275985663082
 40
0.2437275985663082
 40
0.2473118279569892
 40
0.2473118279569892
 40
0.2473118279569892
 40
0.2473118279569892
 40
0.2508960573476702
 40
0.2508960573476702
 40
0.2508960573476702
 40
0.2508960573476702
 40
0.2544802867383513
 40
0.2544802867383513
 40
0.2544802867383513
 40
0.2544802867383513
 40
0.2580645161290323
 40
0.2580645161290323
 40
0.2580645161290323
 40
0.2580645161290323
 40
0.2616487455197133
 40
0.2616487455197133
 40
0.2616487455197133
 40
0.2616487455197133
 40
0.2652329749103943
 40
0.2652329749103943
 40
0.2652329749103943
 40
0.2652329749103943
 40
0.2688172043010753
 40
0.2688172043010753
 40
0.2688172043010753
 40
0.2688172043010753
 40
0.2724014336917563
 40
0.2724014336917563
 40
0.2724014336917563
 40
0.2724014336917563
 40
0.2759856630824373
 40
0.2759856630824373
 40
0.2759856630824373
 40
0.2759856630824373
 40
0.2795698924731183
 40
0.2795698924731183
 40
0.2795698924731183
 40
0.2795698924731183
 40
0.2831541218637993
 40
0.2831541218637993
 40
0.2831541218637993
 40
0.2831541218637993
 40
0.2867383512544803
 40
0.2867383512544803
 40
0.2867383512544803
 40
0.2867383512544803
 40
0.2903225806451613
 40
0.2903225806451613
 40
0.2903225806451613
 40
0.2903225806451613
 40
0.2939068100358423
 40
0.2939068100358423
 40
0.2939068100358423
 40
0.2939068100358423
 40
0.2974910394265233
 40
0.2974910394265233
 40
0.2974910394265233
 40
0.2974910394265233
 40
0.3010752688172043
 40
0.3010752688172043
 40
0.3010752688172043
 40
0.3010752688172043
 40
0.3046594982078853
 40
0.3046594982078853
 40
0.3046594982078853
 40
0.3046594982078853
 40
0.3082437275985663
 40
0.3082437275985663
 40
0.3082437275985663
 40
0.3082437275985663
 40
0.3118279569892473
 40
0.3118279569892473
 40
0.3118279569892473
 40
0.3118279569892473
 40
0.3154121863799283
 40
0.3154121863799283
 40
0.3154121863799283
 40
0.3154121863799283
 40
0.3189964157706093
 40
0.3189964157706093
 40
0.3189964157706093
 40
0.3189964157706093
 40
0.3225806451612903
 40
0.3225806451612903
 40
0.3225806451612903
 40
0.3225806451612903
 40
0.3261648745519714
 40
0.3261648745519714
 40
0.3261648745519714
 40
0.3261648745519714
 40
0.3297491039426523
 40
0.3297491039426523
 40
0.3297491039426523
 40
0.3297491039426523
 40
0.3333333333333333
 40
0.3333333333333333
 40
0.3333333333333333
 40
0.3333333333333333
 40
0.3369175627240144
 40
0.3369175627240144
 40
0.3369175627240144
 40
0.3369175627240144
 40
0.3405017921146953
 40
0.3405017921146953
 40
0.3405017921146953
 40
0.3405017921146953
 40
0.3440860215053764
 40
0.3440860215053764
 40
0.3440860215053764
 40
0.3440860215053764
 40
0.3476702508960574
 40
0.3476702508960574
 40
0.3476702508960574
 40
0.3476702508960574
 40
0.3512544802867383
 40
0.3512544802867383
 40
0.3512544802867383
 40
0.3512544802867383
 40
0.3548387096774194
 40
0.3548387096774194
 40
0.3548387096774194
 40
0.3548387096774194
 40
0.3584229390681004
 40
0.3584229390681004
 40
0.3584229390681004
 40
0.3584229390681004
 40
0.3620071684587813
 40
0.3620071684587813
 40
0.3620071684587813
 40
0.3620071684587813
 40
0.3655913978494624
 40
0.3655913978494624
 40
0.3655913978494624
 40
0.3655913978494624
 40
0.3691756272401434
 40
0.3691756272401434
 40
0.3691756272401434
 40
0.3691756272401434
 40
0.3727598566308244
 40
0.3727598566308244
 40
0.3727598566308244
 40
0.3727598566308244
 40
0.3763440860215054
 40
0.3763440860215054
 40
0.3763440860215054
 40
0.3763440860215054
 40
0.3799283154121864
 40
0.3799283154121864
 40
0.3799283154121864
 40
0.3799283154121864
 40
0.3835125448028674
 40
0.3835125448028674
 40
0.3835125448028674
 40
0.3835125448028674
 40
0.3870967741935484
 40
0.3870967741935484
 40
0.3870967741935484
 40
0.3870967741935484
 40
0.3906810035842294
 40
0.3906810035842294
 40
0.3906810035842294
 40
0.3906810035842294
 40
0.3942652329749104
 40
0.3942652329749104
 40
0.3942652329749104
 40
0.3942652329749104
 40
0.3978494623655914
 40
0.3978494623655914
 40
0.3978494623655914
 40
0.3978494623655914
 40
0.4014336917562724
 40
0.4014336917562724
 40
0.4014336917562724
 40
0.4014336917562724
 40
0.4050179211469534
 40
0.4050179211469534
 40
0.4050179211469534
 40
0.4050179211469534
 40
0.4086021505376344
 40
0.4086021505376344
 40
0.4086021505376344
 40
0.4086021505376344
 40
0.4121863799283154
 40
0.4121863799283154
 40
0.4121863799283154
 40
0.4121863799283154
 40
0.4157706093189964
 40
0.4157706093189964
 40
0.4157706093189964
 40
0.4157706093189964
 40
0.4193548387096774
 40
0.4193548387096774
 40
0.4193548387096774
 40
0.4193548387096774
 40
0.4229390681003584
 40
0.4229390681003584
 40
0.4229390681003584
 40
0.4229390681003584
 40
0.4265232974910394
 40
0.4265232974910394
 40
0.4265232974910394
 40
0.4265232974910394
 40
0.4301075268817204
 40
0.4301075268817204
 40
0.4301075268817204
 40
0.4301075268817204
 40
0.4336917562724014
 40
0.4336917562724014
 40
0.4336917562724014
 40
0.4336917562724014
 40
0.4372759856630825
 40
0.4372759856630825
 40
0.4372759856630825
 40
0.4372759856630825
 40
0.4408602150537634
 40
0.4408602150537634
 40
0.4408602150537634
 40
0.4408602150537634
 40
0.4444444444444444
 40
0.4444444444444444
 40
0.4444444444444444
 40
0.4444444444444444
 40
0.4480286738351255
 40
0.4480286738351255
 40
0.4480286738351255
 40
0.4480286738351255
 40
0.4516129032258064
 40
0.4516129032258064
 40
0.4516129032258064
 40
0.4516129032258064
 40
0.4551971326164875
 40
0.4551971326164875
 40
0.4551971326164875
 40
0.4551971326164875
 40
0.4587813620071685
 40
0.4587813620071685
 40
0.4587813620071685
 40
0.4587813620071685
 40
0.4623655913978494
 40
0.4623655913978494
 40
0.4623655913978494
 40
0.4623655913978494
 40
0.4659498207885305
 40
0.4659498207885305
 40
0.4659498207885305
 40
0.4659498207885305
 40
0.4695340501792115
 40
0.4695340501792115
 40
0.4695340501792115
 40
0.4695340501792115
 40
0.4731182795698925
 40
0.4731182795698925
 40
0.4731182795698925
 40
0.4731182795698925
 40
0.4767025089605735
 40
0.4767025089605735
 40
0.4767025089605735
 40
0.4767025089605735
 40
0.4802867383512545
 40
0.4802867383512545
 40
0.4802867383512545
 40
0.4802867383512545
 40
0.4838709677419355
 40
0.4838709677419355
 40
0.4838709677419355
 40
0.4838709677419355
 40
0.4874551971326165
 40
0.4874551971326165
 40
0.4874551971326165
 40
0.4874551971326165
 40
0.4910394265232975
 40
0.4910394265232975
 40
0.4910394265232975
 40
0.4910394265232975
 40
0.4946236559139785
 40
0.4946236559139785
 40
0.4946236559139785
 40
0.4946236559139785
 40
0.4982078853046595
 40
0.4982078853046595
 40
0.4982078853046595
 40
0.4982078853046595
 40
0.5017921146953405
 40
0.5017921146953405
 40
0.5017921146953405
 40
0.5017921146953405
 40
0.5053763440860215
 40
0.5053763440860215
 40
0.5053763440860215
 40
0.5053763440860215
 40
0.5089605734767025
 40
0.5089605734767025
 40
0.5089605734767025
 40
0.5089605734767025
 40
0.5125448028673835
 40
0.5125448028673835
 40
0.5125448028673835
 40
0.5125448028673835
 40
0.5161290322580645
 40
0.5161290322580645
 40
0.5161290322580645
 40
0.5161290322580645
 40
0.5197132616487455
 40
0.5197132616487455
 40
0.5197132616487455
 40
0.5197132616487455
 40
0.5232974910394266
 40
0.5232974910394266
 40
0.5232974910394266
 40
0.5232974910394266
 40
0.5268817204301075
 40
0.5268817204301075
 40
0.5268817204301075
 40
0.5268817204301075
 40
0.5304659498207885
 40
0.5304659498207885
 40
0.5304659498207885
 40
0.5304659498207885
 40
0.5340501792114696
 40
0.5340501792114696
 40
0.5340501792114696
 40
0.5340501792114696
 40
0.5376344086021505
 40
0.5376344086021505
 40
0.5376344086021505
 40
0.5376344086021505
 40
0.5412186379928315
 40
0.5412186379928315
 40
0.5412186379928315
 40
0.5412186379928315
 40
0.5448028673835126
 40
0.5448028673835126
 40
0.5448028673835126
 40
0.5448028673835126
 40
0.5483870967741935
 40
0.5483870967741935
 40
0.5483870967741935
 40
0.5483870967741935
 40
0.5519713261648745
 40
0.5519713261648745
 40
0.5519713261648745
 40
0.5519713261648745
 40
0.5555555555555556
 40
0.5555555555555556
 40
0.5555555555555556
 40
0.5555555555555556
 40
0.5591397849462365
 40
0.5591397849462365
 40
0.5591397849462365
 40
0.5591397849462365
 40
0.5627240143369175
 40
0.5627240143369175
 40
0.5627240143369175
 40
0.5627240143369175
 40
0.5663082437275986
 40
0.5663082437275986
 40
0.5663082437275986
 40
0.5663082437275986
 40
0.5698924731182796
 40
0.5698924731182796
 40
0.5698924731182796
 40
0.5698924731182796
 40
0.5734767025089605
 40
0.5734767025089605
 40
0.5734767025089605
 40
0.5734767025089605
 40
0.5770609318996416
 40
0.5770609318996416
 40
0.5770609318996416
 40
0.5770609318996416
 40
0.5806451612903226
 40
0.5806451612903226
 40
0.5806451612903226
 40
0.5806451612903226
 40
0.5842293906810035
 40
0.5842293906810035
 40
0.5842293906810035
 40
0.5842293906810035
 40
0.5878136200716846
 40
0.5878136200716846
 40
0.5878136200716846
 40
0.5878136200716846
 40
0.5913978494623656
 40
0.5913978494623656
 40
0.5913978494623656
 40
0.5913978494623656
 40
0.5949820788530465
 40
0.5949820788530465
 40
0.5949820788530465
 40
0.5949820788530465
 40
0.5985663082437276
 40
0.5985663082437276
 40
0.5985663082437276
 40
0.5985663082437276
 40
0.6021505376344086
 40
0.6021505376344086
 40
0.6021505376344086
 40
0.6021505376344086
 40
0.6057347670250897
 40
0.6057347670250897
 40
0.6057347670250897
 40
0.6057347670250897
 40
0.6093189964157706
 40
0.6093189964157706
 40
0.6093189964157706
 40
0.6093189964157706
 40
0.6129032258064516
 40
0.6129032258064516
 40
0.6129032258064516
 40
0.6129032258064516
 40
0.6164874551971327
 40
0.6164874551971327
 40
0.6164874551971327
 40
0.6164874551971327
 40
0.6200716845878136
 40
0.6200716845878136
 40
0.6200716845878136
 40
0.6200716845878136
 40
0.6236559139784946
 40
0.6236559139784946
 40
0.6236559139784946
 40
0.6236559139784946
 40
0.6272401433691757
 40
0.6272401433691757
 40
0.6272401433691757
 40
0.6272401433691757
 40
0.6308243727598566
 40
0.6308243727598566
 40
0.6308243727598566
 40
0.6308243727598566
 40
0.6344086021505376
 40
0.6344086021505376
 40
0.6344086021505376
 40
0.6344086021505376
 40
0.6379928315412187
 40
0.6379928315412187
 40
0.6379928315412187
 40
0.6379928315412187
 40
0.6415770609318996
 40
0.6415770609318996
 40
0.6415770609318996
 40
0.6415770609318996
 40
0.6451612903225806
 40
0.6451612903225806
 40
0.6451612903225806
 40
0.6451612903225806
 40
0.6487455197132617
 40
0.6487455197132617
 40
0.6487455197132617
 40
0.6487455197132617
 40
0.6523297491039427
 40
0.6523297491039427
 40
0.6523297491039427
 40
0.6523297491039427
 40
0.6559139784946236
 40
0.6559139784946236
 40
0.6559139784946236
 40
0.6559139784946236
 40
0.6594982078853047
 40
0.6594982078853047
 40
0.6594982078853047
 40
0.6594982078853047
 40
0.6630824372759857
 40
0.6630824372759857
 40
0.6630824372759857
 40
0.6630824372759857
 40
0.6666666666666666
 40
0.6666666666666666
 40
0.6666666666666666
 40
0.6666666666666666
 40
0.6702508960573477
 40
0.6702508960573477
 40
0.6702508960573477
 40
0.6702508960573477
 40
0.6738351254480287
 40
0.6738351254480287
 40
0.6738351254480287
 40
0.6738351254480287
 40
0.6774193548387096
 40
0.6774193548387096
 40
0.6774193548387096
 40
0.6774193548387096
 40
0.6810035842293907
 40
0.6810035842293907
 40
0.6810035842293907
 40
0.6810035842293907
 40
0.6845878136200717
 40
0.6845878136200717
 40
0.6845878136200717
 40
0.6845878136200717
 40
0.6881720430107527
 40
0.6881720430107527
 40
0.6881720430107527
 40
0.6881720430107527
 40
0.6917562724014337
 40
0.6917562724014337
 40
0.6917562724014337
 40
0.6917562724014337
 40
0.6953405017921147
 40
0.6953405017921147
 40
0.6953405017921147
 40
0.6953405017921147
 40
0.6989247311827957
 40
0.6989247311827957
 40
0.6989247311827957
 40
0.6989247311827957
 40
0.7025089605734767
 40
0.7025089605734767
 40
0.7025089605734767
 40
0.7025089605734767
 40
0.7060931899641577
 40
0.7060931899641577
 40
0.7060931899641577
 40
0.7060931899641577
 40
0.7096774193548387
 40
0.7096774193548387
 40
0.7096774193548387
 40
0.7096774193548387
 40
0.7132616487455197
 40
0.7132616487455197
 40
0.7132616487455197
 40
0.7132616487455197
 40
0.7168458781362007
 40
0.7168458781362007
 40
0.7168458781362007
 40
0.7168458781362007
 40
0.7204301075268817
 40
0.7204301075268817
 40
0.7204301075268817
 40
0.7204301075268817
 40
0.7240143369175627
 40
0.7240143369175627
 40
0.7240143369175627
 40
0.7240143369175627
 40
0.7275985663082437
 40
0.7275985663082437
 40
0.7275985663082437
 40
0.7275985663082437
 40
0.7311827956989247
 40
0.7311827956989247
 40
0.7311827956989247
 40
0.7311827956989247
 40
0.7347670250896058
 40
0.7347670250896058
 40
0.7347670250896058
 40
0.7347670250896058
 40
0.7383512544802867
 40
0.7383512544802867
 40
0.7383512544802867
 40
0.7383512544802867
 40
0.7419354838709677
 40
0.7419354838709677
 40
0.7419354838709677
 40
0.7419354838709677
 40
0.7455197132616488
 40
0.7455197132616488
 40
0.7455197132616488
 40
0.7455197132616488
 40
0.7491039426523297
 40
0.7491039426523297
 40
0.7491039426523297
 40
0.7491039426523297
 40
0.7526881720430108
 40
0.7526881720430108
 40
0.7526881720430108
 40
0.7526881720430108
 40
0.7562724014336918
 40
0.7562724014336918
 40
0.7562724014336918
 40
0.7562724014336918
 40
0.7598566308243727
 40
0.7598566308243727
 40
0.7598566308243727
 40
0.7598566308243727
 40
0.7634408602150538
 40
0.7634408602150538
 40
0.7634408602150538
 40
0.7634408602150538
 40
0.7670250896057348
 40
0.7670250896057348
 40
0.7670250896057348
 40
0.7670250896057348
 40
0.7706093189964157
 40
0.7706093189964157
 40
0.7706093189964157
 40
0.7706093189964157
 40
0.7741935483870968
 40
0.7741935483870968
 40
0.7741935483870968
 40
0.7741935483870968
 40
0.7777777777777778
 40
0.7777777777777778
 40
0.7777777777777778
 40
0.7777777777777778
 40
0.7813620071684588
 40
0.7813620071684588
 40
0.7813620071684588
 40
0.7813620071684588
 40
0.7849462365591398
 40
0.7849462365591398
 40
0.7849462365591398
 40
0.7849462365591398
 40
0.7885304659498208
 40
0.7885304659498208
 40
0.7885304659498208
 40
0.7885304659498208
 40
0.7921146953405018
 40
0.7921146953405018
 40
0.7921146953405018
 40
0.7921146953405018
 40
0.7956989247311828
 40
0.7956989247311828
 40
0.7956989247311828
 40
0.7956989247311828
 40
0.7992831541218638
 40
0.7992831541218638
 40
0.7992831541218638
 40
0.7992831541218638
 40
0.8028673835125448
 40
0.8028673835125448
 40
0.8028673835125448
 40
0.8028673835125448
 40
0.8064516129032258
 40
0.8064516129032258
 40
0.8064516129032258
 40
0.8064516129032258
 40
0.8100358422939068
 40
0.8100358422939068
 40
0.8100358422939068
 40
0.8100358422939068
 40
0.8136200716845878
 40
0.8136200716845878
 40
0.8136200716845878
 40
0.8136200716845878
 40
0.8172043010752689
 40
0.8172043010752689
 40
0.8172043010752689
 40
0.8172043010752689
 40
0.8207885304659498
 40
0.8207885304659498
 40
0.8207885304659498
 40
0.8207885304659498
 40
0.8243727598566308
 40
0.8243727598566308
 40
0.8243727598566308
 40
0.8243727598566308
 40
0.8279569892473119
 40
0.8279569892473119
 40
0.8279569892473119
 40
0.8279569892473119
 40
0.8315412186379928
 40
0.8315412186379928
 40
0.8315412186379928
 40
0.8315412186379928
 40
0.8351254480286738
 40
0.8351254480286738
 40
0.8351254480286738
 40
0.8351254480286738
 40
0.8387096774193549
 40
0.8387096774193549
 40
0.8387096774193549
 40
0.8387096774193549
 40
0.8422939068100358
 40
0.8422939068100358
 40
0.8422939068100358
 40
0.8422939068100358
 40
0.8458781362007168
 40
0.8458781362007168
 40
0.8458781362007168
 40
0.8458781362007168
 40
0.8494623655913979
 40
0.8494623655913979
 40
0.8494623655913979
 40
0.8494623655913979
 40
0.8530465949820788
 40
0.8530465949820788
 40
0.8530465949820788
 40
0.8530465949820788
 40
0.8566308243727598
 40
0.8566308243727598
 40
0.8566308243727598
 40
0.8566308243727598
 40
0.8602150537634409
 40
0.8602150537634409
 40
0.8602150537634409
 40
0.8602150537634409
 40
0.8637992831541219
 40
0.8637992831541219
 40
0.8637992831541219
 40
0.8637992831541219
 40
0.8673835125448028
 40
0.8673835125448028
 40
0.8673835125448028
 40
0.8673835125448028
 40
0.8709677419354839
 40
0.8709677419354839
 40
0.8709677419354839
 40
0.8709677419354839
 40
0.8745519713261649
 40
0.8745519713261649
 40
0.8745519713261649
 40
0.8745519713261649
 40
0.8781362007168458
 40
0.8781362007168458
 40
0.8781362007168458
 40
0.8781362007168458
 40
0.8817204301075269
 40
0.8817204301075269
 40
0.8817204301075269
 40
0.8817204301075269
 40
0.8853046594982079
 40
0.8853046594982079
 40
0.8853046594982079
 40
0.8853046594982079
 40
0.8888888888888888
 40
0.8888888888888888
 40
0.8888888888888888
 40
0.8888888888888888
 40
0.8924731182795699
 40
0.8924731182795699
 40
0.8924731182795699
 40
0.8924731182795699
 40
0.8960573476702509
 40
0.8960573476702509
 40
0.8960573476702509
 40
0.8960573476702509
 40
0.899641577060932
 40
0.899641577060932
 40
0.899641577060932
 40
0.899641577060932
 40
0.9032258064516129
 40
0.9032258064516129
 40
0.9032258064516129
 40
0.9032258064516129
 40
0.9068100358422939
 40
0.9068100358422939
 40
0.9068100358422939
 40
0.9068100358422939
 40
0.910394265232975
 40
0.910394265232975
 40
0.910394265232975
 40
0.910394265232975
 40
0.9139784946236559
 40
0.9139784946236559
 40
0.9139784946236559
 40
0.9139784946236559
 40
0.9175627240143369
 40
0.9175627240143369
 40
0.9175627240143369
 40
0.9175627240143369
 40
0.921146953405018
 40
0.921146953405018
 40
0.921146953405018
 40
0.921146953405018
 40
0.9247311827956989
 40
0.9247311827956989
 40
0.9247311827956989
 40
0.9247311827956989
 40
0.9283154121863799
 40
0.9283154121863799
 40
0.9283154121863799
 40
0.9283154121863799
 40
0.931899641577061
 40
0.931899641577061
 40
0.931899641577061
 40
0.931899641577061
 40
0.9354838709677419
 40
0.9354838709677419
 40
0.9354838709677419
 40
0.9354838709677419
 40
0.9390681003584229
 40
0.9390681003584229
 40
0.9390681003584229
 40
0.9390681003584229
 40
0.942652329749104
 40
0.942652329749104
 40
0.942652329749104
 40
0.942652329749104
 40
0.946236559139785
 40
0.946236559139785
 40
0.946236559139785
 40
0.946236559139785
 40
0.9498207885304659
 40
0.9498207885304659
 40
0.9498207885304659
 40
0.9498207885304659
 40
0.953405017921147
 40
0.953405017921147
 40
0.953405017921147
 40
0.953405017921147
 40
0.956989247311828
 40
0.956989247311828
 40
0.956989247311828
 40
0.956989247311828
 40
0.9605734767025089
 40
0.9605734767025089
 40
0.9605734767025089
 40
0.9605734767025089
 40
0.96415770609319
 40
0.96415770609319
 40
0.96415770609319
 40
0.96415770609319
 40
0.967741935483871
 40
0.967741935483871
 40
0.967741935483871
 40
0.967741935483871
 40
0.9713261648745519
 40
0.9713261648745519
 40
0.9713261648745519
 40
0.9713261648745519
 40
0.974910394265233
 40
0.974910394265233
 40
0.974910394265233
 40
0.974910394265233
 40
0.978494623655914
 40
0.978494623655914
 40
0.978494623655914
 40
0.978494623655914
 40
0.982078853046595
 40
0.982078853046595
 40
0.982078853046595
 40
0.982078853046595
 40
0.985663082437276
 40
0.985663082437276
 40
0.985663082437276
 40
0.985663082437276
 40
0.989247311827957
 40
0.989247311827957
 40
0.989247311827957
 40
0.989247311827957
 40
0.992831541218638
 40
0.992831541218638
 40
0.992831541218638
 40
0.992831541218638
 40
1.0
 40
1.0
 40
1.0
 40
1.0
 10
0.10266
 20
13.22879
 30
0.0
 10
1.04719
 20
13.45581
 30
0.0
 10
1.45333
 20
13.30653
 30
0.0
 10
1.32108
 20
12.78095
 30
0.0
 10
1.32108
 20
12.78095
 30
0.0
 10
0.3508
 20
12.74288
 30
0.0
 10
-0.55172
 20
12.70173
 30
0.0
 10
-1.38647
 20
12.65749
 30
0.0
 10
-1.38647
 20
12.65749
 30
0.0
 10
-1.53203
 20
12.34544
 30
0.0
 10
-1.51733
 20
12.0691
 30
0.0
 10
-1.34237
 20
11.82846
 30
0.0
 10
-1.34237
 20
11.82846
 30
0.0
 10
-0.23294
 20
11.77318
 30
0.0
 10
0.17569
 20
11.61737
 30
0.0
 10
-0.11647
 20
11.36102
 30
0.0
 10
-0.11647
 20
11.36102
 30
0.0
 10
-0.13831
 20
10.9672
 30
0.0
 10
-0.10891
 20
10.69968
 30
0.0
 10
-0.02827
 20
10.55846
 30
0.0
 10
-0.02827
 20
10.55846
 30
0.0
 10
1.1826
 20
10.50424
 30
0.0
 10
1.60299
 20
10.31021
 30
0.0
 10
1.23291
 20
9.97638
 30
0.0
 10
1.23291
 20
9.97638
 30
0.0
 10
1.23291
 20
9.97638
 30
0.0
 10
1.25055
 20
9.29728
 30
0.0
 10
1.25055
 20
9.29728
 30
0.0
 10
1.25055
 20
9.29728
 30
0.0
 10
1.58589
 20
9.00727
 30
0.0
 10
1.15962
 20
8.7956
 30
0.0
 10
-0.02827
 20
8.66228
 30
0.0
 10
-0.02827
 20
8.66228
 30
0.0
 10
-0.14764
 20
8.30694
 30
0.0
 10
-0.12706
 20
8.01883
 30
0.0
 10
0.03347
 20
7.79797
 30
0.0
 10
0.03347
 20
7.79797
 30
0.0
 10
1.16206
 20
7.79987
 30
0.0
 10
1.57951
 20
7.64112
 30
0.0
 10
1.28583
 20
7.32172
 30
0.0
 10
1.28583
 20
7.32172
 30
0.0
 10
1.28583
 20
7.32172
 30
0.0
 10
1.28587
 20
6.64264
 30
0.0
 10
1.28587
 20
6.64264
 30
0.0
 10
1.28587
 20
6.64264
 30
0.0
 10
1.28587
 20
6.64264
 30
0.0
 10
1.4314
 20
6.43538
 30
0.0
 10
1.4314
 20
6.43538
 30
0.0
 10
1.4314
 20
6.43538
 30
0.0
 10
1.34016
 20
6.29355
 30
0.0
 10
1.10644
 20
6.17743
 30
0.0
 10
0.73024
 20
6.08701
 30
0.0
 10
0.73024
 20
6.08701
 30
0.0
 10
0.28239
 20
6.12391
 30
0.0
 10
0.05161
 20
6.08569
 30
0.0
 10
0.03791
 20
5.97235
 30
0.0
 10
0.03791
 20
5.97235
 30
0.0
 10
1.08166
 20
6.05621
 30
0.0
 10
2.05183
 20
5.85776
 30
0.0
 10
2.9484
 20
5.37702
 30
0.0
 10
2.9484
 20
5.37702
 30
0.0
 10
3.14036
 20
5.65632
 30
0.0
 10
3.38071
 20
5.93634
 30
0.0
 10
3.66946
 20
6.21708
 30
0.0
 10
3.66946
 20
6.21708
 30
0.0
 10
3.29303
 20
6.45633
 30
0.0
 10
3.19822
 20
6.72238
 30
0.0
 10
3.38503
 20
7.01524
 30
0.0
 10
3.38503
 20
7.01524
 30
0.0
 10
3.27823
 20
7.11597
 30
0.0
 10
3.21945
 20
7.19094
 30
0.0
 10
3.20869
 20
7.24016
 30
0.0
 10
3.20869
 20
7.24016
 30
0.0
 10
3.34301
 20
7.52019
 30
0.0
 10
3.52674
 20
7.7642
 30
0.0
 10
3.7599
 20
7.97218
 30
0.0
 10
3.7599
 20
7.97218
 30
0.0
 10
3.84055
 20
8.05052
 30
0.0
 10
3.94934
 20
7.99246
 30
0.0
 10
4.08626
 20
7.79799
 30
0.0
 10
4.08626
 20
7.79799
 30
0.0
 10
4.22367
 20
7.88088
 30
0.0
 10
4.33391
 20
8.00214
 30
0.0
 10
4.41699
 20
8.16179
 30
0.0
 10
4.41699
 20
8.16179
 30
0.0
 10
4.21113
 20
8.29772
 30
0.0
 10
4.14133
 20
8.40282
 30
0.0
 10
4.20757
 20
8.47711
 30
0.0
 10
4.20757
 20
8.47711
 30
0.0
 10
4.35442
 20
8.7157
 30
0.0
 10
4.54918
 20
8.94501
 30
0.0
 10
4.79186
 20
9.16503
 30
0.0
 10
4.79186
 20
9.16503
 30
0.0
 10
4.83769
 20
9.14008
 30
0.0
 10
4.90386
 20
9.11363
 30
0.0
 10
4.99035
 20
9.08566
 30
0.0
 10
4.99035
 20
9.08566
 30
0.0
 10
4.96407
 20
9.53274
 30
0.0
 10
5.21617
 20
9.49968
 30
0.0
 10
5.74666
 20
8.98647
 30
0.0
 10
5.74666
 20
8.98647
 30
0.0
 10
5.74666
 20
8.98647
 30
0.0
 10
5.70477
 20
9.16066
 30
0.0
 10
5.70477
 20
9.16066
 30
0.0
 10
5.70477
 20
9.16066
 30
0.0
 10
5.70477
 20
9.16066
 30
0.0
 10
5.8547
 20
9.15184
 30
0.0
 10
5.8547
 20
9.15184
 30
0.0
 10
5.8547
 20
9.15184
 30
0.0
 10
5.8547
 20
9.15184
 30
0.0
 10
5.83265
 20
9.31059
 30
0.0
 10
5.83265
 20
9.31059
 30
0.0
 10
5.83265
 20
9.31059
 30
0.0
 10
5.83265
 20
9.31059
 30
0.0
 10
5.98039
 20
9.32825
 30
0.0
 10
5.98039
 20
9.32825
 30
0.0
 10
5.98039
 20
9.32825
 30
0.0
 10
5.98039
 20
9.32825
 30
0.0
 10
5.95834
 20
9.44069
 30
0.0
 10
5.95834
 20
9.44069
 30
0.0
 10
5.95834
 20
9.44069
 30
0.0
 10
5.95834
 20
9.44069
 30
0.0
 10
6.13588
 20
9.48259
 30
0.0
 10
6.13588
 20
9.48259
 30
0.0
 10
6.13588
 20
9.48259
 30
0.0
 10
6.13588
 20
9.48259
 30
0.0
 10
6.10171
 20
9.61599
 30
0.0
 10
6.10171
 20
9.61599
 30
0.0
 10
6.10171
 20
9.61599
 30
0.0
 10
6.10171
 20
9.61599
 30
0.0
 10
6.26267
 20
9.6193
 30
0.0
 10
6.26267
 20
9.6193
 30
0.0
 10
6.26267
 20
9.6193
 30
0.0
 10
6.26267
 20
9.6193
 30
0.0
 10
6.23851
 20
9.76264
 30
0.0
 10
6.23851
 20
9.76264
 30
0.0
 10
6.23851
 20
9.76264
 30
0.0
 10
6.23851
 20
9.76264
 30
0.0
 10
6.38404
 20
9.78689
 30
0.0
 10
6.38404
 20
9.78689
 30
0.0
 10
6.38404
 20
9.78689
 30
0.0
 10
6.38404
 20
9.78689
 30
0.0
 10
6.34214
 20
9.94344
 30
0.0
 10
6.34214
 20
9.94344
 30
0.0
 10
6.34214
 20
9.94344
 30
0.0
 10
6.34214
 20
9.94344
 30
0.0
 10
6.51413
 20
9.96989
 30
0.0
 10
6.51413
 20
9.96989
 30
0.0
 10
6.51413
 20
9.96989
 30
0.0
 10
6.51413
 20
9.96989
 30
0.0
 10
6.50531
 20
10.09778
 30
0.0
 10
6.50531
 20
10.09778
 30
0.0
 10
6.50531
 20
10.09778
 30
0.0
 10
6.50531
 20
10.09778
 30
0.0
 10
6.66413
 20
10.07903
 30
0.0
 10
6.66413
 20
10.07903
 30
0.0
 10
6.66413
 20
10.07903
 30
0.0
 10
6.66413
 20
10.07903
 30
0.0
 10
6.63437
 20
10.23117
 30
0.0
 10
6.63437
 20
10.23117
 30
0.0
 10
6.63437
 20
10.23117
 30
0.0
 10
6.63437
 20
10.23117
 30
0.0
 10
6.76562
 20
10.23891
 30
0.0
 10
6.76562
 20
10.23891
 30
0.0
 10
6.76562
 20
10.23891
 30
0.0
 10
6.76562
 20
10.23891
 30
0.0
 10
6.72814
 20
10.39546
 30
0.0
 10
6.72814
 20
10.39546
 30
0.0
 10
6.72814
 20
10.39546
 30
0.0
 10
6.72814
 20
10.39546
 30
0.0
 10
6.90232
 20
10.4153
 30
0.0
 10
6.90232
 20
10.4153
 30
0.0
 10
6.90232
 20
10.4153
 30
0.0
 10
6.90232
 20
10.4153
 30
0.0
 10
6.89791
 20
10.54539
 30
0.0
 10
6.89791
 20
10.54539
 30
0.0
 10
6.89791
 20
10.54539
 30
0.0
 10
6.89791
 20
10.54539
 30
0.0
 10
7.05006
 20
10.53547
 30
0.0
 10
7.05006
 20
10.53547
 30
0.0
 10
7.05006
 20
10.53547
 30
0.0
 10
7.05006
 20
10.53547
 30
0.0
 10
7.02691
 20
10.70084
 30
0.0
 10
7.02691
 20
10.70084
 30
0.0
 10
7.02691
 20
10.70084
 30
0.0
 10
7.02691
 20
10.70084
 30
0.0
 10
7.17802
 20
10.73397
 30
0.0
 10
7.17802
 20
10.73397
 30
0.0
 10
7.17802
 20
10.73397
 30
0.0
 10
7.17802
 20
10.73397
 30
0.0
 10
7.18243
 20
10.84422
 30
0.0
 10
7.18243
 20
10.84422
 30
0.0
 10
7.18243
 20
10.84422
 30
0.0
 10
7.16895
 20
10.84386
 30
0.0
 10
7.21745
 20
10.8468
 30
0.0
 10
7.32795
 20
10.85304
 30
0.0
 10
7.32795
 20
10.85304
 30
0.0
 10
7.32795
 20
10.85304
 30
0.0
 10
7.31252
 20
11.0162
 30
0.0
 10
7.31252
 20
11.0162
 30
0.0
 10
7.31252
 20
11.0162
 30
0.0
 10
7.31252
 20
11.0162
 30
0.0
 10
7.41394
 20
11.02502
 30
0.0
 10
7.41394
 20
11.02502
 30
0.0
 10
7.41394
 20
11.02502
 30
0.0
 10
7.41394
 20
11.02502
 30
0.0
 10
7.38969
 20
11.18377
 30
0.0
 10
7.38969
 20
11.18377
 30
0.0
 10
7.38969
 20
11.18377
 30
0.0
 10
7.38969
 20
11.18377
 30
0.0
 10
7.53742
 20
11.18818
 30
0.0
 10
7.53742
 20
11.18818
 30
0.0
 10
7.53742
 20
11.18818
 30
0.0
 10
7.53742
 20
11.18818
 30
0.0
 10
7.5308
 20
11.31827
 30
0.0
 10
7.5308
 20
11.31827
 30
0.0
 10
7.5308
 20
11.31827
 30
0.0
 10
7.5308
 20
11.31827
 30
0.0
 10
7.69396
 20
11.3315
 30
0.0
 10
7.69396
 20
11.3315
 30
0.0
 10
7.69396
 20
11.3315
 30
0.0
 10
7.69396
 20
11.3315
 30
0.0
 10
7.69396
 20
11.49686
 30
0.0
 10
7.69396
 20
11.49686
 30
0.0
 10
7.69396
 20
11.49686
 30
0.0
 10
7.69396
 20
11.49686
 30
0.0
 10
7.87265
 20
11.50348
 30
0.0
 10
7.87265
 20
11.50348
 30
0.0
 10
7.87265
 20
11.50348
 30
0.0
 10
7.85868
 20
11.91975
 30
0.0
 10
8.02919
 20
12.06821
 30
0.0
 10
8.38418
 20
11.94886
 30
0.0
 10
8.38418
 20
11.94886
 30
0.0
 10
8.91503
 20
12.47557
 30
0.0
 10
9.47359
 20
12.42118
 30
0.0
 10
10.05988
 20
11.7857
 30
0.0
 10
10.05988
 20
11.7857
 30
0.0
 10
9.88538
 20
11.60336
 30
0.0
 10
9.72075
 20
11.60924
 30
0.0
 10
9.56599
 20
11.80334
 30
0.0
 10
9.56599
 20
11.80334
 30
0.0
 10
9.12136
 20
12.14519
 30
0.0
 10
8.78034
 20
12.10845
 30
0.0
 10
8.54293
 20
11.6931
 30
0.0
 10
8.54293
 20
11.6931
 30
0.0
 10
8.74687
 20
11.4729
 30
0.0
 10
9.00999
 20
11.43615
 30
0.0
 10
9.33227
 20
11.58286
 30
0.0
 10
9.33227
 20
11.58286
 30
0.0
 10
9.48396
 20
11.45571
 30
0.0
 10
9.53981
 20
11.28961
 30
0.0
 10
9.49984
 20
11.08456
 30
0.0
 10
9.49984
 20
11.08456
 30
0.0
 10
9.45503
 20
11.05212
 30
0.0
 10
9.43446
 20
11.00655
 30
0.0
 10
9.43813
 20
10.94787
 30
0.0
 10
9.43813
 20
10.94787
 30
0.0
 10
9.99717
 20
10.56163
 30
0.0
 10
10.21618
 20
10.3382
 30
0.0
 10
10.09516
 20
10.27759
 30
0.0
 10
10.09516
 20
10.27759
 30
0.0
 10
9.14988
 20
9.26623
 30
0.0
 10
8.32968
 20
8.29021
 30
0.0
 10
7.63455
 20
7.34953
 30
0.0
 10
7.63455
 20
7.34953
 30
0.0
 10
7.86139
 20
7.20394
 30
0.0
 10
7.99663
 20
7.07164
 30
0.0
 10
8.04027
 20
6.95264
 30
0.0
 10
8.04027
 20
6.95264
 30
0.0
 10
8.07662
 20
6.88369
 30
0.0
 10
8.009
 20
6.79549
 30
0.0
 10
7.83742
 20
6.68805
 30
0.0
 10
7.83742
 20
6.68805
 30
0.0
 10
7.95118
 20
6.59679
 30
0.0
 10
7.74833
 20
6.29399
 30
0.0
 10
7.22888
 20
5.77966
 30
0.0
 10
7.22888
 20
5.77966
 30
0.0
 10
7.16941
 20
5.90353
 30
0.0
 10
7.06504
 20
5.97115
 30
0.0
 10
6.91578
 20
5.9825
 30
0.0
 10
6.91578
 20
5.9825
 30
0.0
 10
6.89029
 20
5.87756
 30
0.0
 10
6.81238
 20
5.78055
 30
0.0
 10
6.68207
 20
5.69146
 30
0.0
 10
6.68207
 20
5.69146
 30
0.0
 10
6.79553
 20
5.60722
 30
0.0
 10
6.86462
 20
5.50579
 30
0.0
 10
6.88932
 20
5.38719
 30
0.0
 10
6.88932
 20
5.38719
 30
0.0
 10
6.7674
 20
5.08708
 30
0.0
 10
6.54103
 20
4.84307
 30
0.0
 10
6.21022
 20
4.65517
 30
0.0
 10
6.21022
 20
4.65517
 30
0.0
 10
6.16955
 20
4.75326
 30
0.0
 10
6.07036
 20
4.80251
 30
0.0
 10
5.91267
 20
4.8029
 30
0.0
 10
5.91267
 20
4.8029
 30
0.0
 10
5.74957
 20
4.6438
 30
0.0
 10
5.58495
 20
4.61439
 30
0.0
 10
5.41881
 20
4.71468
 30
0.0
 10
5.41881
 20
4.71468
 30
0.0
 10
5.32787
 20
4.83525
 30
0.0
 10
5.22277
 20
4.88008
 30
0.0
 10
5.10351
 20
4.84918
 30
0.0
 10
5.10351
 20
4.84918
 30
0.0
 10
4.93759
 20
4.68908
 30
0.0
 10
4.75312
 20
4.47227
 30
0.0
 10
4.55009
 20
4.19874
 30
0.0
 10
4.55009
 20
4.19874
 30
0.0
 10
5.06823
 20
3.68603
 30
0.0
 10
5.46218
 20
3.101
 30
0.0
 10
5.73194
 20
2.44366
 30
0.0
 10
5.73194
 20
2.44366
 30
0.0
 10
6.18799
 20
2.59721
 30
0.0
 10
6.67749
 20
2.70745
 30
0.0
 10
7.20044
 20
2.77436
 30
0.0
 10
7.20044
 20
2.77436
 30
0.0
 10
7.29282
 20
2.89706
 30
0.0
 10
7.39718
 20
2.92499
 30
0.0
 10
7.51353
 20
2.85815
 30
0.0
 10
7.51353
 20
2.85815
 30
0.0
 10
7.7128
 20
2.74267
 30
0.0
 10
7.78042
 20
2.82498
 30
0.0
 10
7.71638
 20
3.10509
 30
0.0
 10
7.71638
 20
3.10509
 30
0.0
 10
8.05421
 20
3.14083
 30
0.0
 10
8.42756
 20
3.21285
 30
0.0
 10
8.83645
 20
3.32117
 30
0.0
 10
8.83645
 20
3.32117
 30
0.0
 10
8.81192
 20
3.45878
 30
0.0
 10
8.80018
 20
3.61017
 30
0.0
 10
8.80123
 20
3.77535
 30
0.0
 10
8.80123
 20
3.77535
 30
0.0
 10
9.33619
 20
3.93186
 30
0.0
 10
9.88006
 20
4.06415
 30
0.0
 10
10.43284
 20
4.17222
 30
0.0
 10
10.43284
 20
4.17222
 30
0.0
 10
10.4383
 20
3.94942
 30
0.0
 10
10.48975
 20
3.84065
 30
0.0
 10
10.58718
 20
3.8459
 30
0.0
 10
10.58718
 20
3.8459
 30
0.0
 10
11.22881
 20
4.10913
 30
0.0
 10
11.59335
 20
4.18262
 30
0.0
 10
11.68081
 20
4.06637
 30
0.0
 10
11.68081
 20
4.06637
 30
0.0
 10
11.70449
 20
3.82246
 30
0.0
 10
11.78386
 20
3.72692
 30
0.0
 10
11.91894
 20
3.77974
 30
0.0
 10
11.91894
 20
3.77974
 30
0.0
 10
11.98686
 20
3.84957
 30
0.0
 10
12.14855
 20
3.88044
 30
0.0
 10
12.40401
 20
3.87234
 30
0.0
 10
12.40401
 20
3.87234
 30
0.0
 10
12.45068
 20
3.99015
 30
0.0
 10
12.60649
 20
4.02102
 30
0.0
 10
12.87144
 20
3.96495
 30
0.0
 10
12.87144
 20
3.96495
 30
0.0
 10
12.97939
 20
4.07329
 30
0.0
 10
13.16019
 20
4.12768
 30
0.0
 10
13.41384
 20
4.12811
 30
0.0
 10
13.41384
 20
4.12811
 30
0.0
 10
13.76735
 20
4.39158
 30
0.0
 10
13.97608
 20
4.26663
 30
0.0
 10
14.04003
 20
3.75328
 30
0.0
 10
14.04003
 20
3.75328
 30
0.0
 10
14.0443
 20
3.67297
 30
0.0
 10
14.07076
 20
3.61563
 30
0.0
 10
14.11941
 20
3.58128
 30
0.0
 10
14.11941
 20
3.58128
 30
0.0
 10
14.6535
 20
3.81406
 30
0.0
 10
14.98717
 20
3.83757
 30
0.0
 10
15.12042
 20
3.65183
 30
0.0
 10
15.12042
 20
3.65183
 30
0.0
 10
15.23133
 20
3.35965
 30
0.0
 10
14.93882
 20
3.18179
 30
0.0
 10
14.24289
 20
3.11826
 30
0.0
 10
14.24289
 20
3.11826
 30
0.0
 10
14.24159
 20
2.98867
 30
0.0
 10
14.24893
 20
2.85638
 30
0.0
 10
14.26492
 20
2.72137
 30
0.0
 10
14.26492
 20
2.72137
 30
0.0
 10
14.18243
 20
2.64281
 30
0.0
 10
14.11481
 20
2.50464
 30
0.0
 10
14.06207
 20
2.30685
 30
0.0
 10
14.06207
 20
2.30685
 30
0.0
 10
13.63026
 20
2.22346
 30
0.0
 10
13.15107
 20
2.10587
 30
0.0
 10
12.6245
 20
1.95408
 30
0.0
 10
12.6245
 20
1.95408
 30
0.0
 10
12.33413
 20
1.98532
 30
0.0
 10
12.20037
 20
1.903
 30
0.0
 10
12.22321
 20
1.70713
 30
0.0
 10
12.22321
 20
1.70713
 30
0.0
 10
12.30408
 20
1.60151
 30
0.0
 10
12.25263
 20
1.51919
 30
0.0
 10
12.06887
 20
1.46018
 30
0.0
 10
12.06887
 20
1.46018
 30
0.0
 10
11.66495
 20
1.54659
 30
0.0
 10
11.5062
 20
1.49956
 30
0.0
 10
11.59261
 20
1.31907
 30
0.0
 10
11.59261
 20
1.31907
 30
0.0
 10
11.23444
 20
1.28813
 30
0.0
 10
11.10069
 20
1.15583
 30
0.0
 10
11.19136
 20
0.92217
 30
0.0
 10
11.19136
 20
0.92217
 30
0.0
 10
10.84472
 20
0.74707
 30
0.0
 10
10.30085
 20
0.62066
 30
0.0
 10
9.55976
 20
0.54294
 30
0.0
 10
9.55976
 20
0.54294
 30
0.0
 10
9.60354
 20
0.76839
 30
0.0
 10
9.1949
 20
0.74781
 30
0.0
 10
8.33385
 20
0.4812
 30
0.0
 10
8.33385
 20
0.4812
 30
0.0
 10
8.35758
 20
0.59313
 30
0.0
 10
8.3076
 20
0.64899
 30
0.0
 10
8.18392
 20
0.64877
 30
0.0
 10
8.18392
 20
0.64877
 30
0.0
 10
8.17102
 20
0.56034
 30
0.0
 10
8.07107
 20
0.52212
 30
0.0
 10
7.88406
 20
0.53412
 30
0.0
 10
7.88406
 20
0.53412
 30
0.0
 10
7.69559
 20
0.40966
 30
0.0
 10
7.5486
 20
0.39496
 30
0.0
 10
7.44309
 20
0.49002
 30
0.0
 10
7.44309
 20
0.49002
 30
0.0
 10
7.39848
 20
0.36646
 30
0.0
 10
6.97516
 20
0.31648
 30
0.0
 10
6.17315
 20
0.34008
 30
0.0
 10
6.17315
 20
0.34008
 30
0.0
 10
6.25721
 20
-0.03572
 30
0.0
 10
6.25576
 20
-0.4811
 30
0.0
 10
6.16878
 20
-0.99608
 30
0.0
 10
6.16878
 20
-0.99608
 30
0.0
 10
6.17034
 20
-1.1354
 30
0.0
 10
6.20492
 20
-1.26991
 30
0.0
 10
6.27253
 20
-1.39961
 30
0.0
 10
6.27253
 20
-1.39961
 30
0.0
 10
6.36286
 20
-1.2746
 30
0.0
 10
6.4246
 20
-1.24447
 30
0.0
 10
6.45774
 20
-1.30921
 30
0.0
 10
6.45774
 20
-1.30921
 30
0.0
 10
6.43972
 20
-1.55369
 30
0.0
 10
6.52425
 20
-1.58456
 30
0.0
 10
6.71132
 20
-1.40181
 30
0.0
 10
6.71132
 20
-1.40181
 30
0.0
 10
7.0179
 20
-1.57675
 30
0.0
 10
7.49709
 20
-1.85603
 30
0.0
 10
8.14889
 20
-2.23966
 30
0.0
 10
8.14889
 20
-2.23966
 30
0.0
 10
8.21657
 20
-2.51068
 30
0.0
 10
8.03724
 20
-2.75762
 30
0.0
 10
7.6109
 20
-2.98049
 30
0.0
 10
7.6109
 20
-2.98049
 30
0.0
 10
8.23161
 20
-3.35176
 30
0.0
 10
11.1175
 20
-5.20338
 30
0.0
 10
11.78254
 20
-4.22845
 30
0.0
 10
11.78254
 20
-4.22845
 30
0.0
 10
11.92075
 20
-4.06871
 30
0.0
 10
12.08097
 20
-4.02461
 30
0.0
 10
12.26321
 20
-4.09616
 30
0.0
 10
12.26321
 20
-4.09616
 30
0.0
 10
12.41662
 20
-4.1363
 30
0.0
 10
12.69002
 20
-4.28697
 30
0.0
 10
13.08341
 20
-4.54816
 30
0.0
 10
13.08341
 20
-4.54816
 30
0.0
 10
13.08341
 20
-4.54816
 30
0.0
 10
13.08338
 20
-4.74387
 30
0.0
 10
13.08338
 20
-4.74387
 30
0.0
 10
13.08338
 20
-4.74387
 30
0.0
 10
13.08338
 20
-4.74387
 30
0.0
 10
13.39208
 20
-4.70424
 30
0.0
 10
13.39208
 20
-4.70424
 30
0.0
 10
13.39208
 20
-4.70424
 30
0.0
 10
13.7396
 20
-4.89716
 30
0.0
 10
14.11002
 20
-5.10589
 30
0.0
 10
14.50333
 20
-5.33042
 30
0.0
 10
14.50333
 20
-5.33042
 30
0.0
 10
14.63714
 20
-5.4557
 30
0.0
 10
14.66653
 20
-5.59387
 30
0.0
 10
14.59152
 20
-5.74492
 30
0.0
 10
14.59152
 20
-5.74492
 30
0.0
 10
14.03948
 20
-6.61386
 30
0.0
 10
13.48386
 20
-7.59577
 30
0.0
 10
12.92466
 20
-8.69064
 30
0.0
 10
12.92466
 20
-8.69064
 30
0.0
 10
12.90766
 20
-9.32733
 30
0.0
 10
12.34616
 20
-9.23032
 30
0.0
 10
11.24015
 20
-8.39961
 30
0.0
 10
11.24015
 20
-8.39961
 30
0.0
 10
11.24015
 20
-8.39961
 30
0.0
 10
11.17841
 20
-8.19676
 30
0.0
 10
11.17841
 20
-8.19676
 30
0.0
 10
11.17841
 20
-8.19676
 30
0.0
 10
11.17841
 20
-8.19676
 30
0.0
 10
10.89619
 20
-8.22322
 30
0.0
 10
10.89619
 20
-8.22322
 30
0.0
 10
10.89619
 20
-8.22322
 30
0.0
 10
10.16164
 20
-7.95259
 30
0.0
 10
9.85589
 20
-7.67625
 30
0.0
 10
9.97896
 20
-7.39419
 30
0.0
 10
9.97896
 20
-7.39419
 30
0.0
 10
10.54261
 20
-6.66237
 30
0.0
 10
9.50486
 20
-5.59816
 30
0.0
 10
6.86571
 20
-4.20155
 30
0.0
 10
6.86571
 20
-4.20155
 30
0.0
 10
6.90884
 20
-4.57602
 30
0.0
 10
6.803
 20
-4.91998
 30
0.0
 10
6.54821
 20
-5.23343
 30
0.0
 10
6.54821
 20
-5.23343
 30
0.0
 10
6.03027
 20
-4.95616
 30
0.0
 10
5.5261
 20
-4.65777
 30
0.0
 10
5.03569
 20
-4.33827
 30
0.0
 10
5.03569
 20
-4.33827
 30
0.0
 10
5.08845
 20
-4.18546
 30
0.0
 10
5.07228
 20
-4.08698
 30
0.0
 10
4.98718
 20
-4.04282
 30
0.0
 10
4.98718
 20
-4.04282
 30
0.0
 10
4.87914
 20
-4.27685
 30
0.0
 10
4.78362
 20
-4.24524
 30
0.0
 10
4.7006
 20
-3.94801
 30
0.0
 10
4.7006
 20
-3.94801
 30
0.0
 10
4.38032
 20
-4.38447
 30
0.0
 10
3.92025
 20
-4.72624
 30
0.0
 10
3.36448
 20
-5.06591
 30
0.0
 10
3.36448
 20
-5.06591
 30
0.0
 10
4.53937
 20
-7.80935
 30
0.0
 10
5.61463
 20
-9.72978
 30
0.0
 10
6.54617
 20
-10.7346
 30
0.0
 10
6.54617
 20
-10.7346
 30
0.0
 10
7.81058
 20
-11.29006
 30
0.0
 10
8.24714
 20
-12.73352
 30
0.0
 10
7.7368
 20
-13.55683
 30
0.0
 10
7.7368
 20
-13.55683
 30
0.0
 10
7.55779
 20
-13.11761
 30
0.0
 10
7.28586
 20
-12.52232
 30
0.0
 10
6.92101
 20
-11.77095
 30
0.0
 10
6.92101
 20
-11.77095
 30
0.0
 10
6.86366
 20
-11.61896
 30
0.0
 10
6.72696
 20
-11.55281
 30
0.0
 10
6.5109
 20
-11.57251
 30
0.0
 10
6.5109
 20
-11.57251
 30
0.0
 10
6.15636
 20
-11.70598
 30
0.0
 10
5.76243
 20
-11.88237
 30
0.0
 10
5.32909
 20
-12.10168
 30
0.0
 10
5.32909
 20
-12.10168
 30
0.0
 10
5.31341
 20
-12.19877
 30
0.0
 10
5.31855
 20
-12.35458
 30
0.0
 10
5.34451
 20
-12.56912
 30
0.0
 10
5.34451
 20
-12.56912
 30
0.0
 10
5.72087
 20
-13.282
 30
0.0
 10
5.98545
 20
-13.86997
 30
0.0
 10
6.13825
 20
-14.33303
 30
0.0
 10
6.13825
 20
-14.33303
 30
0.0
 10
4.83346
 20
-14.00497
 30
0.0
 10
4.24404
 20
-12.24328
 30
0.0
 10
4.9256
 20
-11.42923
 30
0.0
 10
4.9256
 20
-11.42923
 30
0.0
 10
5.1158
 20
-11.27172
 30
0.0
 10
5.05185
 20
-11.06006
 30
0.0
 10
4.73376
 20
-10.79423
 30
0.0
 10
4.73376
 20
-10.79423
 30
0.0
 10
4.50937
 20
-9.91975
 30
0.0
 10
3.75091
 20
-8.14998
 30
0.0
 10
2.45836
 20
-5.48494
 30
0.0
 10
2.45836
 20
-5.48494
 30
0.0
 10
1.99258
 20
-5.70971
 30
0.0
 10
1.44578
 20
-5.83906
 30
0.0
 10
0.81796
 20
-5.87298
 30
0.0
 10
0.81796
 20
-5.87298
 30
0.0
 10
0.77927
 20
-6.27962
 30
0.0
 10
0.56761
 20
-6.61476
 30
0.0
 10
0.18296
 20
-6.8784
 30
0.0
 10
0.18296
 20
-6.8784
 30
0.0
 10
-0.01424
 20
-7.82019
 30
0.0
 10
-0.11273
 20
-8.68157
 30
0.0
 10
-0.11251
 20
-9.46253
 30
0.0
 10
-0.11251
 20
-9.46253
 30
0.0
 10
0.4937
 20
-9.57545
 30
0.0
 10
0.47497
 20
-9.72758
 30
0.0
 10
-0.16871
 20
-9.91894
 30
0.0
 10
-0.16871
 20
-9.91894
 30
0.0
 10
-0.18025
 20
-9.98087
 30
0.0
 10
-0.17915
 20
-10.03674
 30
0.0
 10
-0.1654
 20
-10.08654
 30
0.0
 10
-0.1654
 20
-10.08654
 30
0.0
 10
0.34733
 20
-10.21784
 30
0.0
 10
0.3341
 20
-10.38063
 30
0.0
 10
-0.20509
 20
-10.57491
 30
0.0
 10
-0.20509
 20
-10.57491
 30
0.0
 10
-0.21313
 20
-10.62266
 30
0.0
 10
-0.21239
 20
-10.6866
 30
0.0
 10
-0.20288
 20
-10.76674
 30
0.0
 10
-0.20288
 20
-10.76674
 30
0.0
 10
0.28144
 20
-10.85563
 30
0.0
 10
0.27629
 20
-10.96807
 30
0.0
 10
-0.21831
 20
-11.10408
 30
0.0
 10
-0.21831
 20
-11.10408
 30
0.0
 10
-0.24576
 20
-11.1631
 30
0.0
 10
-0.25017
 20
-11.25938
 30
0.0
 10
-0.23154
 20
-11.39292
 30
0.0
 10
-0.23154
 20
-11.39292
 30
0.0
 10
0.19905
 20
-11.51375
 30
0.0
 10
0.1917
 20
-11.62106
 30
0.0
 10
-0.25359
 20
-11.71484
 30
0.0
 10
-0.25359
 20
-11.71484
 30
0.0
 10
-0.28332
 20
-11.81972
 30
0.0
 10
-0.29434
 20
-11.92262
 30
0.0
 10
-0.28666
 20
-12.02352
 30
0.0
 10
-0.28666
 20
-12.02352
 30
0.0
 10
0.15411
 20
-12.10485
 30
0.0
 10
0.14235
 20
-12.22098
 30
0.0
 10
-0.32193
 20
-12.3719
 30
0.0
 10
-0.32193
 20
-12.3719
 30
0.0
 10
-0.30629
 20
-12.74867
 30
0.0
 10
-0.46799
 20
-12.98533
 30
0.0
 10
-0.80701
 20
-13.08187
 30
0.0
 10
-0.80701
 20
-13.08187
 30
0.0
 10
-0.86953
 20
-13.24115
 30
0.0
 10
-0.97976
 20
-13.33743
 30
0.0
 10
-1.13772
 20
-13.37072
 30
0.0
 10
-1.13772
 20
-13.37072
 30
0.0
 10
-1.3424
 20
-13.82198
 30
0.0
 10
-1.37915
 20
-14.20858
 30
0.0
 10
-1.24798
 20
-14.53051
 30
0.0
 10
-1.24798
 20
-14.53051
 30
0.0
 10
-1.16908
 20
-15.02046
 30
0.0
 10
-1.35797
 20
-15.28357
 30
0.0
 10
-1.81464
 20
-15.31986
 30
0.0
 10
-1.81464
 20
-15.31986
 30
0.0
 10
-2.28773
 20
-15.20893
 30
0.0
 10
-2.45456
 20
-14.94215
 30
0.0
 10
-2.31512
 20
-14.51951
 30
0.0
 10
-2.31512
 20
-14.51951
 30
0.0
 10
-2.12155
 20
-14.2581
 30
0.0
 10
-2.02674
 20
-13.8436
 30
0.0
 10
-2.0307
 20
-13.27599
 30
0.0
 10
-2.0307
 20
-13.27599
 30
0.0
 10
-2.18508
 20
-13.22509
 30
0.0
 10
-2.2843
 20
-13.10603
 30
0.0
 10
-2.32835
 20
-12.9188
 30
0.0
 10
-2.32835
 20
-12.9188
 30
0.0
 10
-2.52375
 20
-12.81199
 30
0.0
 10
-2.61342
 20
-12.6709
 30
0.0
 10
-2.59736
 20
-12.49551
 30
0.0
 10
-2.59736
 20
-12.49551
 30
0.0
 10
-3.17808
 20
-12.37055
 30
0.0
 10
-3.15823
 20
-12.2603
 30
0.0
 10
-2.53782
 20
-12.16477
 30
0.0
 10
-2.53782
 20
-12.16477
 30
0.0
 10
-2.52294
 20
-12.08711
 30
0.0
 10
-2.52
 20
-12.00408
 30
0.0
 10
-2.52898
 20
-11.91568
 30
0.0
 10
-2.52898
 20
-11.91568
 30
0.0
 10
-2.99785
 20
-11.7356
 30
0.0
 10
-2.99087
 20
-11.618
 30
0.0
 10
-2.50804
 20
-11.5629
 30
0.0
 10
-2.50804
 20
-11.5629
 30
0.0
 10
-2.50185
 20
-11.46443
 30
0.0
 10
-2.49632
 20
-11.36668
 30
0.0
 10
-2.49146
 20
-11.26965
 30
0.0
 10
-2.49146
 20
-11.26965
 30
0.0
 10
-2.90966
 20
-11.13162
 30
0.0
 10
-2.90304
 20
-11.01991
 30
0.0
 10
-2.47162
 20
-10.93451
 30
0.0
 10
-2.47162
 20
-10.93451
 30
0.0
 10
-2.47162
 20
-10.93451
 30
0.0
 10
-2.41429
 20
-10.59497
 30
0.0
 10
-2.41429
 20
-10.59497
 30
0.0
 10
-2.41429
 20
-10.59497
 30
0.0
 10
-2.89126
 20
-10.5135
 30
0.0
 10
-2.88464
 20
-10.40105
 30
0.0
 10
-2.39444
 20
-10.25762
 30
0.0
 10
-2.39444
 20
-10.25762
 30
0.0
 10
-2.38788
 20
-10.18117
 30
0.0
 10
-2.38861
 20
-10.09665
 30
0.0
 10
-2.39664
 20
-10.00407
 30
0.0
 10
-2.39664
 20
-10.00407
 30
0.0
 10
-2.82782
 20
-9.88632
 30
0.0
 10
-2.79402
 20
-9.75697
 30
0.0
 10
-2.29522
 20
-9.61601
 30
0.0
 10
-2.29522
 20
-9.61601
 30
0.0
 10
-2.31782
 20
-9.51866
 30
0.0
 10
-2.31194
 20
-9.39666
 30
0.0
 10
-2.27758
 20
-9.25
 30
0.0
 10
-2.27758
 20
-9.25
 30
0.0
 10
-2.23586
 20
-9.16087
 30
0.0
 10
-2.15648
 20
-9.07415
 30
0.0
 10
-2.03945
 20
-8.98982
 30
0.0
 10
-2.03945
 20
-8.98982
 30
0.0
 10
-2.0232
 20
-8.75713
 30
0.0
 10
-1.98644
 20
-8.41173
 30
0.0
 10
-1.92917
 20
-7.95361
 30
0.0
 10
-1.92917
 20
-7.95361
 30
0.0
 10
-1.79163
 20
-7.09487
 30
0.0
 10
-1.80338
 20
-6.60098
 30
0.0
 10
-1.96443
 20
-6.47195
 30
0.0
 10
-1.96443
 20
-6.47195
 30
0.0
 10
-2.18108
 20
-6.1905
 30
0.0
 10
-2.26046
 20
-5.81126
 30
0.0
 10
-2.20256
 20
-5.33424
 30
0.0
 10
-2.20256
 20
-5.33424
 30
0.0
 10
-2.55256
 20
-5.26671
 30
0.0
 10
-2.9083
 20
-5.0668
 30
0.0
 10
-3.26976
 20
-4.73451
 30
0.0
 10
-3.26976
 20
-4.73451
 30
0.0
 10
-3.86947
 20
-5.26648
 30
0.0
 10
-4.51623
 20
-5.78831
 30
0.0
 10
-5.21006
 20
-6.29999
 30
0.0
 10
-5.21006
 20
-6.29999
 30
0.0
 10
-5.18574
 20
-6.41706
 30
0.0
 10
-5.17104
 20
-6.51996
 30
0.0
 10
-5.16597
 20
-6.60867
 30
0.0
 10
-5.16597
 20
-6.60867
 30
0.0
 10
-5.49492
 20
-6.66915
 30
0.0
 10
-5.69633
 20
-6.57067
 30
0.0
 10
-5.7702
 20
-6.31324
 30
0.0
 10
-5.7702
 20
-6.31324
 30
0.0
 10
-6.02413
 20
-6.57008
 30
0.0
 10
-6.37103
 20
-6.82879
 30
0.0
 10
-6.8109
 20
-7.08935
 30
0.0
 10
-6.8109
 20
-7.08935
 30
0.0
 10
-6.99514
 20
-7.12719
 30
0.0
 10
-7.18035
 20
-7.11249
 30
0.0
 10
-7.36654
 20
-7.04524
 30
0.0
 10
-7.36654
 20
-7.04524
 30
0.0
 10
-7.95157
 20
-7.53099
 30
0.0
 10
-8.8982
 20
-8.29828
 30
0.0
 10
-10.20642
 20
-9.34712
 30
0.0
 10
-10.20642
 20
-9.34712
 30
0.0
 10
-10.34842
 20
-9.38098
 30
0.0
 10
-10.52187
 20
-9.33689
 30
0.0
 10
-10.72677
 20
-9.21483
 30
0.0
 10
-10.72677
 20
-9.21483
 30
0.0
 10
-11.06665
 20
-9.50059
 30
0.0
 10
-11.36651
 20
-9.72695
 30
0.0
 10
-11.62635
 20
-9.89393
 30
0.0
 10
-11.62635
 20
-9.89393
 30
0.0
 10
-11.78036
 20
-9.79931
 30
0.0
 10
-11.91559
 20
-9.5994
 30
0.0
 10
-12.03205
 20
-9.29421
 30
0.0
 10
-12.03205
 20
-9.29421
 30
0.0
 10
-12.03205
 20
-9.29421
 30
0.0
 10
-11.22066
 20
-8.62393
 30
0.0
 10
-11.22066
 20
-8.62393
 30
0.0
 10
-11.22066
 20
-8.62393
 30
0.0
 10
-11.26208
 20
-8.41732
 30
0.0
 10
-11.2562
 20
-8.22035
 30
0.0
 10
-11.20301
 20
-8.03303
 30
0.0
 10
-11.20301
 20
-8.03303
 30
0.0
 10
-10.47108
 20
-7.3874
 30
0.0
 10
-9.51858
 20
-6.59365
 30
0.0
 10
-8.34552
 20
-5.65179
 30
0.0
 10
-8.34552
 20
-5.65179
 30
0.0
 10
-8.43777
 20
-5.43854
 30
0.0
 10
-8.47893
 20
-5.25334
 30
0.0
 10
-8.469
 20
-5.09618
 30
0.0
 10
-8.469
 20
-5.09618
 30
0.0
 10
-8.07461
 20
-4.79831
 30
0.0
 10
-7.74682
 20
-4.51021
 30
0.0
 10
-7.48563
 20
-4.23188
 30
0.0
 10
-7.48563
 20
-4.23188
 30
0.0
 10
-7.54295
 20
-4.13311
 30
0.0
 10
-7.57235
 20
-4.00817
 30
0.0
 10
-7.57382
 20
-3.85705
 30
0.0
 10
-7.57382
 20
-3.85705
 30
0.0
 10
-7.57382
 20
-3.85705
 30
0.0
 10
-5.28081
 20
-2.0138
 30
0.0
 10
-5.28081
 20
-2.0138
 30
0.0
 10
-5.28081
 20
-2.0138
 30
0.0
 10
-5.4299
 20
-1.66204
 30
0.0
 10
-5.52985
 20
-1.28869
 30
0.0
 10
-5.58068
 20
-0.89373
 30
0.0
 10
-5.58068
 20
-0.89373
 30
0.0
 10
-5.93645
 20
-0.95914
 30
0.0
 10
-6.05332
 20
-0.70853
 30
0.0
 10
-5.93128
 20
-0.14189
 30
0.0
 10
-5.93128
 20
-0.14189
 30
0.0
 10
-5.93128
 20
-0.14189
 30
0.0
 10
-6.31496
 20
-0.13529
 30
0.0
 10
-6.31496
 20
-0.13529
 30
0.0
 10
-6.31496
 20
-0.13529
 30
0.0
 10
-6.20044
 20
-0.68253
 30
0.0
 10
-6.29452
 20
-0.86186
 30
0.0
 10
-6.59719
 20
-0.67328
 30
0.0
 10
-6.59719
 20
-0.67328
 30
0.0
 10
-6.66509
 20
-0.31825
 30
0.0
 10
-6.82385
 20
-0.1698
 30
0.0
 10
-7.07347
 20
-0.22791
 30
0.0
 10
-7.07347
 20
-0.22791
 30
0.0
 10
-7.03153
 20
-0.6504
 30
0.0
 10
-7.155
 20
-0.79298
 30
0.0
 10
-7.44389
 20
-0.65565
 30
0.0
 10
-7.44389
 20
-0.65565
 30
0.0
 10
-7.51003
 20
-0.2425
 30
0.0
 10
-7.65408
 20
-0.08081
 30
0.0
 10
-7.87604
 20
-0.17058
 30
0.0
 10
-7.87604
 20
-0.17058
 30
0.0
 10
-7.8439
 20
-0.56814
 30
0.0
 10
-7.95561
 20
-0.74012
 30
0.0
 10
-8.21118
 20
-0.68652
 30
0.0
 10
-8.21118
 20
-0.68652
 30
0.0
 10
-8.38701
 20
-0.22636
 30
0.0
 10
-8.58104
 20
-0.05732
 30
0.0
 10
-8.79327
 20
-0.1794
 30
0.0
 10
-8.79327
 20
-0.1794
 30
0.0
 10
-8.81281
 20
-0.66258
 30
0.0
 10
-8.93334
 20
-0.76841
 30
0.0
 10
-9.15486
 20
-0.4969
 30
0.0
 10
-9.15486
 20
-0.4969
 30
0.0
 10
-9.20512
 20
-0.13597
 30
0.0
 10
-9.37416
 20
-0.00664
 30
0.0
 10
-9.66197
 20
-0.10889
 30
0.0
 10
-9.66197
 20
-0.10889
 30
0.0
 10
-9.63158
 20
-0.41277
 30
0.0
 10
-9.75359
 20
-0.50685
 30
0.0
 10
-10.02798
 20
-0.39111
 30
0.0
 10
-10.02798
 20
-0.39111
 30
0.0
 10
-10.13214
 20
-0.03701
 30
0.0
 10
-10.31147
 20
0.07765
 30
0.0
 10
-10.56597
 20
-0.04715
 30
0.0
 10
-10.56597
 20
-0.04715
 30
0.0
 10
-10.58056
 20
-0.3322
 30
0.0
 10
-10.7055
 20
-0.43656
 30
0.0
 10
-10.94079
 20
-0.36024
 30
0.0
 10
-10.94079
 20
-0.36024
 30
0.0
 10
-11.01767
 20
-0.09733
 30
0.0
 10
-11.15437
 20
0.0085
 30
0.0
 10
-11.3509
 20
-0.04274
 30
0.0
 10
-11.3509
 20
-0.04274
 30
0.0
 10
-11.37968
 20
-0.35438
 30
0.0
 10
-11.52374
 20
-0.44846
 30
0.0
 10
-11.78308
 20
-0.32498
 30
0.0
 10
-11.78308
 20
-0.32498
 30
0.0
 10
-11.78316
 20
-0.05632
 30
0.0
 10
-12.00659
 20
0.06127
 30
0.0
 10
-12.45336
 20
0.0278
 30
0.0
 10
-12.45336
 20
0.0278
 30
0.0
 10
-12.48436
 20
-0.19172
 30
0.0
 10
-12.59607
 20
-0.30343
 30
0.0
 10
-12.78849
 20
-0.30734
 30
0.0
 10
-12.78849
 20
-0.30734
 30
0.0
 10
-12.86959
 20
-0.03418
 30
0.0
 10
-13.10183
 20
0.08048
 30
0.0
 10
-13.48523
 20
0.03662
 30
0.0
 10
-13.48523
 20
0.03662
 30
0.0
 10
-13.61733
 20
0.31978
 30
0.0
 10
-13.79372
 20
0.41973
 30
0.0
 10
-14.0144
 20
0.33648
 30
0.0
 10
-14.0144
 20
0.33648
 30
0.0
 10
-14.72058
 20
-0.06322
 30
0.0
 10
-15.09688
 20
0.08083
 30
0.0
 10
-15.1433
 20
0.76863
 30
0.0
 10
-15.1433
 20
0.76863
 30
0.0
 10
-15.08254
 20
1.25206
 30
0.0
 10
-14.80032
 20
1.42404
 30
0.0
 10
-14.29663
 20
1.28458
 30
0.0
 10
-14.29663
 20
1.28458
 30
0.0
 10
-13.9696
 20
0.8668
 30
0.0
 10
-13.68737
 20
0.86091
 30
0.0
 10
-13.44995
 20
1.2669
 30
0.0
 10
-13.44995
 20
1.2669
 30
0.0
 10
-13.29112
 20
1.27069
 30
0.0
 10
-13.10444
 20
1.26628
 30
0.0
 10
-12.88991
 20
1.25367
 30
0.0
 10
-12.88991
 20
1.25367
 30
0.0
 10
-12.87361
 20
1.50107
 30
0.0
 10
-12.76043
 20
1.6025
 30
0.0
 10
-12.55036
 20
1.55794
 30
0.0
 10
-12.55036
 20
1.55794
 30
0.0
 10
-12.49904
 20
1.30631
 30
0.0
 10
-12.41966
 20
1.20341
 30
0.0
 10
-12.31222
 20
1.24923
 30
0.0
 10
-12.31222
 20
1.24923
 30
0.0
 10
-12.31824
 20
1.58056
 30
0.0
 10
-12.19182
 20
1.68492
 30
0.0
 10
-11.93298
 20
1.56232
 30
0.0
 10
-11.93298
 20
1.56232
 30
0.0
 10
-11.89949
 20
1.24109
 30
0.0
 10
-11.74074
 20
1.13231
 30
0.0
 10
-11.45673
 20
1.236
 30
0.0
 10
-11.45673
 20
1.236
 30
0.0
 10
-11.55434
 20
1.60927
 30
0.0
 10
-11.4882
 20
1.77831
 30
0.0
 10
-11.25829
 20
1.74312
 30
0.0
 10
-11.25829
 20
1.74312
 30
0.0
 10
-11.03525
 20
1.25424
 30
0.0
 10
-10.80592
 20
1.09254
 30
0.0
 10
-10.57031
 20
1.25802
 30
0.0
 10
-10.57031
 20
1.25802
 30
0.0
 10
-10.66975
 20
1.57369
 30
0.0
 10
-10.59332
 20
1.70892
 30
0.0
 10
-10.341
 20
1.66371
 30
0.0
 10
-10.341
 20
1.66371
 30
0.0
 10
-10.22612
 20
1.1994
 30
0.0
 10
-10.02474
 20
1.03477
 30
0.0
 10
-9.73687
 20
1.16982
 30
0.0
 10
-9.73687
 20
1.16982
 30
0.0
 10
-9.83962
 20
1.55517
 30
0.0
 10
-9.74995
 20
1.70657
 30
0.0
 10
-9.46788
 20
1.62402
 30
0.0
 10
-9.46788
 20
1.62402
 30
0.0
 10
-9.39846
 20
1.26025
 30
0.0
 10
-9.22207
 20
1.0824
 30
0.0
 10
-8.93871
 20
1.09045
 30
0.0
 10
-8.93871
 20
1.09045
 30
0.0
 10
-8.96414
 20
1.5488
 30
0.0
 10
-8.85242
 20
1.71343
 30
0.0
 10
-8.60357
 20
1.58434
 30
0.0
 10
-8.60357
 20
1.58434
 30
0.0
 10
-8.53641
 20
1.17866
 30
0.0
 10
-8.33796
 20
0.99713
 30
0.0
 10
-8.00823
 20
1.03974
 30
0.0
 10
-8.00823
 20
1.03974
 30
0.0
 10
-8.12706
 20
1.40804
 30
0.0
 10
-8.07856
 20
1.58369
 30
0.0
 10
-7.86271
 20
1.5667
 30
0.0
 10
-7.86271
 20
1.5667
 30
0.0
 10
-7.70475
 20
1.54443
 30
0.0
 10
-7.5923
 20
1.35849
 30
0.0
 10
-7.52536
 20
1.00887
 30
0.0
 10
-7.52536
 20
1.00887
 30
0.0
 10
-7.52536
 20
1.00887
 30
0.0
 10
-7.10644
 20
1.00446
 30
0.0
 10
-7.10644
 20
1.00446
 30
0.0
 10
-7.10644
 20
1.00446
 30
0.0
 10
-7.19613
 20
1.1816
 30
0.0
 10
-7.22185
 20
1.33153
 30
0.0
 10
-7.18361
 20
1.45425
 30
0.0
 10
-7.18361
 20
1.45425
 30
0.0
 10
-7.02713
 20
1.65753
 30
0.0
 10
-6.8478
 20
1.49363
 30
0.0
 10
-6.64562
 20
0.96256
 30
0.0
 10
-6.64562
 20
0.96256
 30
0.0
 10
-6.64562
 20
0.96256
 30
0.0
 10
-5.90476
 20
0.9603
 30
0.0
 10
-5.90476
 20
0.9603
 30
0.0
 10
-5.90476
 20
0.9603
 30
0.0
 10
-5.93089
 20
1.10497
 30
0.0
 10
-5.92061
 20
1.28724
 30
0.0
 10
-5.8739
 20
1.50711
 30
0.0
 10
-5.8739
 20
1.50711
 30
0.0
 10
-5.70874
 20
1.51996
 30
0.0
 10
-5.56761
 20
1.51408
 30
0.0
 10
-5.45051
 20
1.48946
 30
0.0
 10
-5.45051
 20
1.48946
 30
0.0
 10
-5.39059
 20
1.88005
 30
0.0
 10
-5.23477
 20
2.26075
 30
0.0
 10
-4.98305
 20
2.63157
 30
0.0
 10
-4.98305
 20
2.63157
 30
0.0
 10
-6.25731
 20
3.86196
 30
0.0
 10
-7.21864
 20
4.8027
 30
0.0
 10
-7.86704
 20
5.45379
 30
0.0
 10
-7.86704
 20
5.45379
 30
0.0
 10
-8.49138
 20
5.91898
 30
0.0
 10
-8.66371
 20
6.59882
 30
0.0
 10
-8.38404
 20
7.49332
 30
0.0
 10
-8.38404
 20
7.49332
 30
0.0
 10
-8.78023
 20
7.86945
 30
0.0
 10
-9.83654
 20
9.19623
 30
0.0
 10
-10.26703
 20
9.23517
 30
0.0
 10
-10.26703
 20
9.23517
 30
0.0
 10
-10.8501
 20
9.05621
 30
0.0
 10
-11.29254
 20
8.99447
 30
0.0
 10
-11.59436
 20
9.04996
 30
0.0
 10
-11.59436
 20
9.04996
 30
0.0
 10
-11.85784
 20
9.13769
 30
0.0
 10
-11.87954
 20
9.6072
 30
0.0
 10
-11.72666
 20
9.69379
 30
0.0
 10
-11.72666
 20
9.69379
 30
0.0
 10
-11.56838
 20
9.84231
 30
0.0
 10
-10.93484
 20
9.9261
 30
0.0
 10
-9.82605
 20
9.94514
 30
0.0
 10
-9.82605
 20
9.94514
 30
0.0
 10
-9.23371
 20
9.47505
 30
0.0
 10
-8.64135
 20
8.94001
 30
0.0
 10
-8.04895
 20
8.34002
 30
0.0
 10
-8.04895
 20
8.34002
 30
0.0
 10
-7.65615
 20
9.05526
 30
0.0
 10
-7.22399
 20
9.27281
 30
0.0
 10
-6.75246
 20
8.99265
 30
0.0
 10
-6.75246
 20
8.99265
 30
0.0
 10
-5.70078
 20
7.92759
 30
0.0
 10
-4.38962
 20
6.63261
 30
0.0
 10
-2.81897
 20
5.10771
 30
0.0
 10
-2.81897
 20
5.10771
 30
0.0
 10
-2.53613
 20
5.348
 30
0.0
 10
-2.07311
 20
5.55967
 30
0.0
 10
-1.4299
 20
5.74271
 30
0.0
 10
-1.4299
 20
5.74271
 30
0.0
 10
-1.34574
 20
5.78844
 30
0.0
 10
-1.33178
 20
5.87297
 30
0.0
 10
-1.38802
 20
5.9963
 30
0.0
 10
-1.38802
 20
5.9963
 30
0.0
 10
-1.46281
 20
6.02801
 30
0.0
 10
-1.4856
 20
6.10224
 30
0.0
 10
-1.45638
 20
6.21899
 30
0.0
 10
-1.45638
 20
6.21899
 30
0.0
 10
-1.29432
 20
6.34813
 30
0.0
 10
-0.89157
 20
6.43926
 30
0.0
 10
-0.24811
 20
6.49239
 30
0.0
 10
-0.24811
 20
6.49239
 30
0.0
 10
-0.07211
 20
6.52648
 30
0.0
 10
0.00432
 20
6.73081
 30
0.0
 10
-0.0188
 20
7.10537
 30
0.0
 10
-0.0188
 20
7.10537
 30
0.0
 10
-0.05062
 20
7.27413
 30
0.0
 10
-0.1594
 20
7.35645
 30
0.0
 10
-0.34513
 20
7.35231
 30
0.0
 10
-0.34513
 20
7.35231
 30
0.0
 10
-1.12123
 20
7.34149
 30
0.0
 10
-1.95612
 20
7.33415
 30
0.0
 10
-2.84982
 20
7.3303
 30
0.0
 10
-2.84982
 20
7.3303
 30
0.0
 10
-2.84982
 20
7.3303
 30
0.0
 10
-2.84541
 20
7.79773
 30
0.0
 10
-2.84541
 20
7.79773
 30
0.0
 10
-2.84541
 20
7.79773
 30
0.0
 10
-2.84541
 20
7.79773
 30
0.0
 10
-1.39019
 20
7.81097
 30
0.0
 10
-1.39019
 20
7.81097
 30
0.0
 10
-1.39019
 20
7.81097
 30
0.0
 10
-1.39019
 20
7.81097
 30
0.0
 10
-1.38578
 20
8.66205
 30
0.0
 10
-1.38578
 20
8.66205
 30
0.0
 10
-1.38578
 20
8.66205
 30
0.0
 10
-1.38578
 20
8.66205
 30
0.0
 10
-2.84099
 20
8.65323
 30
0.0
 10
-2.84099
 20
8.65323
 30
0.0
 10
-2.84099
 20
8.65323
 30
0.0
 10
-2.84082
 20
8.61798
 30
0.0
 10
-2.84265
 20
8.79401
 30
0.0
 10
-2.84648
 20
9.18131
 30
0.0
 10
-2.84648
 20
9.18131
 30
0.0
 10
-2.84648
 20
9.18131
 30
0.0
 10
-0.11241
 20
9.19015
 30
0.0
 10
-0.11241
 20
9.19015
 30
0.0
 10
-0.11241
 20
9.19015
 30
0.0
 10
-0.04921
 20
9.53539
 30
0.0
 10
-0.05214
 20
9.81614
 30
0.0
 10
-0.1212
 20
10.03241
 30
0.0
 10
-0.1212
 20
10.03241
 30
0.0
 10
-0.77422
 20
10.00357
 30
0.0
 10
-1.24753
 20
10.12704
 30
0.0
 10
-1.54113
 20
10.40283
 30
0.0
 10
-1.54113
 20
10.40283
 30
0.0
 10
-1.39041
 20
10.55872
 30
0.0
 10
-1.35586
 20
10.87402
 30
0.0
 10
-1.43746
 20
11.34872
 30
0.0
 10
-1.43746
 20
11.34872
 30
0.0
 10
-1.68169
 20
11.34814
 30
0.0
 10
-1.87571
 20
11.35549
 30
0.0
 10
-2.01953
 20
11.37077
 30
0.0
 10
-2.01953
 20
11.37077
 30
0.0
 10
-2.82892
 20
11.4782
 30
0.0
 10
-3.08028
 20
11.67003
 30
0.0
 10
-2.7736
 20
11.94626
 30
0.0
 10
-2.7736
 20
11.94626
 30
0.0
 10
-2.78691
 20
12.18004
 30
0.0
 10
-2.78544
 20
12.40273
 30
0.0
 10
-2.76918
 20
12.61434
 30
0.0
 10
-2.76918
 20
12.61434
 30
0.0
 10
-2.92336
 20
12.74243
 30
0.0
 10
-2.95129
 20
12.84027
 30
0.0
 10
-2.85297
 20
12.90784
 30
0.0
 10
-2.85297
 20
12.90784
 30
0.0
 10
-2.637
 20
13.08965
 30
0.0
 10
-2.23431
 20
13.19089
 30
0.0
 10
-1.64488
 20
13.21153
 30
0.0
 10
-1.64488
 20
13.21153
 30
0.0
 10
-1.53166
 20
13.21793
 30
0.0
 10
-1.46418
 20
13.26531
 30
0.0
 10
-1.44246
 20
13.35365
 30
0.0
 10
-1.44246
 20
13.35365
 30
0.0
 10
-1.44314
 20
13.54029
 30
0.0
 10
-1.44243
 20
13.73554
 30
0.0
 10
-1.4403
 20
13.9394
 30
0.0
 10
-1.4403
 20
13.9394
 30
0.0
 10
-1.47088
 20
14.02437
 30
0.0
 10
-1.538
 20
14.07607
 30
0.0
 10
-1.64166
 20
14.09449
 30
0.0
 10
-1.64166
 20
14.09449
 30
0.0
 10
-1.68258
 20
14.36007
 30
0.0
 10
-1.68185
 20
14.63717
 30
0.0
 10
-1.6395
 20
14.92576
 30
0.0
 10
-1.6395
 20
14.92576
 30
0.0
 10
-1.35917
 20
14.89922
 30
0.0
 10
-1.22421
 20
15.00474
 30
0.0
 10
-1.23464
 20
15.24232
 30
0.0
 10
-1.23464
 20
15.24232
 30
0.0
 10
-0.94423
 20
15.34572
 30
0.0
 10
-0.66643
 20
15.34572
 30
0.0
 10
-0.40125
 20
15.24232
 30
0.0
 10
-0.40125
 20
15.24232
 30
0.0
 10
-0.39358
 20
15.01497
 30
0.0
 10
-0.23565
 20
14.90945
 30
0.0
 10
0.07252
 20
14.92577
 30
0.0
 10
0.07252
 20
14.92577
 30
0.0
 10
0.11272
 20
14.6601
 30
0.0
 10
0.11271
 20
14.40095
 30
0.0
 10
0.07251
 20
14.14832
 30
0.0
 10
0.07251
 20
14.14832
 30
0.0
 10
-0.06706
 20
14.12852
 30
0.0
 10
-0.14387
 20
14.0553
 30
0.0
 10
-0.15791
 20
13.92867
 30
0.0
 10
-0.15791
 20
13.92867
 30
0.0
 10
-0.15791
 20
13.92867
 30
0.0
 10
-0.15576
 20
13.44844
 30
0.0
 10
-0.15576
 20
13.44844
 30
0.0
 10
-0.15576
 20
13.44844
 30
0.0
 10
-0.13226
 20
13.30299
 30
0.0
 10
-0.04612
 20
13.22977
 30
0.0
 10
0.10266
 20
13.22879
 30
0.0
  0
SPLINE
  5
71
330
1F
100
AcDbEntity
  8
Layer 1
 62
   250
370
    20
100
AcDbSpline
210
0.0
220
0.0
230
1.0
 70
    11
 71
     3
 72
    20
 73
    16
 74
     0
 42
0.000000001
 43
0.0000000001
 40
0.0
 40
0.0
 40
0.0
 40
0.0
 40
0.2
 40
0.2
 40
0.2
 40
0.2
 40
0.4
 40
0.4
 40
0.4
 40
0.4
 40
0.6
 40
0.6
 40
0.6
 40
0.6
 40
1.0
 40
1.0
 40
1.0
 40
1.0
 10
12.18651
 20
-5.19078
 30
0.0
 10
12.88791
 20
-5.19078
 30
0.0
 10
13.45651
 20
-5.76728
 30
0.0
 10
13.45651
 20
-6.47842
 30
0.0
 10
13.45651
 20
-6.47842
 30
0.0
 10
13.45651
 20
-7.18956
 30
0.0
 10
12.88791
 20
-7.76606
 30
0.0
 10
12.18651
 20
-7.76606
 30
0.0
 10
12.18651
 20
-7.76606
 30
0.0
 10
11.48511
 20
-7.76606
 30
0.0
 10
10.91651
 20
-7.18956
 30
0.0
 10
10.91651
 20
-6.47842
 30
0.0
 10
10.91651
 20
-6.47842
 30
0.0
 10
10.91651
 20
-5.76728
 30
0.0
 10
11.48511
 20
-5.19078
 30
0.0
 10
12.18651
 20
-5.19078
 30
0.0
  0
SPLINE
  5
72
330
1F
100
AcDbEntity
  8
Layer 1
 62
   250
370
    20
100
AcDbSpline
210
0.0
220
0.0
230
1.0
 70
    11
 71
     3
 72
    20
 73
    16
 74
     0
 42
0.000000001
 43
0.0000000001
 40
0.0
 40
0.0
 40
0.0
 40
0.0
 40
0.2
 40
0.2
 40
0.2
 40
0.2
 40
0.4
 40
0.4
 40
0.4
 40
0.4
 40
0.6
 40
0.6
 40
0.6
 40
0.6
 40
1.0
 40
1.0
 40
1.0
 40
1.0
 10
-1.81438
 20
-14.42694
 30
0.0
 10
-1.64269
 20
-14.42694
 30
0.0
 10
-1.5035
 20
-14.57402
 30
0.0
 10
-1.5035
 20
-14.75546
 30
0.0
 10
-1.5035
 20
-14.75546
 30
0.0
 10
-1.5035
 20
-14.9369
 30
0.0
 10
-1.64269
 20
-15.08398
 30
0.0
 10
-1.81438
 20
-15.08398
 30
0.0
 10
-1.81438
 20
-15.08398
 30
0.0
 10
-1.98607
 20
-15.08398
 30
0.0
 10
-2.12526
 20
-14.9369
 30
0.0
 10
-2.12526
 20
-14.75546
 30
0.0
 10
-2.12526
 20
-14.75546
 30
0.0
 10
-2.12526
 20
-14.57402
 30
0.0
 10
-1.98607
 20
-14.42694
 30
0.0
 10
-1.81438
 20
-14.42694
 30
0.0
  0
SPLINE
  5
73
330
1F
100
AcDbEntity
  8
Layer 1
 62
   250
370
    20
100
AcDbSpline
210
0.0
220
0.0
230
1.0
 70
    11
 71
     3
 72
    12
 73
     8
 74
     0
 42
0.000000001
 43
0.0000000001
 40
0.0
 40
0.0
 40
0.0
 40
0.0
 40
0.3333333333333333
 40
0.3333333333333333
 40
0.3333333333333333
 40
0.3333333333333333
 40
1.0
 40
1.0
 40
1.0
 40
1.0
 10
-1.62926
 20
-5.63165
 30
0.0
 10
-1.01969
 20
-5.86675
 30
0.0
 10
-0.39792
 20
-5.97111
 30
0.0
 10
0.23606
 20
-5.94474
 30
0.0
 10
0.23606
 20
-5.94474
 30
0.0
 10
-0.04829
 20
-6.95565
 30
0.0
 10
-1.63581
 20
-6.74545
 30
0.0
 10
-1.62926
 20
-5.63165
 30
0.0
  0
SPLINE
  5
74
330
1F
100
AcDbEntity
  8
Layer 1
 62
   250
370
    20
100
AcDbSpline
210
0.0
220
0.0
230
1.0
 70
    11
 71
     3
 72
    20
 73
    16
 74
     0
 42
0.000000001
 43
0.0000000001
 40
0.0
 40
0.0
 40
0.0
 40
0.0
 40
0.2
 40
0.2
 40
0.2
 40
0.2
 40
0.4
 40
0.4
 40
0.4
 40
0.4
 40
0.6
 40
0.6
 40
0.6
 40
0.6
 40
1.0
 40
1.0
 40
1.0
 40
1.0
 10
6.40078
 20
-2.88879
 30
0.0
 10
6.60779
 20
-2.88879
 30
0.0
 10
6.7756
 20
-3.03686
 30
0.0
 10
6.7756
 20
-3.21952
 30
0.0
 10
6.7756
 20
-3.21952
 30
0.0
 10
6.7756
 20
-3.40218
 30
0.0
 10
6.60779
 20
-3.55025
 30
0.0
 10
6.40078
 20
-3.55025
 30
0.0
 10
6.40078
 20
-3.55025
 30
0.0
 10
6.19377
 20
-3.55025
 30
0.0
 10
6.02596
 20
-3.40218
 30
0.0
 10
6.02596
 20
-3.21952
 30
0.0
 10
6.02596
 20
-3.21952
 30
0.0
 10
6.02596
 20
-3.03686
 30
0.0
 10
6.19377
 20
-2.88879
 30
0.0
 10
6.40078
 20
-2.88879
 30
0.0
  0
SPLINE
  5
75
330
1F
100
AcDbEntity
  8
Layer 1
 62
   250
370
    20
100
AcDbSpline
210
0.0
220
0.0
230
1.0
 70
    11
 71
     3
 72
    20
 73
    16
 74
     0
 42
0.000000001
 43
0.0000000001
 40
0.0
 40
0.0
 40
0.0
 40
0.0
 40
0.2
 40
0.2
 40
0.2
 40
0.2
 40
0.4
 40
0.4
 40
0.4
 40
0.4
 40
0.6
 40
0.6
 40
0.6
 40
0.6
 40
1.0
 40
1.0
 40
1.0
 40
1.0
 10
-14.54767
 20
0.96093
 30
0.0
 10
-14.38206
 20
0.96093
 30
0.0
 10
-14.24781
 20
0.83556
 30
0.0
 10
-14.24781
 20
0.68091
 30
0.0
 10
-14.24781
 20
0.68091
 30
0.0
 10
-14.24781
 20
0.52626
 30
0.0
 10
-14.38206
 20
0.40089
 30
0.0
 10
-14.54767
 20
0.40089
 30
0.0
 10
-14.54767
 20
0.40089
 30
0.0
 10
-14.71328
 20
0.40089
 30
0.0
 10
-14.84753
 20
0.52626
 30
0.0
 10
-14.84753
 20
0.68091
 30
0.0
 10
-14.84753
 20
0.68091
 30
0.0
 10
-14.84753
 20
0.83556
 30
0.0
 10
-14.71328
 20
0.96093
 30
0.0
 10
-14.54767
 20
0.96093
 30
0.0
  0
SPLINE
  5
76
330
1F
100
AcDbEntity
  8
Layer 1
 62
   250
370
    20
100
AcDbSpline
210
0.0
220
0.0
230
1.0
 70
    11
 71
     3
 72
    12
 73
     8
 74
     0
 42
0.000000001
 43
0.0000000001
 40
0.0
 40
0.0
 40
0.0
 40
0.0
 40
0.3333333333333333
 40
0.3333333333333333
 40
0.3333333333333333
 40
0.3333333333333333
 40
1.0
 40
1.0
 40
1.0
 40
1.0
 10
-3.70272
 20
-4.36241
 30
0.0
 10
-3.62886
 20
-4.42846
 30
0.0
 10
-3.55291
 20
-4.49359
 30
0.0
 10
-3.47489
 20
-4.55777
 30
0.0
 10
-3.47489
 20
-4.55777
 30
0.0
 10
-6.16554
 20
-6.88423
 30
0.0
 10
-6.45755
 20
-6.4575
 30
0.0
 10
-3.70272
 20
-4.36241
 30
0.0
  0
SPLINE
  5
77
330
1F
100
AcDbEntity
  8
Layer 1
 62
   250
370
    20
100
AcDbSpline
210
0.0
220
0.0
230
1.0
 70
    11
 71
     3
 72
    12
 73
     8
 74
     0
 42
0.000000001
 43
0.0000000001
 40
0.0
 40
0.0
 40
0.0
 40
0.0
 40
0.3333333333333333
 40
0.3333333333333333
 40
0.3333333333333333
 40
0.3333333333333333
 40
1.0
 40
1.0
 40
1.0
 40
1.0
 10
-4.14727
 20
-3.92661
 30
0.0
 10
-4.07355
 20
-4.00609
 30
0.0
 10
-3.99714
 20
-4.08438
 30
0.0
 10
-3.91806
 20
-4.16144
 30
0.0
 10
-3.91806
 20
-4.16144
 30
0.0
 10
-6.43046
 20
-6.54807
 30
0.0
 10
-7.04152
 20
-5.98797
 30
0.0
 10
-4.14727
 20
-3.92661
 30
0.0
  0
SPLINE
  5
78
330
1F
100
AcDbEntity
  8
Layer 1
 62
   250
370
    20
100
AcDbSpline
210
0.0
220
0.0
230
1.0
 70
    11
 71
     3
 72
    12
 73
     8
 74
     0
 42
0.000000001
 43
0.0000000001
 40
0.0
 40
0.0
 40
0.0
 40
0.0
 40
0.3333333333333333
 40
0.3333333333333333
 40
0.3333333333333333
 40
0.3333333333333333
 40
1.0
 40
1.0
 40
1.0
 40
1.0
 10
-4.57493
 20
-3.41177
 30
0.0
 10
-4.50726
 20
-3.50327
 30
0.0
 10
-4.43645
 20
-3.59336
 30
0.0
 10
-4.36251
 20
-3.68202
 30
0.0
 10
-4.36251
 20
-3.68202
 30
0.0
 10
-6.91544
 20
-6.18604
 30
0.0
 10
-7.40077
 20
-5.40805
 30
0.0
 10
-4.57493
 20
-3.41177
 30
0.0
  0
SPLINE
  5
79
330
1F
100
AcDbEntity
  8
Layer 1
 62
   250
370
    20
100
AcDbSpline
210
0.0
220
0.0
230
1.0
 70
    11
 71
     3
 72
    12
 73
     8
 74
     0
 42
0.000000001
 43
0.0000000001
 40
0.0
 40
0.0
 40
0.0
 40
0.0
 40
0.3333333333333333
 40
0.3333333333333333
 40
0.3333333333333333
 40
0.3333333333333333
 40
1.0
 40
1.0
 40
1.0
 40
1.0
 10
-4.93588
 20
-2.85891
 30
0.0
 10
-4.87654
 20
-2.96281
 30
0.0
 10
-4.81361
 20
-3.06509
 30
0.0
 10
-4.74709
 20
-3.16574
 30
0.0
 10
-4.74709
 20
-3.16574
 30
0.0
 10
-7.28367
 20
-5.60522
 30
0.0
 10
-7.94631
 20
-5.00024
 30
0.0
 10
-4.93588
 20
-2.85891
 30
0.0
  0
SPLINE
  5
7A
330
1F
100
AcDbEntity
  8
Layer 1
 62
   250
370
    20
100
AcDbSpline
210
0.0
220
0.0
230
1.0
 70
    11
 71
     3
 72
    12
 73
     8
 74
     0
 42
0.000000001
 43
0.0000000001
 40
0.0
 40
0.0
 40
0.0
 40
0.0
 40
0.3333333333333333
 40
0.3333333333333333
 40
0.3333333333333333
 40
0.3333333333333333
 40
1.0
 40
1.0
 40
1.0
 40
1.0
 10
-5.19468
 20
-2.34408
 30
0.0
 10
-5.16463
 20
-2.41276
 30
0.0
 10
-5.13314
 20
-2.4808
 30
0.0
 10
-5.10025
 20
-2.54819
 30
0.0
 10
-5.10025
 20
-2.54819
 30
0.0
 10
-7.59992
 20
-4.98625
 30
0.0
 10
-7.993
 20
-4.37139
 30
0.0
 10
-5.19468
 20
-2.34408
 30
0.0
  0
SPLINE
  5
7B
330
1F
100
AcDbEntity
  8
Layer 1
 62
   250
370
    20
100
AcDbSpline
210
0.0
220
0.0
230
1.0
 70
    11
 71
     3
 72
    20
 73
    16
 74
     0
 42
0.000000001
 43
0.0000000001
 40
0.0
 40
0.0
 40
0.0
 40
0.0
 40
0.2
 40
0.2
 40
0.2
 40
0.2
 40
0.4
 40
0.4
 40
0.4
 40
0.4
 40
0.6
 40
0.6
 40
0.6
 40
0.6
 40
1.0
 40
1.0
 40
1.0
 40
1.0
 10
-8.55144
 20
-6.69748
 30
0.0
 10
-9.30539
 20
-7.31615
 30
0.0
 10
-10.02271
 20
-7.90999
 30
0.0
 10
-10.7034
 20
-8.479
 30
0.0
 10
-10.7034
 20
-8.479
 30
0.0
 10
-10.85758
 20
-8.51552
 30
0.0
 10
-10.90315
 20
-8.4479
 30
0.0
 10
-10.8401
 20
-8.27615
 30
0.0
 10
-10.8401
 20
-8.27615
 30
0.0
 10
-10.8401
 20
-8.27615
 30
0.0
 10
-8.69696
 20
-6.5255
 30
0.0
 10
-8.69696
 20
-6.5255
 30
0.0
 10
-8.69696
 20
-6.5255
 30
0.0
 10
-8.55448
 20
-6.489
 30
0.0
 10
-8.50598
 20
-6.54633
 30
0.0
 10
-8.55144
 20
-6.69748
 30
0.0
  0
SPLINE
  5
7C
330
1F
100
AcDbEntity
  8
Layer 1
 62
   250
370
    20
100
AcDbSpline
210
0.0
220
0.0
230
1.0
 70
    11
 71
     3
 72
    20
 73
    16
 74
     0
 42
0.000000001
 43
0.0000000001
 40
0.0
 40
0.0
 40
0.0
 40
0.0
 40
0.2
 40
0.2
 40
0.2
 40
0.2
 40
0.4
 40
0.4
 40
0.4
 40
0.4
 40
0.6
 40
0.6
 40
0.6
 40
0.6
 40
1.0
 40
1.0
 40
1.0
 40
1.0
 10
-8.13365
 20
-7.22492
 30
0.0
 10
-8.8876
 20
-7.84359
 30
0.0
 10
-9.60492
 20
-8.43743
 30
0.0
 10
-10.28561
 20
-9.00644
 30
0.0
 10
-10.28561
 20
-9.00644
 30
0.0
 10
-10.43979
 20
-9.04296
 30
0.0
 10
-10.48536
 20
-8.97534
 30
0.0
 10
-10.42231
 20
-8.80359
 30
0.0
 10
-10.42231
 20
-8.80359
 30
0.0
 10
-10.42231
 20
-8.80359
 30
0.0
 10
-8.27917
 20
-7.05294
 30
0.0
 10
-8.27917
 20
-7.05294
 30
0.0
 10
-8.27917
 20
-7.05294
 30
0.0
 10
-8.13669
 20
-7.01644
 30
0.0
 10
-8.08819
 20
-7.07377
 30
0.0
 10
-8.13365
 20
-7.22492
 30
0.0
  0
ENDSEC
  0
SECTION
  2
OBJECTS
  0
DICTIONARY
  5
C
330
0
100
AcDbDictionary
281
     1
  3
ACAD_DETAILVIEWSTYLE
350
B8
  3
ACAD_GROUP
350
D
  3
ACAD_LAYOUT
350
1A
  3
ACAD_MATERIAL
350
43
  3
ACAD_MLEADERSTYLE
350
6B
  3
ACAD_MLINESTYLE
350
17
  3
ACAD_PLOTSETTINGS
350
19
  3
ACAD_PLOTSTYLENAME
350
E
  3
ACAD_SCALELIST
350
47
  3
ACAD_SECTIONVIEWSTYLE
350
B9
  3
ACAD_TABLESTYLE
350
69
  3
ACAD_VISUALSTYLE
350
2A
  3
ACDB_RECOMPOSE_DATA
350
B5
  3
AcDbVariableDictionary
350
7D
  0
SUN
  5
6D
330
29
100
AcDbSun
 90
        1
290
     0
 63
     7
421
 16777215
 40
1.0
291
     1
 91
  2455826
 92
 54000000
292
     0
 70
     2
 71
   256
280
     1
  0
DICTIONARY
  5
B8
102
{ACAD_REACTORS
330
C
102
}
330
C
100
AcDbDictionary
281
     1
  0
DICTIONARY
  5
D
102
{ACAD_REACTORS
330
C
102
}
330
C
100
AcDbDictionary
281
     1
  0
DICTIONARY
  5
1A
102
{ACAD_REACTORS
330
C
102
}
330
C
100
AcDbDictionary
281
     1
  3
Layout1
350
1E
  3
Layout2
350
26
  3
Model
350
22
  0
DICTIONARY
  5
43
102
{ACAD_REACTORS
330
C
102
}
330
C
100
AcDbDictionary
281
     1
  3
ByBlock
350
45
  3
ByLayer
350
44
  3
Global
350
46
  0
DICTIONARY
  5
6B
102
{ACAD_REACTORS
330
C
102
}
330
C
100
AcDbDictionary
281
     1
  3
Standard
350
6C
  0
DICTIONARY
  5
17
102
{ACAD_REACTORS
330
C
102
}
330
C
100
AcDbDictionary
281
     1
  3
Standard
350
18
  0
DICTIONARY
  5
19
102
{ACAD_REACTORS
330
C
102
}
330
C
100
AcDbDictionary
281
     1
  0
ACDBDICTIONARYWDFLT
  5
E
102
{ACAD_REACTORS
330
C
102
}
330
C
100
AcDbDictionary
281
     1
  3
Normal
350
F
100
AcDbDictionaryWithDefault
340
F
  0
DICTIONARY
  5
47
102
{ACAD_REACTORS
330
C
102
}
330
C
100
AcDbDictionary
281
     1
  3
A0
350
48
  3
A1
350
49
  3
A2
350
4A
  3
A3
350
4B
  3
A4
350
4C
  3
A5
350
4D
  3
A6
350
4E
  3
A7
350
4F
  3
A8
350
50
  3
A9
350
51
  3
B0
350
52
  3
B1
350
53
  3
B2
350
54
  3
B3
350
55
  3
B4
350
56
  3
B5
350
57
  3
B6
350
58
  3
B7
350
59
  3
B8
350
5A
  3
B9
350
5B
  3
C0
350
5C
  3
C1
350
5D
  3
C2
350
5E
  3
C3
350
5F
  3
C4
350
60
  3
C5
350
61
  3
C6
350
62
  3
C7
350
63
  3
C8
350
64
  3
C9
350
65
  3
D0
350
66
  3
D1
350
67
  3
D2
350
68
  0
DICTIONARY
  5
B9
102
{ACAD_REACTORS
330
C
102
}
330
C
100
AcDbDictionary
281
     1
  0
DICTIONARY
  5
69
102
{ACAD_REACTORS
330
C
102
}
330
C
100
AcDbDictionary
281
     1
  3
Standard
350
6A
  0
DICTIONARY
  5
2A
102
{ACAD_REACTORS
330
C
102
}
330
C
100
AcDbDictionary
281
     1
  3
2dWireframe
350
2F
  3
Basic
350
32
  3
Brighten
350
36
  3
ColorChange
350
3A
  3
Conceptual
350
34
  3
Dim
350
35
  3
EdgeColorOff
350
3D
  3
Facepattern
350
39
  3
Flat
350
2B
  3
FlatWithEdges
350
2C
  3
Gouraud
350
2D
  3
GouraudWithEdges
350
2E
  3
Hidden
350
31
  3
JitterOff
350
3B
  3
Linepattern
350
38
  3
OverhangOff
350
3C
  3
Realistic
350
33
  3
Shaded
350
42
  3
Shaded with edges
350
41
  3
Shades of Gray
350
3E
  3
Sketchy
350
3F
  3
Thicken
350
37
  3
Wireframe
350
30
  3
X-Ray
350
40
  0
XRECORD
  5
B5
102
{ACAD_REACTORS
330
C
102
}
330
C
100
AcDbXrecord
280
     1
 90
        1
330
6A
  0
DICTIONARY
  5
7D
102
{ACAD_REACTORS
330
C
102
}
330
C
100
AcDbDictionary
281
     1
  3
CANNOSCALE
350
7E
  3
CMLEADERSTYLE
350
B7
  3
CTABLESTYLE
350
B6
  3
XCLIPFRAME
350
7F
  0
LAYOUT
  5
1E
102
{ACAD_REACTORS
330
1A
102
}
330
1A
100
AcDbPlotSettings
  1

  2
none_device
  4

  6

 40
0.0
 41
0.0
 42
0.0
 43
0.0
 44
0.0
 45
0.0
 46
0.0
 47
0.0
 48
0.0
 49
0.0
140
0.0
141
0.0
142
1.0
143
1.0
 70
   688
 72
     0
 73
     0
 74
     5
  7

 75
    16
 76
     0
 77
     2
 78
   300
147
1.0
148
0.0
149
0.0
100
AcDbLayout
  1
Layout1
 70
     1
 71
     1
 10
0.0
 20
0.0
 11
12.0
 21
9.0
 12
0.0
 22
0.0
 32
0.0
 14
1.000000000000000E+20
 24
1.000000000000000E+20
 34
1.000000000000000E+20
 15
-1.000000000000000E+20
 25
-1.000000000000000E+20
 35
-1.000000000000000E+20
146
0.0
 13
0.0
 23
0.0
 33
0.0
 16
1.0
 26
0.0
 36
0.0
 17
0.0
 27
1.0
 37
0.0
 76
     0
330
1B
  0
LAYOUT
  5
26
102
{ACAD_REACTORS
330
1A
102
}
330
1A
100
AcDbPlotSettings
  1

  2
none_device
  4

  6

 40
0.0
 41
0.0
 42
0.0
 43
0.0
 44
0.0
 45
0.0
 46
0.0
 47
0.0
 48
0.0
 49
0.0
140
0.0
141
0.0
142
1.0
143
1.0
 70
   688
 72
     0
 73
     0
 74
     5
  7

 75
    16
 76
     0
 77
     2
 78
   300
147
1.0
148
0.0
149
0.0
100
AcDbLayout
  1
Layout2
 70
     1
 71
     2
 10
0.0
 20
0.0
 11
0.0
 21
0.0
 12
0.0
 22
0.0
 32
0.0
 14
0.0
 24
0.0
 34
0.0
 15
0.0
 25
0.0
 35
0.0
146
0.0
 13
0.0
 23
0.0
 33
0.0
 16
1.0
 26
0.0
 36
0.0
 17
0.0
 27
1.0
 37
0.0
 76
     0
330
23
  0
LAYOUT
  5
22
102
{ACAD_REACTORS
330
1A
102
}
330
1A
100
AcDbPlotSettings
  1

  2
none_device
  4
Letter_(8.50_x_11.00_Inches)
  6

 40
6.35
 41
6.35
 42
6.35000508
 43
6.35000508
 44
215.9
 45
279.4
 46
0.0
 47
0.0
 48
0.0
 49
0.0
140
0.0
141
0.0
142
1.0
143
1.0
 70
  1712
 72
     0
 73
     0
 74
     0
  7

 75
     0
 76
     0
 77
     2
 78
   300
147
1.0
148
0.0
149
0.0
100
AcDbLayout
  1
Model
 70
     1
 71
     0
 10
0.0
 20
0.0
 11
12.0
 21
9.0
 12
0.0
 22
0.0
 32
0.0
 14
-15.15334
 24
-15.32995
 34
0.0
 15
15.15309
 25
15.32987
 35
0.0
146
0.0
 13
0.0
 23
0.0
 33
0.0
 16
1.0
 26
0.0
 36
0.0
 17
0.0
 27
1.0
 37
0.0
 76
     0
330
1F
331
29
  0
MATERIAL
  5
45
102
{ACAD_REACTORS
330
43
102
}
330
43
100
AcDbMaterial
  1
ByBlock
 72
     1
 94
      127
  0
MATERIAL
  5
44
102
{ACAD_REACTORS
330
43
102
}
330
43
100
AcDbMaterial
  1
ByLayer
 72
     1
 94
      127
  0
MATERIAL
  5
46
102
{ACAD_REACTORS
330
43
102
}
330
43
100
AcDbMaterial
  1
Global
 72
     1
 94
      127
  0
MLEADERSTYLE
  5
6C
102
{ACAD_REACTORS
330
6B
102
}
102
{ACAD_XDICTIONARY
360
B3
102
}
330
6B
100
AcDbMLeaderStyle
170
     2
171
     1
172
     0
 90
        2
 40
0.0
 41
0.0
173
     1
 91
-1056964608
340
14
 92
       -2
290
     1
 42
0.09
291
     1
 43
0.36
  3
Standard
341
0
 44
0.18
300

342
11
174
     1
178
     6
175
     1
176
     0
 93
-1056964608
 45
0.18
292
     0
297
     0
 46
0.18
343
0
 94
-1056964608
 47
1.0
 49
1.0
140
1.0
293
     1
141
0.0
294
     1
177
     0
142
1.0
295
     0
296
     0
143
0.125
1001
ACAD_MLEADERVER
1070
     2
  0
MLINESTYLE
  5
18
102
{ACAD_REACTORS
330
17
102
}
330
17
100
AcDbMlineStyle
  2
Standard
 70
     0
  3

 62
   256
 51
90.0
 52
90.0
 71
     2
 49
0.5
 62
   256
  6
BYLAYER
 49
-0.5
 62
   256
  6
BYLAYER
  0
ACDBPLACEHOLDER
  5
F
102
{ACAD_REACTORS
330
E
102
}
330
E
  0
SCALE
  5
48
102
{ACAD_REACTORS
330
47
102
}
330
47
100
AcDbScale
 70
     0
300
1:1
140
1.0
141
1.0
290
     1
  0
SCALE
  5
49
102
{ACAD_REACTORS
330
47
102
}
330
47
100
AcDbScale
 70
     0
300
1:2
140
1.0
141
2.0
290
     0
  0
SCALE
  5
4A
102
{ACAD_REACTORS
330
47
102
}
330
47
100
AcDbScale
 70
     0
300
1:4
140
1.0
141
4.0
290
     0
  0
SCALE
  5
4B
102
{ACAD_REACTORS
330
47
102
}
330
47
100
AcDbScale
 70
     0
300
1:5
140
1.0
141
5.0
290
     0
  0
SCALE
  5
4C
102
{ACAD_REACTORS
330
47
102
}
330
47
100
AcDbScale
 70
     0
300
1:8
140
1.0
141
8.0
290
     0
  0
SCALE
  5
4D
102
{ACAD_REACTORS
330
47
102
}
330
47
100
AcDbScale
 70
     0
300
1:10
140
1.0
141
10.0
290
     0
  0
SCALE
  5
4E
102
{ACAD_REACTORS
330
47
102
}
330
47
100
AcDbScale
 70
     0
300
1:16
140
1.0
141
16.0
290
     0
  0
SCALE
  5
4F
102
{ACAD_REACTORS
330
47
102
}
330
47
100
AcDbScale
 70
     0
300
1:20
140
1.0
141
20.0
290
     0
  0
SCALE
  5
50
102
{ACAD_REACTORS
330
47
102
}
330
47
100
AcDbScale
 70
     0
300
1:30
140
1.0
141
30.0
290
     0
  0
SCALE
  5
51
102
{ACAD_REACTORS
330
47
102
}
330
47
100
AcDbScale
 70
     0
300
1:40
140
1.0
141
40.0
290
     0
  0
SCALE
  5
52
102
{ACAD_REACTORS
330
47
102
}
330
47
100
AcDbScale
 70
     0
300
1:50
140
1.0
141
50.0
290
     0
  0
SCALE
  5
53
102
{ACAD_REACTORS
330
47
102
}
330
47
100
AcDbScale
 70
     0
300
1:100
140
1.0
141
100.0
290
     0
  0
SCALE
  5
54
102
{ACAD_REACTORS
330
47
102
}
330
47
100
AcDbScale
 70
     0
300
2:1
140
2.0
141
1.0
290
     0
  0
SCALE
  5
55
102
{ACAD_REACTORS
330
47
102
}
330
47
100
AcDbScale
 70
     0
300
4:1
140
4.0
141
1.0
290
     0
  0
SCALE
  5
56
102
{ACAD_REACTORS
330
47
102
}
330
47
100
AcDbScale
 70
     0
300
8:1
140
8.0
141
1.0
290
     0
  0
SCALE
  5
57
102
{ACAD_REACTORS
330
47
102
}
330
47
100
AcDbScale
 70
     0
300
10:1
140
10.0
141
1.0
290
     0
  0
SCALE
  5
58
102
{ACAD_REACTORS
330
47
102
}
330
47
100
AcDbScale
 70
     0
300
100:1
140
100.0
141
1.0
290
     0
  0
SCALE
  5
59
102
{ACAD_REACTORS
330
47
102
}
330
47
100
AcDbScale
 70
     0
300
1/128" = 1'-0"
140
0.0078125
141
12.0
290
     0
  0
SCALE
  5
5A
102
{ACAD_REACTORS
330
47
102
}
330
47
100
AcDbScale
 70
     0
300
1/64" = 1'-0"
140
0.015625
141
12.0
290
     0
  0
SCALE
  5
5B
102
{ACAD_REACTORS
330
47
102
}
330
47
100
AcDbScale
 70
     0
300
1/32" = 1'-0"
140
0.03125
141
12.0
290
     0
  0
SCALE
  5
5C
102
{ACAD_REACTORS
330
47
102
}
330
47
100
AcDbScale
 70
     0
300
1/16" = 1'-0"
140
0.0625
141
12.0
290
     0
  0
SCALE
  5
5D
102
{ACAD_REACTORS
330
47
102
}
330
47
100
AcDbScale
 70
     0
300
3/32" = 1'-0"
140
0.09375
141
12.0
290
     0
  0
SCALE
  5
5E
102
{ACAD_REACTORS
330
47
102
}
330
47
100
AcDbScale
 70
     0
300
1/8" = 1'-0"
140
0.125
141
12.0
290
     0
  0
SCALE
  5
5F
102
{ACAD_REACTORS
330
47
102
}
330
47
100
AcDbScale
 70
     0
300
3/16" = 1'-0"
140
0.1875
141
12.0
290
     0
  0
SCALE
  5
60
102
{ACAD_REACTORS
330
47
102
}
330
47
100
AcDbScale
 70
     0
300
1/4" = 1'-0"
140
0.25
141
12.0
290
     0
  0
SCALE
  5
61
102
{ACAD_REACTORS
330
47
102
}
330
47
100
AcDbScale
 70
     0
300
3/8" = 1'-0"
140
0.375
141
12.0
290
     0
  0
SCALE
  5
62
102
{ACAD_REACTORS
330
47
102
}
330
47
100
AcDbScale
 70
     0
300
1/2" = 1'-0"
140
0.5
141
12.0
290
     0
  0
SCALE
  5
63
102
{ACAD_REACTORS
330
47
102
}
330
47
100
AcDbScale
 70
     0
300
3/4" = 1'-0"
140
0.75
141
12.0
290
     0
  0
SCALE
  5
64
102
{ACAD_REACTORS
330
47
102
}
330
47
100
AcDbScale
 70
     0
300
1" = 1'-0"
140
1.0
141
12.0
290
     0
  0
SCALE
  5
65
102
{ACAD_REACTORS
330
47
102
}
330
47
100
AcDbScale
 70
     0
300
1-1/2" = 1'-0"
140
1.5
141
12.0
290
     0
  0
SCALE
  5
66
102
{ACAD_REACTORS
330
47
102
}
330
47
100
AcDbScale
 70
     0
300
3" = 1'-0"
140
3.0
141
12.0
290
     0
  0
SCALE
  5
67
102
{ACAD_REACTORS
330
47
102
}
330
47
100
AcDbScale
 70
     0
300
6" = 1'-0"
140
6.0
141
12.0
290
     0
  0
SCALE
  5
68
102
{ACAD_REACTORS
330
47
102
}
330
47
100
AcDbScale
 70
     0
300
1'-0" = 1'-0"
140
12.0
141
12.0
290
     0
  0
TABLESTYLE
  5
6A
102
{ACAD_REACTORS
330
69
102
}
102
{ACAD_XDICTIONARY
360
B0
102
}
330
69
100
AcDbTableStyle
  3
Standard
 70
     0
 71
     0
 40
0.06
 41
0.06
280
     0
281
     0
  7
Standard
140
0.18
170
     2
 62
     0
 63
   257
283
     0
 90
        4
 91
        0
  1

274
    -2
284
     1
 64
     0
275
    -2
285
     1
 65
     0
276
    -2
286
     1
 66
     0
277
    -2
287
     1
 67
     0
278
    -2
288
     1
 68
     0
279
    -2
289
     1
 69
     0
  7
Standard
140
0.25
170
     5
 62
     0
 63
   257
283
     0
 90
        4
 91
        0
  1

274
    -2
284
     1
 64
     0
275
    -2
285
     1
 65
     0
276
    -2
286
     1
 66
     0
277
    -2
287
     1
 67
     0
278
    -2
288
     1
 68
     0
279
    -2
289
     1
 69
     0
  7
Standard
140
0.18
170
     5
 62
     0
 63
   257
283
     0
 90
        4
 91
        0
  1

274
    -2
284
     1
 64
     0
275
    -2
285
     1
 65
     0
276
    -2
286
     1
 66
     0
277
    -2
287
     1
 67
     0
278
    -2
288
     1
 68
     0
279
    -2
289
     1
 69
     0
  0
VISUALSTYLE
  5
2F
102
{ACAD_REACTORS
330
2A
102
}
102
{ACAD_XDICTIONARY
360
88
102
}
330
2A
100
AcDbVisualStyle
  2
2dWireframe
 70
     4
 71
     0
 72
     2
 73
     0
 90
        0
 40
0.6
 41
30.0
 62
     5
 63
     7
421
 16777215
 74
     1
 91
        4
 64
     7
 65
   257
 75
     1
175
     1
 42
1.0
 92
        0
 66
   257
 43
1.0
 76
     1
 77
     6
 78
     2
 67
     7
 79
     5
170
     0
171
     0
290
     0
174
     0
 93
        1
 44
0.0
173
     0
291
     0
 45
0.0
  0
VISUALSTYLE
  5
32
102
{ACAD_REACTORS
330
2A
102
}
102
{ACAD_XDICTIONARY
360
8E
102
}
330
2A
100
AcDbVisualStyle
  2
Basic
 70
     7
 71
     1
 72
     0
 73
     1
 90
        0
 40
0.6
 41
30.0
 62
     5
 63
     7
421
 16777215
 74
     0
 91
        4
 64
     7
 65
   257
 75
     1
175
     1
 42
1.0
 92
        8
 66
     7
 43
1.0
 76
     1
 77
     6
 78
     2
 67
     7
 79
     5
170
     0
171
     0
290
     0
174
     0
 93
        1
 44
0.0
173
     0
291
     1
 45
0.0
  0
VISUALSTYLE
  5
36
102
{ACAD_REACTORS
330
2A
102
}
102
{ACAD_XDICTIONARY
360
96
102
}
330
2A
100
AcDbVisualStyle
  2
Brighten
 70
    12
 71
     2
 72
     2
 73
     0
 90
        0
 40
0.6
 41
30.0
 62
     5
 63
     7
421
 16777215
 74
     1
 91
        4
 64
     7
 65
   257
 75
     1
175
     1
 42
1.0
 92
        8
 66
     7
 43
1.0
 76
     1
 77
     6
 78
     2
 67
     7
 79
     5
170
     0
171
     0
290
     0
174
     0
 93
        1
 44
50.0
173
     0
291
     1
 45
0.0
  0
VISUALSTYLE
  5
3A
102
{ACAD_REACTORS
330
2A
102
}
102
{ACAD_XDICTIONARY
360
9E
102
}
330
2A
100
AcDbVisualStyle
  2
ColorChange
 70
    16
 71
     2
 72
     2
 73
     3
 90
        0
 40
0.6
 41
30.0
 62
     5
 63
     8
421
  8421504
 74
     1
 91
        4
 64
     7
 65
   257
 75
     1
175
     1
 42
1.0
 92
        8
 66
     8
424
  8421504
 43
1.0
 76
     1
 77
     6
 78
     2
 67
     7
 79
     5
170
     0
171
     0
290
     0
174
     0
 93
        1
 44
0.0
173
     0
291
     1
 45
0.0
  0
VISUALSTYLE
  5
34
102
{ACAD_REACTORS
330
2A
102
}
102
{ACAD_XDICTIONARY
360
92
102
}
330
2A
100
AcDbVisualStyle
  2
Conceptual
 70
     9
 71
     3
 72
     2
 73
     0
 90
        0
 40
0.6
 41
30.0
 62
     5
 63
     7
421
 16777215
 74
     2
 91
        2
 64
     7
 65
   257
 75
     1
175
     1
 42
179.0
 92
        8
 66
     7
 43
1.0
 76
     1
 77
     6
 78
     2
 67
     7
 79
     3
170
     0
171
     0
290
     0
174
     0
 93
        1
 44
0.0
173
     0
291
     0
 45
0.0
  0
VISUALSTYLE
  5
35
102
{ACAD_REACTORS
330
2A
102
}
102
{ACAD_XDICTIONARY
360
94
102
}
330
2A
100
AcDbVisualStyle
  2
Dim
 70
    11
 71
     2
 72
     2
 73
     0
 90
        0
 40
0.6
 41
30.0
 62
     5
 63
     7
421
 16777215
 74
     1
 91
        4
 64
     7
 65
   257
 75
     1
175
     1
 42
1.0
 92
        8
 66
     7
 43
1.0
 76
     1
 77
     6
 78
     2
 67
     7
 79
     5
170
     0
171
     0
290
     0
174
     0
 93
        1
 44
-50.0
173
     0
291
     1
 45
0.0
  0
VISUALSTYLE
  5
3D
102
{ACAD_REACTORS
330
2A
102
}
102
{ACAD_XDICTIONARY
360
A4
102
}
330
2A
100
AcDbVisualStyle
  2
EdgeColorOff
 70
    22
 71
     2
 72
     2
 73
     0
 90
        0
 40
0.6
 41
30.0
 62
     5
 63
     7
421
 16777215
 74
     1
 91
        4
 64
     7
 65
   257
 75
     1
175
     1
 42
1.0
 92
        8
 66
     7
 43
1.0
 76
     1
 77
     6
 78
     2
 67
     7
 79
     5
170
     0
171
     0
290
     0
174
     0
 93
        1
 44
0.0
173
     0
291
     1
 45
0.0
  0
VISUALSTYLE
  5
39
102
{ACAD_REACTORS
330
2A
102
}
102
{ACAD_XDICTIONARY
360
9C
102
}
330
2A
100
AcDbVisualStyle
  2
Facepattern
 70
    15
 71
     2
 72
     2
 73
     0
 90
        0
 40
0.6
 41
30.0
 62
     5
 63
     7
421
 16777215
 74
     1
 91
        4
 64
     7
 65
   257
 75
     1
175
     1
 42
1.0
 92
        8
 66
     7
 43
1.0
 76
     1
 77
     6
 78
     2
 67
     7
 79
     5
170
     0
171
     0
290
     0
174
     0
 93
        1
 44
0.0
173
     0
291
     1
 45
0.0
  0
VISUALSTYLE
  5
2B
102
{ACAD_REACTORS
330
2A
102
}
102
{ACAD_XDICTIONARY
360
80
102
}
330
2A
100
AcDbVisualStyle
  2
Flat
 70
     0
 71
     2
 72
     1
 73
     1
 90
        2
 40
0.6
 41
30.0
 62
     5
 63
     7
421
 16777215
 74
     0
 91
        0
 64
     7
 65
   257
 75
     1
175
     1
 42
1.0
 92
        8
 66
     7
 43
1.0
 76
     1
 77
     6
 78
     2
 67
     7
 79
     5
170
     0
171
     0
290
     0
174
     0
 93
       13
 44
0.0
173
     0
291
     1
 45
0.0
  0
VISUALSTYLE
  5
2C
102
{ACAD_REACTORS
330
2A
102
}
102
{ACAD_XDICTIONARY
360
82
102
}
330
2A
100
AcDbVisualStyle
  2
FlatWithEdges
 70
     1
 71
     2
 72
     1
 73
     1
 90
        2
 40
0.6
 41
30.0
 62
     5
 63
     7
421
 16777215
 74
     1
 91
        0
 64
     7
 65
   257
 75
     1
175
     1
 42
1.0
 92
        0
 66
   257
 43
1.0
 76
     1
 77
     6
 78
     2
 67
     7
 79
     5
170
     0
171
     0
290
     0
174
     0
 93
       13
 44
0.0
173
     0
291
     1
 45
0.0
  0
VISUALSTYLE
  5
2D
102
{ACAD_REACTORS
330
2A
102
}
102
{ACAD_XDICTIONARY
360
84
102
}
330
2A
100
AcDbVisualStyle
  2
Gouraud
 70
     2
 71
     2
 72
     2
 73
     1
 90
        2
 40
0.6
 41
30.0
 62
     5
 63
     7
421
 16777215
 74
     0
 91
        0
 64
     7
 65
   257
 75
     1
175
     1
 42
1.0
 92
        0
 66
     7
 43
1.0
 76
     1
 77
     6
 78
     2
 67
     7
 79
     5
170
     0
171
     0
290
     0
174
     0
 93
       13
 44
0.0
173
     0
291
     1
 45
0.0
  0
VISUALSTYLE
  5
2E
102
{ACAD_REACTORS
330
2A
102
}
102
{ACAD_XDICTIONARY
360
86
102
}
330
2A
100
AcDbVisualStyle
  2
GouraudWithEdges
 70
     3
 71
     2
 72
     2
 73
     1
 90
        2
 40
0.6
 41
30.0
 62
     5
 63
     7
421
 16777215
 74
     1
 91
        0
 64
     7
 65
   257
 75
     1
175
     1
 42
1.0
 92
        0
 66
   257
 43
1.0
 76
     1
 77
     6
 78
     2
 67
     7
 79
     5
170
     0
171
     0
290
     0
174
     0
 93
       13
 44
0.0
173
     0
291
     1
 45
0.0
  0
VISUALSTYLE
  5
31
102
{ACAD_REACTORS
330
2A
102
}
102
{ACAD_XDICTIONARY
360
8C
102
}
330
2A
100
AcDbVisualStyle
  2
Hidden
 70
     6
 71
     1
 72
     2
 73
     2
 90
        0
 40
0.6
 41
30.0
 62
     5
 63
     7
421
 16777215
 74
     2
 91
        2
 64
     7
 65
   257
 75
     2
175
     1
 42
40.0
 92
        0
 66
   257
 43
1.0
 76
     1
 77
     6
 78
     2
 67
     7
 79
     3
170
     0
171
     0
290
     0
174
     0
 93
        1
 44
0.0
173
     0
291
     0
 45
0.0
  0
VISUALSTYLE
  5
3B
102
{ACAD_REACTORS
330
2A
102
}
102
{ACAD_XDICTIONARY
360
A0
102
}
330
2A
100
AcDbVisualStyle
  2
JitterOff
 70
    20
 71
     2
 72
     2
 73
     0
 90
        0
 40
0.6
 41
30.0
 62
     5
 63
     7
421
 16777215
 74
     1
 91
        4
 64
     7
 65
   257
 75
     1
175
     1
 42
1.0
 92
       10
 66
     7
 43
1.0
 76
     1
 77
     6
 78
     2
 67
     7
 79
     5
170
     0
171
     0
290
     0
174
     0
 93
        1
 44
0.0
173
     0
291
     1
 45
0.0
  0
VISUALSTYLE
  5
38
102
{ACAD_REACTORS
330
2A
102
}
102
{ACAD_XDICTIONARY
360
9A
102
}
330
2A
100
AcDbVisualStyle
  2
Linepattern
 70
    14
 71
     2
 72
     2
 73
     0
 90
        0
 40
0.6
 41
30.0
 62
     5
 63
     7
421
 16777215
 74
     1
 91
        4
 64
     7
 65
   257
 75
     7
175
     7
 42
1.0
 92
        8
 66
     7
 43
1.0
 76
     1
 77
     6
 78
     2
 67
     7
 79
     5
170
     0
171
     0
290
     0
174
     0
 93
        1
 44
0.0
173
     0
291
     1
 45
0.0
  0
VISUALSTYLE
  5
3C
102
{ACAD_REACTORS
330
2A
102
}
102
{ACAD_XDICTIONARY
360
A2
102
}
330
2A
100
AcDbVisualStyle
  2
OverhangOff
 70
    21
 71
     2
 72
     2
 73
     0
 90
        0
 40
0.6
 41
30.0
 62
     5
 63
     7
421
 16777215
 74
     1
 91
        4
 64
     7
 65
   257
 75
     1
175
     1
 42
1.0
 92
        9
 66
     7
 43
1.0
 76
     1
 77
     6
 78
     2
 67
     7
 79
     5
170
     0
171
     0
290
     0
174
     0
 93
        1
 44
0.0
173
     0
291
     1
 45
0.0
  0
VISUALSTYLE
  5
33
102
{ACAD_REACTORS
330
2A
102
}
102
{ACAD_XDICTIONARY
360
90
102
}
330
2A
100
AcDbVisualStyle
  2
Realistic
 70
     8
 71
     2
 72
     3
 73
     0
 90
        2
 40
0.6
 41
30.0
 62
     5
 63
     7
421
 16777215
 74
     0
 91
        0
 64
     7
 65
   257
 75
     1
175
     1
 42
1.0
 92
        8
 66
   257
 43
1.0
 76
     1
 77
     6
 78
     2
 67
     7
 79
     3
170
     0
171
     0
290
     0
174
     0
 93
       13
 44
0.0
173
     0
291
     0
 45
0.0
  0
VISUALSTYLE
  5
42
102
{ACAD_REACTORS
330
2A
102
}
102
{ACAD_XDICTIONARY
360
AE
102
}
330
2A
100
AcDbVisualStyle
  2
Shaded
 70
    27
 71
     2
 72
     2
 73
     1
 90
        2
 40
0.6
 41
30.0
 62
     5
 63
     7
421
 16777215
 74
     0
 91
        4
 64
     7
 65
   257
 75
     1
175
     1
 42
1.0
 92
        8
 66
   257
 43
1.0
 76
     1
 77
     6
 78
     2
 67
     8
425
  7895160
 79
     3
170
     0
171
     0
290
     0
174
     0
 93
        5
 44
0.0
173
     0
291
     0
 45
0.0
  0
VISUALSTYLE
  5
41
102
{ACAD_REACTORS
330
2A
102
}
102
{ACAD_XDICTIONARY
360
AC
102
}
330
2A
100
AcDbVisualStyle
  2
Shaded with edges
 70
    26
 71
     2
 72
     2
 73
     1
 90
        2
 40
0.6
 41
30.0
 62
     5
 63
     7
421
 16777215
 74
     1
 91
       10
 64
     7
 65
   257
 75
     2
175
     1
 42
1.0
 92
        8
 66
   257
 43
1.0
 76
     1
 77
     6
 78
     2
 67
     7
 79
     3
170
     0
171
     0
290
     0
174
     0
 93
        5
 44
0.0
173
     0
291
     0
 45
0.0
  0
VISUALSTYLE
  5
3E
102
{ACAD_REACTORS
330
2A
102
}
102
{ACAD_XDICTIONARY
360
A6
102
}
330
2A
100
AcDbVisualStyle
  2
Shades of Gray
 70
    23
 71
     2
 72
     2
 73
     3
 90
        0
 40
0.6
 41
30.0
 62
     5
 63
     7
421
 16777215
 74
     2
 91
        2
 64
     7
 65
     7
 75
     1
175
     1
 42
40.0
 92
        8
 66
     7
 43
1.0
 76
     1
 77
     6
 78
     2
 67
     7
 79
     3
170
     0
171
     0
290
     0
174
     0
 93
        1
 44
0.0
173
     0
291
     0
 45
0.0
  0
VISUALSTYLE
  5
3F
102
{ACAD_REACTORS
330
2A
102
}
102
{ACAD_XDICTIONARY
360
A8
102
}
330
2A
100
AcDbVisualStyle
  2
Sketchy
 70
    24
 71
     1
 72
     2
 73
     2
 90
        0
 40
0.6
 41
30.0
 62
     5
 63
     7
421
 16777215
 74
     2
 91
        2
 64
     7
 65
     7
 75
     1
175
     1
 42
40.0
 92
       11
 66
     7
 43
1.0
 76
     1
 77
     6
 78
     2
 67
     7
 79
     6
170
     0
171
     0
290
     0
174
     0
 93
        1
 44
0.0
173
     0
291
     0
 45
0.0
  0
VISUALSTYLE
  5
37
102
{ACAD_REACTORS
330
2A
102
}
102
{ACAD_XDICTIONARY
360
98
102
}
330
2A
100
AcDbVisualStyle
  2
Thicken
 70
    13
 71
     2
 72
     2
 73
     0
 90
        0
 40
0.6
 41
30.0
 62
     5
 63
     7
421
 16777215
 74
     1
 91
        4
 64
     7
 65
   257
 75
     1
175
     1
 42
1.0
 92
       12
 66
     7
 43
1.0
 76
     1
 77
     6
 78
     2
 67
     7
 79
     5
170
     0
171
     0
290
     0
174
     0
 93
        1
 44
0.0
173
     0
291
     1
 45
0.0
  0
VISUALSTYLE
  5
30
102
{ACAD_REACTORS
330
2A
102
}
102
{ACAD_XDICTIONARY
360
8A
102
}
330
2A
100
AcDbVisualStyle
  2
Wireframe
 70
     5
 71
     0
 72
     2
 73
     0
 90
        0
 40
0.6
 41
30.0
 62
     5
 63
     7
421
 16777215
 74
     1
 91
        4
 64
     7
 65
   257
 75
     1
175
     1
 42
1.0
 92
        0
 66
   257
 43
1.0
 76
     1
 77
     6
 78
     2
 67
     7
 79
     3
170
     0
171
     0
290
     0
174
     0
 93
        1
 44
0.0
173
     0
291
     0
 45
0.0
  0
VISUALSTYLE
  5
40
102
{ACAD_REACTORS
330
2A
102
}
102
{ACAD_XDICTIONARY
360
AA
102
}
330
2A
100
AcDbVisualStyle
  2
X-Ray
 70
    25
 71
     2
 72
     2
 73
     1
 90
        1
 40
0.5
 41
30.0
 62
     5
 63
     7
421
 16777215
 74
     1
 91
        0
 64
     7
 65
   257
 75
     1
175
     1
 42
1.0
 92
        8
 66
     7
 43
1.0
 76
     1
 77
     6
 78
     2
 67
     7
 79
     3
170
     0
171
     0
290
     0
174
     0
 93
       13
 44
0.0
173
     0
291
     0
 45
0.0
  0
DICTIONARYVAR
  5
7E
102
{ACAD_REACTORS
330
7D
102
}
330
7D
100
DictionaryVariables
280
     0
  1
1:1
  0
DICTIONARYVAR
  5
B7
102
{ACAD_REACTORS
330
7D
102
}
330
7D
100
DictionaryVariables
280
     0
  1
Standard
  0
DICTIONARYVAR
  5
B6
102
{ACAD_REACTORS
330
7D
102
}
330
7D
100
DictionaryVariables
280
     0
  1
Standard
  0
DICTIONARYVAR
  5
7F
102
{ACAD_REACTORS
330
7D
102
}
330
7D
100
DictionaryVariables
280
     0
  1
2
  0
DICTIONARY
  5
B3
330
6C
100
AcDbDictionary
280
     1
281
     1
  3
ACAD_XREC_ROUNDTRIP
360
B4
  0
DICTIONARY
  5
B0
330
6A
100
AcDbDictionary
280
     1
281
     1
  3
ACAD_ROUNDTRIP_2008_TABLESTYLE_CELLSTYLEMAP
360
B1
  0
DICTIONARY
  5
88
330
2F
100
AcDbDictionary
280
     1
281
     1
  3
ACAD_XREC_ROUNDTRIP
360
89
  0
DICTIONARY
  5
8E
330
32
100
AcDbDictionary
280
     1
281
     1
  3
ACAD_XREC_ROUNDTRIP
360
8F
  0
DICTIONARY
  5
96
330
36
100
AcDbDictionary
280
     1
281
     1
  3
ACAD_XREC_ROUNDTRIP
360
97
  0
DICTIONARY
  5
9E
330
3A
100
AcDbDictionary
280
     1
281
     1
  3
ACAD_XREC_ROUNDTRIP
360
9F
  0
DICTIONARY
  5
92
330
34
100
AcDbDictionary
280
     1
281
     1
  3
ACAD_XREC_ROUNDTRIP
360
93
  0
DICTIONARY
  5
94
330
35
100
AcDbDictionary
280
     1
281
     1
  3
ACAD_XREC_ROUNDTRIP
360
95
  0
DICTIONARY
  5
A4
330
3D
100
AcDbDictionary
280
     1
281
     1
  3
ACAD_XREC_ROUNDTRIP
360
A5
  0
DICTIONARY
  5
9C
330
39
100
AcDbDictionary
280
     1
281
     1
  3
ACAD_XREC_ROUNDTRIP
360
9D
  0
DICTIONARY
  5
80
330
2B
100
AcDbDictionary
280
     1
281
     1
  3
ACAD_XREC_ROUNDTRIP
360
81
  0
DICTIONARY
  5
82
330
2C
100
AcDbDictionary
280
     1
281
     1
  3
ACAD_XREC_ROUNDTRIP
360
83
  0
DICTIONARY
  5
84
330
2D
100
AcDbDictionary
280
     1
281
     1
  3
ACAD_XREC_ROUNDTRIP
360
85
  0
DICTIONARY
  5
86
330
2E
100
AcDbDictionary
280
     1
281
     1
  3
ACAD_XREC_ROUNDTRIP
360
87
  0
DICTIONARY
  5
8C
330
31
100
AcDbDictionary
280
     1
281
     1
  3
ACAD_XREC_ROUNDTRIP
360
8D
  0
DICTIONARY
  5
A0
330
3B
100
AcDbDictionary
280
     1
281
     1
  3
ACAD_XREC_ROUNDTRIP
360
A1
  0
DICTIONARY
  5
9A
330
38
100
AcDbDictionary
280
     1
281
     1
  3
ACAD_XREC_ROUNDTRIP
360
9B
  0
DICTIONARY
  5
A2
330
3C
100
AcDbDictionary
280
     1
281
     1
  3
ACAD_XREC_ROUNDTRIP
360
A3
  0
DICTIONARY
  5
90
330
33
100
AcDbDictionary
280
     1
281
     1
  3
ACAD_XREC_ROUNDTRIP
360
91
  0
DICTIONARY
  5
AE
330
42
100
AcDbDictionary
280
     1
281
     1
  3
ACAD_XREC_ROUNDTRIP
360
AF
  0
DICTIONARY
  5
AC
330
41
100
AcDbDictionary
280
     1
281
     1
  3
ACAD_XREC_ROUNDTRIP
360
AD
  0
DICTIONARY
  5
A6
330
3E
100
AcDbDictionary
280
     1
281
     1
  3
ACAD_XREC_ROUNDTRIP
360
A7
  0
DICTIONARY
  5
A8
330
3F
100
AcDbDictionary
280
     1
281
     1
  3
ACAD_XREC_ROUNDTRIP
360
A9
  0
DICTIONARY
  5
98
330
37
100
AcDbDictionary
280
     1
281
     1
  3
ACAD_XREC_ROUNDTRIP
360
99
  0
DICTIONARY
  5
8A
330
30
100
AcDbDictionary
280
     1
281
     1
  3
ACAD_XREC_ROUNDTRIP
360
8B
  0
DICTIONARY
  5
AA
330
40
100
AcDbDictionary
280
     1
281
     1
  3
ACAD_XREC_ROUNDTRIP
360
AB
  0
XRECORD
  5
B4
102
{ACAD_REACTORS
330
B3
102
}
330
B3
100
AcDbXrecord
280
     1
102
ACAD_ROUNDTRIP_2010_MLEADER_STYLE
  0
CELLSTYLEMAP
  5
B1
102
{ACAD_REACTORS
330
B0
102
}
330
B0
100
AcDbCellStyleMap
 90
        3
300
CELLSTYLE
  1
TABLEFORMAT_BEGIN
 90
        5
170
     1
 91
        0
 92
    32768
 62
   257
 93
        1
300
CONTENTFORMAT
  1
CONTENTFORMAT_BEGIN
 90
        0
 91
        0
 92
        4
 93
        0
300

 40
0.0
140
1.0
 94
        5
 62
     0
340
11
144
0.25
309
CONTENTFORMAT_END
171
     1
301
MARGIN
  1
CELLMARGIN_BEGIN
 40
0.06
 40
0.06
 40
0.06
 40
0.06
 40
0.06
 40
0.06
309
CELLMARGIN_END
 94
        6
 95
        1
302
GRIDFORMAT
  1
GRIDFORMAT_BEGIN
 90
        0
 91
        1
 62
     0
 92
       -2
340
14
 93
        0
 40
0.045
309
GRIDFORMAT_END
 95
        2
302
GRIDFORMAT
  1
GRIDFORMAT_BEGIN
 90
        0
 91
        1
 62
     0
 92
       -2
340
14
 93
        0
 40
0.045
309
GRIDFORMAT_END
 95
        4
302
GRIDFORMAT
  1
GRIDFORMAT_BEGIN
 90
        0
 91
        1
 62
     0
 92
       -2
340
14
 93
        0
 40
0.045
309
GRIDFORMAT_END
 95
        8
302
GRIDFORMAT
  1
GRIDFORMAT_BEGIN
 90
        0
 91
        1
 62
     0
 92
       -2
340
14
 93
        0
 40
0.045
309
GRIDFORMAT_END
 95
       16
302
GRIDFORMAT
  1
GRIDFORMAT_BEGIN
 90
        0
 91
        1
 62
     0
 92
       -2
340
14
 93
        0
 40
0.045
309
GRIDFORMAT_END
 95
       32
302
GRIDFORMAT
  1
GRIDFORMAT_BEGIN
 90
        0
 91
        1
 62
     0
 92
       -2
340
14
 93
        0
 40
0.045
309
GRIDFORMAT_END
309
TABLEFORMAT_END
  1
CELLSTYLE_BEGIN
 90
        1
 91
        1
300
_TITLE
309
CELLSTYLE_END
300
CELLSTYLE
  1
TABLEFORMAT_BEGIN
 90
        5
170
     1
 91
        0
 92
        0
 62
   257
 93
        1
300
CONTENTFORMAT
  1
CONTENTFORMAT_BEGIN
 90
        0
 91
        0
 92
        4
 93
        0
300

 40
0.0
140
1.0
 94
        5
 62
     0
340
11
144
0.18
309
CONTENTFORMAT_END
171
     1
301
MARGIN
  1
CELLMARGIN_BEGIN
 40
0.06
 40
0.06
 40
0.06
 40
0.06
 40
0.06
 40
0.06
309
CELLMARGIN_END
 94
        6
 95
        1
302
GRIDFORMAT
  1
GRIDFORMAT_BEGIN
 90
        0
 91
        1
 62
     0
 92
       -2
340
14
 93
        0
 40
0.045
309
GRIDFORMAT_END
 95
        2
302
GRIDFORMAT
  1
GRIDFORMAT_BEGIN
 90
        0
 91
        1
 62
     0
 92
       -2
340
14
 93
        0
 40
0.045
309
GRIDFORMAT_END
 95
        4
302
GRIDFORMAT
  1
GRIDFORMAT_BEGIN
 90
        0
 91
        1
 62
     0
 92
       -2
340
14
 93
        0
 40
0.045
309
GRIDFORMAT_END
 95
        8
302
GRIDFORMAT
  1
GRIDFORMAT_BEGIN
 90
        0
 91
        1
 62
     0
 92
       -2
340
14
 93
        0
 40
0.045
309
GRIDFORMAT_END
 95
       16
302
GRIDFORMAT
  1
GRIDFORMAT_BEGIN
 90
        0
 91
        1
 62
     0
 92
       -2
340
14
 93
        0
 40
0.045
309
GRIDFORMAT_END
 95
       32
302
GRIDFORMAT
  1
GRIDFORMAT_BEGIN
 90
        0
 91
        1
 62
     0
 92
       -2
340
14
 93
        0
 40
0.045
309
GRIDFORMAT_END
309
TABLEFORMAT_END
  1
CELLSTYLE_BEGIN
 90
        2
 91
        1
300
_HEADER
309
CELLSTYLE_END
300
CELLSTYLE
  1
TABLEFORMAT_BEGIN
 90
        5
170
     1
 91
        0
 92
        0
 62
   257
 93
        1
300
CONTENTFORMAT
  1
CONTENTFORMAT_BEGIN
 90
        0
 91
        0
 92
        4
 93
        0
300

 40
0.0
140
1.0
 94
        2
 62
     0
340
11
144
0.18
309
CONTENTFORMAT_END
171
     1
301
MARGIN
  1
CELLMARGIN_BEGIN
 40
0.06
 40
0.06
 40
0.06
 40
0.06
 40
0.06
 40
0.06
309
CELLMARGIN_END
 94
        6
 95
        1
302
GRIDFORMAT
  1
GRIDFORMAT_BEGIN
 90
        0
 91
        1
 62
     0
 92
       -2
340
14
 93
        0
 40
0.045
309
GRIDFORMAT_END
 95
        2
302
GRIDFORMAT
  1
GRIDFORMAT_BEGIN
 90
        0
 91
        1
 62
     0
 92
       -2
340
14
 93
        0
 40
0.045
309
GRIDFORMAT_END
 95
        4
302
GRIDFORMAT
  1
GRIDFORMAT_BEGIN
 90
        0
 91
        1
 62
     0
 92
       -2
340
14
 93
        0
 40
0.045
309
GRIDFORMAT_END
 95
        8
302
GRIDFORMAT
  1
GRIDFORMAT_BEGIN
 90
        0
 91
        1
 62
     0
 92
       -2
340
14
 93
        0
 40
0.045
309
GRIDFORMAT_END
 95
       16
302
GRIDFORMAT
  1
GRIDFORMAT_BEGIN
 90
        0
 91
        1
 62
     0
 92
       -2
340
14
 93
        0
 40
0.045
309
GRIDFORMAT_END
 95
       32
302
GRIDFORMAT
  1
GRIDFORMAT_BEGIN
 90
        0
 91
        1
 62
     0
 92
       -2
340
14
 93
        0
 40
0.045
309
GRIDFORMAT_END
309
TABLEFORMAT_END
  1
CELLSTYLE_BEGIN
 90
        3
 91
        2
300
_DATA
309
CELLSTYLE_END
  0
XRECORD
  5
89
102
{ACAD_REACTORS
330
88
102
}
330
88
100
AcDbXrecord
280
     1
102
RTVSPropertyOp0
 70
     1
102
RTVSPropertyOp1
 70
     1
102
RTVSPropertyOp2
 70
     1
102
RTVSPropertyOp3
 70
     1
102
RTVSPropertyOp4
 70
     1
102
RTVSPropertyOp5
 70
     1
102
RTVSPropertyOp6
 70
     1
102
RTVSPropertyOp7
 70
     1
102
RTVSPropertyOp8
 70
     1
102
RTVSPropertyOp9
 70
     1
102
RTVSPropertyOp10
 70
     1
102
RTVSPropertyOp11
 70
     1
102
RTVSPropertyOp12
 70
     1
102
RTVSPropertyOp13
 70
     1
102
RTVSPropertyOp14
 70
     1
102
RTVSPropertyOp15
 70
     1
102
RTVSPropertyOp16
 70
     1
102
RTVSPropertyOp17
 70
     1
102
RTVSPropertyOp18
 70
     1
102
RTVSPropertyOp19
 70
     1
102
RTVSPropertyOp20
 70
     1
102
RTVSPropertyOp21
 70
     1
102
RTVSPropertyOp22
 70
     1
102
RTVSPropertyOp23
 70
     1
102
RTVSPropertyOp24
 70
     1
102
RTVSPropertyOp25
 70
     1
102
RTVSPropertyOp26
 70
     1
102
RTVSPropertyOp27
 70
     1
102
RTVSPropertyOp28
 70
     1
102
RTVSPropertyOp29
 70
     1
102
RTVSPropertyOp30
 70
     1
102
RTVSPropertyOp31
 70
     1
102
RTVSPropertyOp32
 70
     1
102
RTVSPropertyOp33
 70
     1
102
RTVSPropertyOp34
 70
     1
102
RTVSPropertyOp35
 70
     1
102
RTVSPropertyOp36
 70
     1
102
RTVSPropertyOp37
 70
     1
102
RTVSPropertyOp38
 70
     1
102
RTVSPropertyOp39
 70
     1
102
RTVSPropertyOp40
 70
     1
102
RTVSPropertyOp41
 70
     1
102
RTVSPropertyOp42
 70
     1
102
RTVSPropertyOp43
 70
     1
102
RTVSPropertyOp44
 70
     1
102
RTVSPropertyOp45
 70
     1
102
RTVSPropertyOp46
 70
     1
102
RTVSPropertyOp47
 70
     1
102
RTVSPropertyOp48
 70
     1
102
RTVSPropertyOp49
 70
     1
102
RTVSPropertyOp50
 70
     1
102
RTVSPropertyOp51
 70
     0
102
RTVSPropertyOp52
 70
     0
102
RTVSPropertyOp53
 70
     1
102
RTVSPropertyOp54
 70
     1
102
RTVSPropertyOp55
 70
     1
102
RTVSPropertyOp56
 70
     1
102
RTVSPropertyOp57
 70
     1
102
RTVSPost2010Prop28
280
     1
102
RTVSPost2010PropOp28
 70
     1
102
RTVSPost2010Prop29
280
     1
102
RTVSPost2010PropOp29
 70
     1
102
RTVSPost2010Prop30
280
     0
102
RTVSPost2010PropOp30
 70
     1
102
RTVSPost2010Prop31
280
     0
102
RTVSPost2010PropOp31
 70
     1
102
RTVSPost2010Prop32
280
     0
102
RTVSPost2010PropOp32
 70
     1
102
RTVSPost2010Prop33
280
     0
102
RTVSPost2010PropOp33
 70
     1
102
RTVSPost2010Prop34
280
     0
102
RTVSPost2010PropOp34
 70
     1
102
RTVSPost2010Prop35
280
     0
102
RTVSPost2010PropOp35
 70
     1
102
RTVSPost2010Prop36
280
     0
102
RTVSPost2010PropOp36
 70
     1
102
RTVSPost2010Prop37
 90
       50
102
RTVSPost2010PropOp37
 70
     1
102
RTVSPost2010Prop38
140
0.0
102
RTVSPost2010PropOp38
 70
     1
102
RTVSPost2010Prop39
140
1.0
102
RTVSPost2010PropOp39
 70
     1
102
RTVSPost2010Prop40
 90
        0
102
RTVSPost2010PropOp40
 70
     1
102
RTVSPost2010Prop41ColorIndex
 90
       18
102
RTVSPost2010Prop41ColorRGB
 90
        0
102
RTVSPost2010PropOp41
 70
     1
102
RTVSPost2010Prop42
 90
       50
102
RTVSPost2010PropOp42
 70
     1
102
RTVSPost2010Prop43
 90
        3
102
RTVSPost2010PropOp43
 70
     1
102
RTVSPost2010Prop44ColorIndex
 90
        5
102
RTVSPost2010Prop44ColorRGB
 90
      255
102
RTVSPost2010PropOp44
 70
     1
102
RTVSPost2010Prop45
280
     0
102
RTVSPost2010PropOp45
 70
     1
102
RTVSPost2010Prop46
 90
       50
102
RTVSPost2010PropOp46
 70
     1
102
RTVSPost2010Prop47
 90
       50
102
RTVSPost2010PropOp47
 70
     1
102
RTVSPost2010Prop48
 90
       50
102
RTVSPost2010PropOp48
 70
     1
102
RTVSPost2010Prop49
280
     0
102
RTVSPost2010PropOp49
 70
     1
102
RTVSPost2010Prop50
 90
       50
102
RTVSPost2010PropOp50
 70
     1
102
RTVSPost2010Prop51ColorIndex
 90
      256
102
RTVSPost2010Prop51ColorRGB
 90
-16777216
102
RTVSPost2010PropOp51
 70
     0
102
RTVSPost2010Prop52
140
1.0
102
RTVSPost2010PropOp52
 70
     0
102
RTVSPost2010Prop53
 90
        2
102
RTVSPost2010PropOp53
 70
     1
102
RTVSPost2010Prop54
  1
strokes_ogs.tif
102
RTVSPost2010PropOp54
 70
     1
102
RTVSPost2010Prop55
280
     0
102
RTVSPost2010PropOp55
 70
     1
102
RTVSPost2010Prop56
140
1.0
102
RTVSPost2010PropOp56
 70
     1
102
RTVSPost2010Prop57
140
1.0
102
RTVSPost2010PropOp57
 70
     1
  0
XRECORD
  5
8F
102
{ACAD_REACTORS
330
8E
102
}
330
8E
100
AcDbXrecord
280
     1
102
RTVSPropertyOp0
 70
     1
102
RTVSPropertyOp1
 70
     1
102
RTVSPropertyOp2
 70
     1
102
RTVSPropertyOp3
 70
     1
102
RTVSPropertyOp4
 70
     1
102
RTVSPropertyOp5
 70
     1
102
RTVSPropertyOp6
 70
     1
102
RTVSPropertyOp7
 70
     1
102
RTVSPropertyOp8
 70
     1
102
RTVSPropertyOp9
 70
     1
102
RTVSPropertyOp10
 70
     1
102
RTVSPropertyOp11
 70
     1
102
RTVSPropertyOp12
 70
     1
102
RTVSPropertyOp13
 70
     1
102
RTVSPropertyOp14
 70
     1
102
RTVSPropertyOp15
 70
     1
102
RTVSPropertyOp16
 70
     1
102
RTVSPropertyOp17
 70
     1
102
RTVSPropertyOp18
 70
     1
102
RTVSPropertyOp19
 70
     1
102
RTVSPropertyOp20
 70
     1
102
RTVSPropertyOp21
 70
     1
102
RTVSPropertyOp22
 70
     1
102
RTVSPropertyOp23
 70
     1
102
RTVSPropertyOp24
 70
     1
102
RTVSPropertyOp25
 70
     1
102
RTVSPropertyOp26
 70
     1
102
RTVSPropertyOp27
 70
     1
102
RTVSPropertyOp28
 70
     1
102
RTVSPropertyOp29
 70
     1
102
RTVSPropertyOp30
 70
     1
102
RTVSPropertyOp31
 70
     1
102
RTVSPropertyOp32
 70
     1
102
RTVSPropertyOp33
 70
     1
102
RTVSPropertyOp34
 70
     1
102
RTVSPropertyOp35
 70
     1
102
RTVSPropertyOp36
 70
     1
102
RTVSPropertyOp37
 70
     1
102
RTVSPropertyOp38
 70
     1
102
RTVSPropertyOp39
 70
     1
102
RTVSPropertyOp40
 70
     1
102
RTVSPropertyOp41
 70
     1
102
RTVSPropertyOp42
 70
     1
102
RTVSPropertyOp43
 70
     1
102
RTVSPropertyOp44
 70
     1
102
RTVSPropertyOp45
 70
     1
102
RTVSPropertyOp46
 70
     1
102
RTVSPropertyOp47
 70
     1
102
RTVSPropertyOp48
 70
     1
102
RTVSPropertyOp49
 70
     1
102
RTVSPropertyOp50
 70
     1
102
RTVSPropertyOp51
 70
     0
102
RTVSPropertyOp52
 70
     0
102
RTVSPropertyOp53
 70
     1
102
RTVSPropertyOp54
 70
     1
102
RTVSPropertyOp55
 70
     1
102
RTVSPropertyOp56
 70
     1
102
RTVSPropertyOp57
 70
     1
102
RTVSPost2010Prop28
280
     0
102
RTVSPost2010PropOp28
 70
     1
102
RTVSPost2010Prop29
280
     1
102
RTVSPost2010PropOp29
 70
     1
102
RTVSPost2010Prop30
280
     1
102
RTVSPost2010PropOp30
 70
     1
102
RTVSPost2010Prop31
280
     0
102
RTVSPost2010PropOp31
 70
     1
102
RTVSPost2010Prop32
280
     0
102
RTVSPost2010PropOp32
 70
     1
102
RTVSPost2010Prop33
280
     0
102
RTVSPost2010PropOp33
 70
     1
102
RTVSPost2010Prop34
280
     0
102
RTVSPost2010PropOp34
 70
     1
102
RTVSPost2010Prop35
280
     0
102
RTVSPost2010PropOp35
 70
     1
102
RTVSPost2010Prop36
280
     0
102
RTVSPost2010PropOp36
 70
     1
102
RTVSPost2010Prop37
 90
       50
102
RTVSPost2010PropOp37
 70
     1
102
RTVSPost2010Prop38
140
0.0
102
RTVSPost2010PropOp38
 70
     1
102
RTVSPost2010Prop39
140
1.0
102
RTVSPost2010PropOp39
 70
     1
102
RTVSPost2010Prop40
 90
        0
102
RTVSPost2010PropOp40
 70
     1
102
RTVSPost2010Prop41ColorIndex
 90
       18
102
RTVSPost2010Prop41ColorRGB
 90
        0
102
RTVSPost2010PropOp41
 70
     1
102
RTVSPost2010Prop42
 90
       50
102
RTVSPost2010PropOp42
 70
     1
102
RTVSPost2010Prop43
 90
        3
102
RTVSPost2010PropOp43
 70
     1
102
RTVSPost2010Prop44ColorIndex
 90
        5
102
RTVSPost2010Prop44ColorRGB
 90
      255
102
RTVSPost2010PropOp44
 70
     1
102
RTVSPost2010Prop45
280
     0
102
RTVSPost2010PropOp45
 70
     1
102
RTVSPost2010Prop46
 90
       50
102
RTVSPost2010PropOp46
 70
     1
102
RTVSPost2010Prop47
 90
       50
102
RTVSPost2010PropOp47
 70
     1
102
RTVSPost2010Prop48
 90
       50
102
RTVSPost2010PropOp48
 70
     1
102
RTVSPost2010Prop49
280
     0
102
RTVSPost2010PropOp49
 70
     1
102
RTVSPost2010Prop50
 90
       50
102
RTVSPost2010PropOp50
 70
     1
102
RTVSPost2010Prop51ColorIndex
 90
      256
102
RTVSPost2010Prop51ColorRGB
 90
-16777216
102
RTVSPost2010PropOp51
 70
     0
102
RTVSPost2010Prop52
140
1.0
102
RTVSPost2010PropOp52
 70
     0
102
RTVSPost2010Prop53
 90
        2
102
RTVSPost2010PropOp53
 70
     1
102
RTVSPost2010Prop54
  1
strokes_ogs.tif
102
RTVSPost2010PropOp54
 70
     1
102
RTVSPost2010Prop55
280
     0
102
RTVSPost2010PropOp55
 70
     1
102
RTVSPost2010Prop56
140
1.0
102
RTVSPost2010PropOp56
 70
     1
102
RTVSPost2010Prop57
140
1.0
102
RTVSPost2010PropOp57
 70
     1
  0
XRECORD
  5
97
102
{ACAD_REACTORS
330
96
102
}
330
96
100
AcDbXrecord
280
     1
102
RTVSPropertyOp0
 70
     1
102
RTVSPropertyOp1
 70
     1
102
RTVSPropertyOp2
 70
     1
102
RTVSPropertyOp3
 70
     1
102
RTVSPropertyOp4
 70
     1
102
RTVSPropertyOp5
 70
     1
102
RTVSPropertyOp6
 70
     1
102
RTVSPropertyOp7
 70
     1
102
RTVSPropertyOp8
 70
     1
102
RTVSPropertyOp9
 70
     1
102
RTVSPropertyOp10
 70
     1
102
RTVSPropertyOp11
 70
     1
102
RTVSPropertyOp12
 70
     1
102
RTVSPropertyOp13
 70
     1
102
RTVSPropertyOp14
 70
     1
102
RTVSPropertyOp15
 70
     1
102
RTVSPropertyOp16
 70
     1
102
RTVSPropertyOp17
 70
     1
102
RTVSPropertyOp18
 70
     1
102
RTVSPropertyOp19
 70
     1
102
RTVSPropertyOp20
 70
     1
102
RTVSPropertyOp21
 70
     1
102
RTVSPropertyOp22
 70
     1
102
RTVSPropertyOp23
 70
     1
102
RTVSPropertyOp24
 70
     1
102
RTVSPropertyOp25
 70
     1
102
RTVSPropertyOp26
 70
     1
102
RTVSPropertyOp27
 70
     1
102
RTVSPropertyOp28
 70
     1
102
RTVSPropertyOp29
 70
     1
102
RTVSPropertyOp30
 70
     1
102
RTVSPropertyOp31
 70
     1
102
RTVSPropertyOp32
 70
     1
102
RTVSPropertyOp33
 70
     1
102
RTVSPropertyOp34
 70
     1
102
RTVSPropertyOp35
 70
     1
102
RTVSPropertyOp36
 70
     1
102
RTVSPropertyOp37
 70
     1
102
RTVSPropertyOp38
 70
     1
102
RTVSPropertyOp39
 70
     1
102
RTVSPropertyOp40
 70
     1
102
RTVSPropertyOp41
 70
     1
102
RTVSPropertyOp42
 70
     1
102
RTVSPropertyOp43
 70
     1
102
RTVSPropertyOp44
 70
     1
102
RTVSPropertyOp45
 70
     1
102
RTVSPropertyOp46
 70
     1
102
RTVSPropertyOp47
 70
     1
102
RTVSPropertyOp48
 70
     1
102
RTVSPropertyOp49
 70
     1
102
RTVSPropertyOp50
 70
     1
102
RTVSPropertyOp51
 70
     0
102
RTVSPropertyOp52
 70
     0
102
RTVSPropertyOp53
 70
     1
102
RTVSPropertyOp54
 70
     1
102
RTVSPropertyOp55
 70
     1
102
RTVSPropertyOp56
 70
     1
102
RTVSPropertyOp57
 70
     1
102
RTVSPost2010Prop28
280
     0
102
RTVSPost2010PropOp28
 70
     1
102
RTVSPost2010Prop29
280
     1
102
RTVSPost2010PropOp29
 70
     1
102
RTVSPost2010Prop30
280
     1
102
RTVSPost2010PropOp30
 70
     1
102
RTVSPost2010Prop31
280
     0
102
RTVSPost2010PropOp31
 70
     1
102
RTVSPost2010Prop32
280
     0
102
RTVSPost2010PropOp32
 70
     1
102
RTVSPost2010Prop33
280
     0
102
RTVSPost2010PropOp33
 70
     1
102
RTVSPost2010Prop34
280
     0
102
RTVSPost2010PropOp34
 70
     1
102
RTVSPost2010Prop35
280
     0
102
RTVSPost2010PropOp35
 70
     1
102
RTVSPost2010Prop36
280
     0
102
RTVSPost2010PropOp36
 70
     1
102
RTVSPost2010Prop37
 90
       50
102
RTVSPost2010PropOp37
 70
     1
102
RTVSPost2010Prop38
140
0.0
102
RTVSPost2010PropOp38
 70
     1
102
RTVSPost2010Prop39
140
1.0
102
RTVSPost2010PropOp39
 70
     1
102
RTVSPost2010Prop40
 90
        0
102
RTVSPost2010PropOp40
 70
     1
102
RTVSPost2010Prop41ColorIndex
 90
       18
102
RTVSPost2010Prop41ColorRGB
 90
        0
102
RTVSPost2010PropOp41
 70
     1
102
RTVSPost2010Prop42
 90
       50
102
RTVSPost2010PropOp42
 70
     1
102
RTVSPost2010Prop43
 90
        3
102
RTVSPost2010PropOp43
 70
     1
102
RTVSPost2010Prop44ColorIndex
 90
        5
102
RTVSPost2010Prop44ColorRGB
 90
      255
102
RTVSPost2010PropOp44
 70
     1
102
RTVSPost2010Prop45
280
     0
102
RTVSPost2010PropOp45
 70
     1
102
RTVSPost2010Prop46
 90
       50
102
RTVSPost2010PropOp46
 70
     1
102
RTVSPost2010Prop47
 90
       50
102
RTVSPost2010PropOp47
 70
     1
102
RTVSPost2010Prop48
 90
       50
102
RTVSPost2010PropOp48
 70
     1
102
RTVSPost2010Prop49
280
     0
102
RTVSPost2010PropOp49
 70
     1
102
RTVSPost2010Prop50
 90
       50
102
RTVSPost2010PropOp50
 70
     1
102
RTVSPost2010Prop51ColorIndex
 90
      256
102
RTVSPost2010Prop51ColorRGB
 90
-16777216
102
RTVSPost2010PropOp51
 70
     0
102
RTVSPost2010Prop52
140
1.0
102
RTVSPost2010PropOp52
 70
     0
102
RTVSPost2010Prop53
 90
        2
102
RTVSPost2010PropOp53
 70
     1
102
RTVSPost2010Prop54
  1
strokes_ogs.tif
102
RTVSPost2010PropOp54
 70
     1
102
RTVSPost2010Prop55
280
     0
102
RTVSPost2010PropOp55
 70
     1
102
RTVSPost2010Prop56
140
1.0
102
RTVSPost2010PropOp56
 70
     1
102
RTVSPost2010Prop57
140
1.0
102
RTVSPost2010PropOp57
 70
     1
  0
XRECORD
  5
9F
102
{ACAD_REACTORS
330
9E
102
}
330
9E
100
AcDbXrecord
280
     1
102
RTVSPropertyOp0
 70
     1
102
RTVSPropertyOp1
 70
     1
102
RTVSPropertyOp2
 70
     1
102
RTVSPropertyOp3
 70
     1
102
RTVSPropertyOp4
 70
     1
102
RTVSPropertyOp5
 70
     1
102
RTVSPropertyOp6
 70
     1
102
RTVSPropertyOp7
 70
     1
102
RTVSPropertyOp8
 70
     1
102
RTVSPropertyOp9
 70
     1
102
RTVSPropertyOp10
 70
     1
102
RTVSPropertyOp11
 70
     1
102
RTVSPropertyOp12
 70
     1
102
RTVSPropertyOp13
 70
     1
102
RTVSPropertyOp14
 70
     1
102
RTVSPropertyOp15
 70
     1
102
RTVSPropertyOp16
 70
     1
102
RTVSPropertyOp17
 70
     1
102
RTVSPropertyOp18
 70
     1
102
RTVSPropertyOp19
 70
     1
102
RTVSPropertyOp20
 70
     1
102
RTVSPropertyOp21
 70
     1
102
RTVSPropertyOp22
 70
     1
102
RTVSPropertyOp23
 70
     1
102
RTVSPropertyOp24
 70
     1
102
RTVSPropertyOp25
 70
     1
102
RTVSPropertyOp26
 70
     1
102
RTVSPropertyOp27
 70
     1
102
RTVSPropertyOp28
 70
     1
102
RTVSPropertyOp29
 70
     1
102
RTVSPropertyOp30
 70
     1
102
RTVSPropertyOp31
 70
     1
102
RTVSPropertyOp32
 70
     1
102
RTVSPropertyOp33
 70
     1
102
RTVSPropertyOp34
 70
     1
102
RTVSPropertyOp35
 70
     1
102
RTVSPropertyOp36
 70
     1
102
RTVSPropertyOp37
 70
     1
102
RTVSPropertyOp38
 70
     1
102
RTVSPropertyOp39
 70
     1
102
RTVSPropertyOp40
 70
     1
102
RTVSPropertyOp41
 70
     1
102
RTVSPropertyOp42
 70
     1
102
RTVSPropertyOp43
 70
     1
102
RTVSPropertyOp44
 70
     1
102
RTVSPropertyOp45
 70
     1
102
RTVSPropertyOp46
 70
     1
102
RTVSPropertyOp47
 70
     1
102
RTVSPropertyOp48
 70
     1
102
RTVSPropertyOp49
 70
     1
102
RTVSPropertyOp50
 70
     1
102
RTVSPropertyOp51
 70
     0
102
RTVSPropertyOp52
 70
     0
102
RTVSPropertyOp53
 70
     1
102
RTVSPropertyOp54
 70
     1
102
RTVSPropertyOp55
 70
     1
102
RTVSPropertyOp56
 70
     1
102
RTVSPropertyOp57
 70
     1
102
RTVSPost2010Prop28
280
     0
102
RTVSPost2010PropOp28
 70
     1
102
RTVSPost2010Prop29
280
     1
102
RTVSPost2010PropOp29
 70
     1
102
RTVSPost2010Prop30
280
     1
102
RTVSPost2010PropOp30
 70
     1
102
RTVSPost2010Prop31
280
     0
102
RTVSPost2010PropOp31
 70
     1
102
RTVSPost2010Prop32
280
     0
102
RTVSPost2010PropOp32
 70
     1
102
RTVSPost2010Prop33
280
     0
102
RTVSPost2010PropOp33
 70
     1
102
RTVSPost2010Prop34
280
     0
102
RTVSPost2010PropOp34
 70
     1
102
RTVSPost2010Prop35
280
     0
102
RTVSPost2010PropOp35
 70
     1
102
RTVSPost2010Prop36
280
     0
102
RTVSPost2010PropOp36
 70
     1
102
RTVSPost2010Prop37
 90
       50
102
RTVSPost2010PropOp37
 70
     1
102
RTVSPost2010Prop38
140
0.0
102
RTVSPost2010PropOp38
 70
     1
102
RTVSPost2010Prop39
140
1.0
102
RTVSPost2010PropOp39
 70
     1
102
RTVSPost2010Prop40
 90
        0
102
RTVSPost2010PropOp40
 70
     1
102
RTVSPost2010Prop41ColorIndex
 90
       18
102
RTVSPost2010Prop41ColorRGB
 90
        0
102
RTVSPost2010PropOp41
 70
     1
102
RTVSPost2010Prop42
 90
       50
102
RTVSPost2010PropOp42
 70
     1
102
RTVSPost2010Prop43
 90
        3
102
RTVSPost2010PropOp43
 70
     1
102
RTVSPost2010Prop44ColorIndex
 90
        5
102
RTVSPost2010Prop44ColorRGB
 90
      255
102
RTVSPost2010PropOp44
 70
     1
102
RTVSPost2010Prop45
280
     0
102
RTVSPost2010PropOp45
 70
     1
102
RTVSPost2010Prop46
 90
       50
102
RTVSPost2010PropOp46
 70
     1
102
RTVSPost2010Prop47
 90
       50
102
RTVSPost2010PropOp47
 70
     1
102
RTVSPost2010Prop48
 90
       50
102
RTVSPost2010PropOp48
 70
     1
102
RTVSPost2010Prop49
280
     0
102
RTVSPost2010PropOp49
 70
     1
102
RTVSPost2010Prop50
 90
       50
102
RTVSPost2010PropOp50
 70
     1
102
RTVSPost2010Prop51ColorIndex
 90
      256
102
RTVSPost2010Prop51ColorRGB
 90
-16777216
102
RTVSPost2010PropOp51
 70
     0
102
RTVSPost2010Prop52
140
1.0
102
RTVSPost2010PropOp52
 70
     0
102
RTVSPost2010Prop53
 90
        2
102
RTVSPost2010PropOp53
 70
     1
102
RTVSPost2010Prop54
  1
strokes_ogs.tif
102
RTVSPost2010PropOp54
 70
     1
102
RTVSPost2010Prop55
280
     0
102
RTVSPost2010PropOp55
 70
     1
102
RTVSPost2010Prop56
140
1.0
102
RTVSPost2010PropOp56
 70
     1
102
RTVSPost2010Prop57
140
1.0
102
RTVSPost2010PropOp57
 70
     1
  0
XRECORD
  5
93
102
{ACAD_REACTORS
330
92
102
}
330
92
100
AcDbXrecord
280
     1
102
RTVSPropertyOp0
 70
     1
102
RTVSPropertyOp1
 70
     1
102
RTVSPropertyOp2
 70
     1
102
RTVSPropertyOp3
 70
     1
102
RTVSPropertyOp4
 70
     1
102
RTVSPropertyOp5
 70
     1
102
RTVSPropertyOp6
 70
     1
102
RTVSPropertyOp7
 70
     1
102
RTVSPropertyOp8
 70
     1
102
RTVSPropertyOp9
 70
     1
102
RTVSPropertyOp10
 70
     1
102
RTVSPropertyOp11
 70
     1
102
RTVSPropertyOp12
 70
     1
102
RTVSPropertyOp13
 70
     1
102
RTVSPropertyOp14
 70
     1
102
RTVSPropertyOp15
 70
     1
102
RTVSPropertyOp16
 70
     1
102
RTVSPropertyOp17
 70
     1
102
RTVSPropertyOp18
 70
     1
102
RTVSPropertyOp19
 70
     1
102
RTVSPropertyOp20
 70
     1
102
RTVSPropertyOp21
 70
     1
102
RTVSPropertyOp22
 70
     1
102
RTVSPropertyOp23
 70
     1
102
RTVSPropertyOp24
 70
     1
102
RTVSPropertyOp25
 70
     1
102
RTVSPropertyOp26
 70
     1
102
RTVSPropertyOp27
 70
     1
102
RTVSPropertyOp28
 70
     1
102
RTVSPropertyOp29
 70
     1
102
RTVSPropertyOp30
 70
     1
102
RTVSPropertyOp31
 70
     1
102
RTVSPropertyOp32
 70
     1
102
RTVSPropertyOp33
 70
     1
102
RTVSPropertyOp34
 70
     1
102
RTVSPropertyOp35
 70
     1
102
RTVSPropertyOp36
 70
     1
102
RTVSPropertyOp37
 70
     1
102
RTVSPropertyOp38
 70
     1
102
RTVSPropertyOp39
 70
     1
102
RTVSPropertyOp40
 70
     1
102
RTVSPropertyOp41
 70
     1
102
RTVSPropertyOp42
 70
     1
102
RTVSPropertyOp43
 70
     1
102
RTVSPropertyOp44
 70
     1
102
RTVSPropertyOp45
 70
     1
102
RTVSPropertyOp46
 70
     1
102
RTVSPropertyOp47
 70
     1
102
RTVSPropertyOp48
 70
     1
102
RTVSPropertyOp49
 70
     1
102
RTVSPropertyOp50
 70
     1
102
RTVSPropertyOp51
 70
     0
102
RTVSPropertyOp52
 70
     0
102
RTVSPropertyOp53
 70
     1
102
RTVSPropertyOp54
 70
     1
102
RTVSPropertyOp55
 70
     1
102
RTVSPropertyOp56
 70
     1
102
RTVSPropertyOp57
 70
     1
102
RTVSPost2010Prop28
280
     0
102
RTVSPost2010PropOp28
 70
     1
102
RTVSPost2010Prop29
280
     1
102
RTVSPost2010PropOp29
 70
     1
102
RTVSPost2010Prop30
280
     1
102
RTVSPost2010PropOp30
 70
     1
102
RTVSPost2010Prop31
280
     0
102
RTVSPost2010PropOp31
 70
     1
102
RTVSPost2010Prop32
280
     0
102
RTVSPost2010PropOp32
 70
     1
102
RTVSPost2010Prop33
280
     0
102
RTVSPost2010PropOp33
 70
     1
102
RTVSPost2010Prop34
280
     0
102
RTVSPost2010PropOp34
 70
     1
102
RTVSPost2010Prop35
280
     0
102
RTVSPost2010PropOp35
 70
     1
102
RTVSPost2010Prop36
280
     0
102
RTVSPost2010PropOp36
 70
     1
102
RTVSPost2010Prop37
 90
       50
102
RTVSPost2010PropOp37
 70
     1
102
RTVSPost2010Prop38
140
0.0
102
RTVSPost2010PropOp38
 70
     1
102
RTVSPost2010Prop39
140
1.0
102
RTVSPost2010PropOp39
 70
     1
102
RTVSPost2010Prop40
 90
        0
102
RTVSPost2010PropOp40
 70
     1
102
RTVSPost2010Prop41ColorIndex
 90
       18
102
RTVSPost2010Prop41ColorRGB
 90
        0
102
RTVSPost2010PropOp41
 70
     1
102
RTVSPost2010Prop42
 90
       50
102
RTVSPost2010PropOp42
 70
     1
102
RTVSPost2010Prop43
 90
        3
102
RTVSPost2010PropOp43
 70
     1
102
RTVSPost2010Prop44ColorIndex
 90
        5
102
RTVSPost2010Prop44ColorRGB
 90
      255
102
RTVSPost2010PropOp44
 70
     1
102
RTVSPost2010Prop45
280
     0
102
RTVSPost2010PropOp45
 70
     1
102
RTVSPost2010Prop46
 90
       50
102
RTVSPost2010PropOp46
 70
     1
102
RTVSPost2010Prop47
 90
       50
102
RTVSPost2010PropOp47
 70
     1
102
RTVSPost2010Prop48
 90
       50
102
RTVSPost2010PropOp48
 70
     1
102
RTVSPost2010Prop49
280
     0
102
RTVSPost2010PropOp49
 70
     1
102
RTVSPost2010Prop50
 90
       50
102
RTVSPost2010PropOp50
 70
     1
102
RTVSPost2010Prop51ColorIndex
 90
      256
102
RTVSPost2010Prop51ColorRGB
 90
-16777216
102
RTVSPost2010PropOp51
 70
     0
102
RTVSPost2010Prop52
140
1.0
102
RTVSPost2010PropOp52
 70
     0
102
RTVSPost2010Prop53
 90
        2
102
RTVSPost2010PropOp53
 70
     1
102
RTVSPost2010Prop54
  1
strokes_ogs.tif
102
RTVSPost2010PropOp54
 70
     1
102
RTVSPost2010Prop55
280
     0
102
RTVSPost2010PropOp55
 70
     1
102
RTVSPost2010Prop56
140
1.0
102
RTVSPost2010PropOp56
 70
     1
102
RTVSPost2010Prop57
140
1.0
102
RTVSPost2010PropOp57
 70
     1
  0
XRECORD
  5
95
102
{ACAD_REACTORS
330
94
102
}
330
94
100
AcDbXrecord
280
     1
102
RTVSPropertyOp0
 70
     1
102
RTVSPropertyOp1
 70
     1
102
RTVSPropertyOp2
 70
     1
102
RTVSPropertyOp3
 70
     1
102
RTVSPropertyOp4
 70
     1
102
RTVSPropertyOp5
 70
     1
102
RTVSPropertyOp6
 70
     1
102
RTVSPropertyOp7
 70
     1
102
RTVSPropertyOp8
 70
     1
102
RTVSPropertyOp9
 70
     1
102
RTVSPropertyOp10
 70
     1
102
RTVSPropertyOp11
 70
     1
102
RTVSPropertyOp12
 70
     1
102
RTVSPropertyOp13
 70
     1
102
RTVSPropertyOp14
 70
     1
102
RTVSPropertyOp15
 70
     1
102
RTVSPropertyOp16
 70
     1
102
RTVSPropertyOp17
 70
     1
102
RTVSPropertyOp18
 70
     1
102
RTVSPropertyOp19
 70
     1
102
RTVSPropertyOp20
 70
     1
102
RTVSPropertyOp21
 70
     1
102
RTVSPropertyOp22
 70
     1
102
RTVSPropertyOp23
 70
     1
102
RTVSPropertyOp24
 70
     1
102
RTVSPropertyOp25
 70
     1
102
RTVSPropertyOp26
 70
     1
102
RTVSPropertyOp27
 70
     1
102
RTVSPropertyOp28
 70
     1
102
RTVSPropertyOp29
 70
     1
102
RTVSPropertyOp30
 70
     1
102
RTVSPropertyOp31
 70
     1
102
RTVSPropertyOp32
 70
     1
102
RTVSPropertyOp33
 70
     1
102
RTVSPropertyOp34
 70
     1
102
RTVSPropertyOp35
 70
     1
102
RTVSPropertyOp36
 70
     1
102
RTVSPropertyOp37
 70
     1
102
RTVSPropertyOp38
 70
     1
102
RTVSPropertyOp39
 70
     1
102
RTVSPropertyOp40
 70
     1
102
RTVSPropertyOp41
 70
     1
102
RTVSPropertyOp42
 70
     1
102
RTVSPropertyOp43
 70
     1
102
RTVSPropertyOp44
 70
     1
102
RTVSPropertyOp45
 70
     1
102
RTVSPropertyOp46
 70
     1
102
RTVSPropertyOp47
 70
     1
102
RTVSPropertyOp48
 70
     1
102
RTVSPropertyOp49
 70
     1
102
RTVSPropertyOp50
 70
     1
102
RTVSPropertyOp51
 70
     0
102
RTVSPropertyOp52
 70
     0
102
RTVSPropertyOp53
 70
     1
102
RTVSPropertyOp54
 70
     1
102
RTVSPropertyOp55
 70
     1
102
RTVSPropertyOp56
 70
     1
102
RTVSPropertyOp57
 70
     1
102
RTVSPost2010Prop28
280
     0
102
RTVSPost2010PropOp28
 70
     1
102
RTVSPost2010Prop29
280
     1
102
RTVSPost2010PropOp29
 70
     1
102
RTVSPost2010Prop30
280
     1
102
RTVSPost2010PropOp30
 70
     1
102
RTVSPost2010Prop31
280
     0
102
RTVSPost2010PropOp31
 70
     1
102
RTVSPost2010Prop32
280
     0
102
RTVSPost2010PropOp32
 70
     1
102
RTVSPost2010Prop33
280
     0
102
RTVSPost2010PropOp33
 70
     1
102
RTVSPost2010Prop34
280
     0
102
RTVSPost2010PropOp34
 70
     1
102
RTVSPost2010Prop35
280
     0
102
RTVSPost2010PropOp35
 70
     1
102
RTVSPost2010Prop36
280
     0
102
RTVSPost2010PropOp36
 70
     1
102
RTVSPost2010Prop37
 90
       50
102
RTVSPost2010PropOp37
 70
     1
102
RTVSPost2010Prop38
140
0.0
102
RTVSPost2010PropOp38
 70
     1
102
RTVSPost2010Prop39
140
1.0
102
RTVSPost2010PropOp39
 70
     1
102
RTVSPost2010Prop40
 90
        0
102
RTVSPost2010PropOp40
 70
     1
102
RTVSPost2010Prop41ColorIndex
 90
       18
102
RTVSPost2010Prop41ColorRGB
 90
        0
102
RTVSPost2010PropOp41
 70
     1
102
RTVSPost2010Prop42
 90
       50
102
RTVSPost2010PropOp42
 70
     1
102
RTVSPost2010Prop43
 90
        3
102
RTVSPost2010PropOp43
 70
     1
102
RTVSPost2010Prop44ColorIndex
 90
        5
102
RTVSPost2010Prop44ColorRGB
 90
      255
102
RTVSPost2010PropOp44
 70
     1
102
RTVSPost2010Prop45
280
     0
102
RTVSPost2010PropOp45
 70
     1
102
RTVSPost2010Prop46
 90
       50
102
RTVSPost2010PropOp46
 70
     1
102
RTVSPost2010Prop47
 90
       50
102
RTVSPost2010PropOp47
 70
     1
102
RTVSPost2010Prop48
 90
       50
102
RTVSPost2010PropOp48
 70
     1
102
RTVSPost2010Prop49
280
     0
102
RTVSPost2010PropOp49
 70
     1
102
RTVSPost2010Prop50
 90
       50
102
RTVSPost2010PropOp50
 70
     1
102
RTVSPost2010Prop51ColorIndex
 90
      256
102
RTVSPost2010Prop51ColorRGB
 90
-16777216
102
RTVSPost2010PropOp51
 70
     0
102
RTVSPost2010Prop52
140
1.0
102
RTVSPost2010PropOp52
 70
     0
102
RTVSPost2010Prop53
 90
        2
102
RTVSPost2010PropOp53
 70
     1
102
RTVSPost2010Prop54
  1
strokes_ogs.tif
102
RTVSPost2010PropOp54
 70
     1
102
RTVSPost2010Prop55
280
     0
102
RTVSPost2010PropOp55
 70
     1
102
RTVSPost2010Prop56
140
1.0
102
RTVSPost2010PropOp56
 70
     1
102
RTVSPost2010Prop57
140
1.0
102
RTVSPost2010PropOp57
 70
     1
  0
XRECORD
  5
A5
102
{ACAD_REACTORS
330
A4
102
}
330
A4
100
AcDbXrecord
280
     1
102
RTVSPropertyOp0
 70
     0
102
RTVSPropertyOp1
 70
     0
102
RTVSPropertyOp2
 70
     0
102
RTVSPropertyOp3
 70
     0
102
RTVSPropertyOp4
 70
     0
102
RTVSPropertyOp5
 70
     0
102
RTVSPropertyOp6
 70
     0
102
RTVSPropertyOp7
 70
     0
102
RTVSPropertyOp8
 70
     0
102
RTVSPropertyOp9
 70
     0
102
RTVSPropertyOp10
 70
     0
102
RTVSPropertyOp11
 70
     0
102
RTVSPropertyOp12
 70
     0
102
RTVSPropertyOp13
 70
     0
102
RTVSPropertyOp14
 70
     2
102
RTVSPropertyOp15
 70
     0
102
RTVSPropertyOp16
 70
     0
102
RTVSPropertyOp17
 70
     0
102
RTVSPropertyOp18
 70
     0
102
RTVSPropertyOp19
 70
     0
102
RTVSPropertyOp20
 70
     0
102
RTVSPropertyOp21
 70
     0
102
RTVSPropertyOp22
 70
     0
102
RTVSPropertyOp23
 70
     0
102
RTVSPropertyOp24
 70
     0
102
RTVSPropertyOp25
 70
     0
102
RTVSPropertyOp26
 70
     0
102
RTVSPropertyOp27
 70
     0
102
RTVSPropertyOp28
 70
     0
102
RTVSPropertyOp29
 70
     0
102
RTVSPropertyOp30
 70
     0
102
RTVSPropertyOp31
 70
     0
102
RTVSPropertyOp32
 70
     0
102
RTVSPropertyOp33
 70
     0
102
RTVSPropertyOp34
 70
     0
102
RTVSPropertyOp35
 70
     0
102
RTVSPropertyOp36
 70
     0
102
RTVSPropertyOp37
 70
     0
102
RTVSPropertyOp38
 70
     0
102
RTVSPropertyOp39
 70
     0
102
RTVSPropertyOp40
 70
     0
102
RTVSPropertyOp41
 70
     0
102
RTVSPropertyOp42
 70
     0
102
RTVSPropertyOp43
 70
     0
102
RTVSPropertyOp44
 70
     0
102
RTVSPropertyOp45
 70
     0
102
RTVSPropertyOp46
 70
     0
102
RTVSPropertyOp47
 70
     0
102
RTVSPropertyOp48
 70
     0
102
RTVSPropertyOp49
 70
     0
102
RTVSPropertyOp50
 70
     0
102
RTVSPropertyOp51
 70
     0
102
RTVSPropertyOp52
 70
     0
102
RTVSPropertyOp53
 70
     0
102
RTVSPropertyOp54
 70
     0
102
RTVSPropertyOp55
 70
     0
102
RTVSPropertyOp56
 70
     0
102
RTVSPropertyOp57
 70
     0
102
RTVSPost2010Prop28
280
     0
102
RTVSPost2010PropOp28
 70
     0
102
RTVSPost2010Prop29
280
     1
102
RTVSPost2010PropOp29
 70
     0
102
RTVSPost2010Prop30
280
     1
102
RTVSPost2010PropOp30
 70
     0
102
RTVSPost2010Prop31
280
     0
102
RTVSPost2010PropOp31
 70
     0
102
RTVSPost2010Prop32
280
     0
102
RTVSPost2010PropOp32
 70
     0
102
RTVSPost2010Prop33
280
     0
102
RTVSPost2010PropOp33
 70
     0
102
RTVSPost2010Prop34
280
     0
102
RTVSPost2010PropOp34
 70
     0
102
RTVSPost2010Prop35
280
     0
102
RTVSPost2010PropOp35
 70
     0
102
RTVSPost2010Prop36
280
     0
102
RTVSPost2010PropOp36
 70
     0
102
RTVSPost2010Prop37
 90
       50
102
RTVSPost2010PropOp37
 70
     0
102
RTVSPost2010Prop38
140
0.0
102
RTVSPost2010PropOp38
 70
     0
102
RTVSPost2010Prop39
140
1.0
102
RTVSPost2010PropOp39
 70
     0
102
RTVSPost2010Prop40
 90
        0
102
RTVSPost2010PropOp40
 70
     0
102
RTVSPost2010Prop41ColorIndex
 90
       18
102
RTVSPost2010Prop41ColorRGB
 90
        0
102
RTVSPost2010PropOp41
 70
     0
102
RTVSPost2010Prop42
 90
       50
102
RTVSPost2010PropOp42
 70
     0
102
RTVSPost2010Prop43
 90
        3
102
RTVSPost2010PropOp43
 70
     0
102
RTVSPost2010Prop44ColorIndex
 90
        5
102
RTVSPost2010Prop44ColorRGB
 90
      255
102
RTVSPost2010PropOp44
 70
     0
102
RTVSPost2010Prop45
280
     0
102
RTVSPost2010PropOp45
 70
     0
102
RTVSPost2010Prop46
 90
       50
102
RTVSPost2010PropOp46
 70
     0
102
RTVSPost2010Prop47
 90
       50
102
RTVSPost2010PropOp47
 70
     0
102
RTVSPost2010Prop48
 90
       50
102
RTVSPost2010PropOp48
 70
     0
102
RTVSPost2010Prop49
280
     0
102
RTVSPost2010PropOp49
 70
     0
102
RTVSPost2010Prop50
 90
       50
102
RTVSPost2010PropOp50
 70
     0
102
RTVSPost2010Prop51ColorIndex
 90
      256
102
RTVSPost2010Prop51ColorRGB
 90
-16777216
102
RTVSPost2010PropOp51
 70
     0
102
RTVSPost2010Prop52
140
1.0
102
RTVSPost2010PropOp52
 70
     0
102
RTVSPost2010Prop53
 90
        2
102
RTVSPost2010PropOp53
 70
     0
102
RTVSPost2010Prop54
  1
strokes_ogs.tif
102
RTVSPost2010PropOp54
 70
     0
102
RTVSPost2010Prop55
280
     0
102
RTVSPost2010PropOp55
 70
     0
102
RTVSPost2010Prop56
140
1.0
102
RTVSPost2010PropOp56
 70
     0
102
RTVSPost2010Prop57
140
1.0
102
RTVSPost2010PropOp57
 70
     0
  0
XRECORD
  5
9D
102
{ACAD_REACTORS
330
9C
102
}
330
9C
100
AcDbXrecord
280
     1
102
RTVSPropertyOp0
 70
     1
102
RTVSPropertyOp1
 70
     1
102
RTVSPropertyOp2
 70
     1
102
RTVSPropertyOp3
 70
     1
102
RTVSPropertyOp4
 70
     1
102
RTVSPropertyOp5
 70
     1
102
RTVSPropertyOp6
 70
     1
102
RTVSPropertyOp7
 70
     1
102
RTVSPropertyOp8
 70
     1
102
RTVSPropertyOp9
 70
     1
102
RTVSPropertyOp10
 70
     1
102
RTVSPropertyOp11
 70
     1
102
RTVSPropertyOp12
 70
     1
102
RTVSPropertyOp13
 70
     1
102
RTVSPropertyOp14
 70
     1
102
RTVSPropertyOp15
 70
     1
102
RTVSPropertyOp16
 70
     1
102
RTVSPropertyOp17
 70
     1
102
RTVSPropertyOp18
 70
     1
102
RTVSPropertyOp19
 70
     1
102
RTVSPropertyOp20
 70
     1
102
RTVSPropertyOp21
 70
     1
102
RTVSPropertyOp22
 70
     1
102
RTVSPropertyOp23
 70
     1
102
RTVSPropertyOp24
 70
     1
102
RTVSPropertyOp25
 70
     1
102
RTVSPropertyOp26
 70
     1
102
RTVSPropertyOp27
 70
     1
102
RTVSPropertyOp28
 70
     1
102
RTVSPropertyOp29
 70
     1
102
RTVSPropertyOp30
 70
     1
102
RTVSPropertyOp31
 70
     1
102
RTVSPropertyOp32
 70
     1
102
RTVSPropertyOp33
 70
     1
102
RTVSPropertyOp34
 70
     1
102
RTVSPropertyOp35
 70
     1
102
RTVSPropertyOp36
 70
     1
102
RTVSPropertyOp37
 70
     1
102
RTVSPropertyOp38
 70
     1
102
RTVSPropertyOp39
 70
     1
102
RTVSPropertyOp40
 70
     1
102
RTVSPropertyOp41
 70
     1
102
RTVSPropertyOp42
 70
     1
102
RTVSPropertyOp43
 70
     1
102
RTVSPropertyOp44
 70
     1
102
RTVSPropertyOp45
 70
     1
102
RTVSPropertyOp46
 70
     1
102
RTVSPropertyOp47
 70
     1
102
RTVSPropertyOp48
 70
     1
102
RTVSPropertyOp49
 70
     1
102
RTVSPropertyOp50
 70
     1
102
RTVSPropertyOp51
 70
     0
102
RTVSPropertyOp52
 70
     0
102
RTVSPropertyOp53
 70
     1
102
RTVSPropertyOp54
 70
     1
102
RTVSPropertyOp55
 70
     1
102
RTVSPropertyOp56
 70
     1
102
RTVSPropertyOp57
 70
     1
102
RTVSPost2010Prop28
280
     0
102
RTVSPost2010PropOp28
 70
     1
102
RTVSPost2010Prop29
280
     1
102
RTVSPost2010PropOp29
 70
     1
102
RTVSPost2010Prop30
280
     1
102
RTVSPost2010PropOp30
 70
     1
102
RTVSPost2010Prop31
280
     0
102
RTVSPost2010PropOp31
 70
     1
102
RTVSPost2010Prop32
280
     0
102
RTVSPost2010PropOp32
 70
     1
102
RTVSPost2010Prop33
280
     0
102
RTVSPost2010PropOp33
 70
     1
102
RTVSPost2010Prop34
280
     0
102
RTVSPost2010PropOp34
 70
     1
102
RTVSPost2010Prop35
280
     0
102
RTVSPost2010PropOp35
 70
     1
102
RTVSPost2010Prop36
280
     0
102
RTVSPost2010PropOp36
 70
     1
102
RTVSPost2010Prop37
 90
       50
102
RTVSPost2010PropOp37
 70
     1
102
RTVSPost2010Prop38
140
0.0
102
RTVSPost2010PropOp38
 70
     1
102
RTVSPost2010Prop39
140
1.0
102
RTVSPost2010PropOp39
 70
     1
102
RTVSPost2010Prop40
 90
        0
102
RTVSPost2010PropOp40
 70
     1
102
RTVSPost2010Prop41ColorIndex
 90
       18
102
RTVSPost2010Prop41ColorRGB
 90
        0
102
RTVSPost2010PropOp41
 70
     1
102
RTVSPost2010Prop42
 90
       50
102
RTVSPost2010PropOp42
 70
     1
102
RTVSPost2010Prop43
 90
        3
102
RTVSPost2010PropOp43
 70
     1
102
RTVSPost2010Prop44ColorIndex
 90
        5
102
RTVSPost2010Prop44ColorRGB
 90
      255
102
RTVSPost2010PropOp44
 70
     1
102
RTVSPost2010Prop45
280
     0
102
RTVSPost2010PropOp45
 70
     1
102
RTVSPost2010Prop46
 90
       50
102
RTVSPost2010PropOp46
 70
     1
102
RTVSPost2010Prop47
 90
       50
102
RTVSPost2010PropOp47
 70
     1
102
RTVSPost2010Prop48
 90
       50
102
RTVSPost2010PropOp48
 70
     1
102
RTVSPost2010Prop49
280
     0
102
RTVSPost2010PropOp49
 70
     1
102
RTVSPost2010Prop50
 90
       50
102
RTVSPost2010PropOp50
 70
     1
102
RTVSPost2010Prop51ColorIndex
 90
      256
102
RTVSPost2010Prop51ColorRGB
 90
-16777216
102
RTVSPost2010PropOp51
 70
     0
102
RTVSPost2010Prop52
140
1.0
102
RTVSPost2010PropOp52
 70
     0
102
RTVSPost2010Prop53
 90
        2
102
RTVSPost2010PropOp53
 70
     1
102
RTVSPost2010Prop54
  1
strokes_ogs.tif
102
RTVSPost2010PropOp54
 70
     1
102
RTVSPost2010Prop55
280
     0
102
RTVSPost2010PropOp55
 70
     1
102
RTVSPost2010Prop56
140
1.0
102
RTVSPost2010PropOp56
 70
     1
102
RTVSPost2010Prop57
140
1.0
102
RTVSPost2010PropOp57
 70
     1
  0
XRECORD
  5
81
102
{ACAD_REACTORS
330
80
102
}
330
80
100
AcDbXrecord
280
     1
102
RTVSPropertyOp0
 70
     1
102
RTVSPropertyOp1
 70
     1
102
RTVSPropertyOp2
 70
     1
102
RTVSPropertyOp3
 70
     1
102
RTVSPropertyOp4
 70
     1
102
RTVSPropertyOp5
 70
     1
102
RTVSPropertyOp6
 70
     1
102
RTVSPropertyOp7
 70
     1
102
RTVSPropertyOp8
 70
     1
102
RTVSPropertyOp9
 70
     1
102
RTVSPropertyOp10
 70
     1
102
RTVSPropertyOp11
 70
     1
102
RTVSPropertyOp12
 70
     1
102
RTVSPropertyOp13
 70
     1
102
RTVSPropertyOp14
 70
     1
102
RTVSPropertyOp15
 70
     1
102
RTVSPropertyOp16
 70
     1
102
RTVSPropertyOp17
 70
     1
102
RTVSPropertyOp18
 70
     1
102
RTVSPropertyOp19
 70
     1
102
RTVSPropertyOp20
 70
     1
102
RTVSPropertyOp21
 70
     1
102
RTVSPropertyOp22
 70
     1
102
RTVSPropertyOp23
 70
     1
102
RTVSPropertyOp24
 70
     1
102
RTVSPropertyOp25
 70
     1
102
RTVSPropertyOp26
 70
     1
102
RTVSPropertyOp27
 70
     1
102
RTVSPropertyOp28
 70
     1
102
RTVSPropertyOp29
 70
     1
102
RTVSPropertyOp30
 70
     1
102
RTVSPropertyOp31
 70
     1
102
RTVSPropertyOp32
 70
     1
102
RTVSPropertyOp33
 70
     1
102
RTVSPropertyOp34
 70
     1
102
RTVSPropertyOp35
 70
     1
102
RTVSPropertyOp36
 70
     1
102
RTVSPropertyOp37
 70
     1
102
RTVSPropertyOp38
 70
     1
102
RTVSPropertyOp39
 70
     1
102
RTVSPropertyOp40
 70
     1
102
RTVSPropertyOp41
 70
     1
102
RTVSPropertyOp42
 70
     1
102
RTVSPropertyOp43
 70
     1
102
RTVSPropertyOp44
 70
     1
102
RTVSPropertyOp45
 70
     1
102
RTVSPropertyOp46
 70
     1
102
RTVSPropertyOp47
 70
     1
102
RTVSPropertyOp48
 70
     1
102
RTVSPropertyOp49
 70
     1
102
RTVSPropertyOp50
 70
     1
102
RTVSPropertyOp51
 70
     0
102
RTVSPropertyOp52
 70
     0
102
RTVSPropertyOp53
 70
     1
102
RTVSPropertyOp54
 70
     1
102
RTVSPropertyOp55
 70
     1
102
RTVSPropertyOp56
 70
     1
102
RTVSPropertyOp57
 70
     1
102
RTVSPost2010Prop28
280
     0
102
RTVSPost2010PropOp28
 70
     1
102
RTVSPost2010Prop29
280
     1
102
RTVSPost2010PropOp29
 70
     1
102
RTVSPost2010Prop30
280
     1
102
RTVSPost2010PropOp30
 70
     1
102
RTVSPost2010Prop31
280
     0
102
RTVSPost2010PropOp31
 70
     1
102
RTVSPost2010Prop32
280
     0
102
RTVSPost2010PropOp32
 70
     1
102
RTVSPost2010Prop33
280
     0
102
RTVSPost2010PropOp33
 70
     1
102
RTVSPost2010Prop34
280
     0
102
RTVSPost2010PropOp34
 70
     1
102
RTVSPost2010Prop35
280
     0
102
RTVSPost2010PropOp35
 70
     1
102
RTVSPost2010Prop36
280
     0
102
RTVSPost2010PropOp36
 70
     1
102
RTVSPost2010Prop37
 90
       50
102
RTVSPost2010PropOp37
 70
     1
102
RTVSPost2010Prop38
140
0.0
102
RTVSPost2010PropOp38
 70
     1
102
RTVSPost2010Prop39
140
1.0
102
RTVSPost2010PropOp39
 70
     1
102
RTVSPost2010Prop40
 90
        0
102
RTVSPost2010PropOp40
 70
     1
102
RTVSPost2010Prop41ColorIndex
 90
       18
102
RTVSPost2010Prop41ColorRGB
 90
        0
102
RTVSPost2010PropOp41
 70
     1
102
RTVSPost2010Prop42
 90
       50
102
RTVSPost2010PropOp42
 70
     1
102
RTVSPost2010Prop43
 90
        3
102
RTVSPost2010PropOp43
 70
     1
102
RTVSPost2010Prop44ColorIndex
 90
        5
102
RTVSPost2010Prop44ColorRGB
 90
      255
102
RTVSPost2010PropOp44
 70
     1
102
RTVSPost2010Prop45
280
     0
102
RTVSPost2010PropOp45
 70
     1
102
RTVSPost2010Prop46
 90
       50
102
RTVSPost2010PropOp46
 70
     1
102
RTVSPost2010Prop47
 90
       50
102
RTVSPost2010PropOp47
 70
     1
102
RTVSPost2010Prop48
 90
       50
102
RTVSPost2010PropOp48
 70
     1
102
RTVSPost2010Prop49
280
     0
102
RTVSPost2010PropOp49
 70
     1
102
RTVSPost2010Prop50
 90
       50
102
RTVSPost2010PropOp50
 70
     1
102
RTVSPost2010Prop51ColorIndex
 90
      256
102
RTVSPost2010Prop51ColorRGB
 90
-16777216
102
RTVSPost2010PropOp51
 70
     0
102
RTVSPost2010Prop52
140
1.0
102
RTVSPost2010PropOp52
 70
     0
102
RTVSPost2010Prop53
 90
        2
102
RTVSPost2010PropOp53
 70
     1
102
RTVSPost2010Prop54
  1
strokes_ogs.tif
102
RTVSPost2010PropOp54
 70
     1
102
RTVSPost2010Prop55
280
     0
102
RTVSPost2010PropOp55
 70
     1
102
RTVSPost2010Prop56
140
1.0
102
RTVSPost2010PropOp56
 70
     1
102
RTVSPost2010Prop57
140
1.0
102
RTVSPost2010PropOp57
 70
     1
  0
XRECORD
  5
83
102
{ACAD_REACTORS
330
82
102
}
330
82
100
AcDbXrecord
280
     1
102
RTVSPropertyOp0
 70
     1
102
RTVSPropertyOp1
 70
     1
102
RTVSPropertyOp2
 70
     1
102
RTVSPropertyOp3
 70
     1
102
RTVSPropertyOp4
 70
     1
102
RTVSPropertyOp5
 70
     1
102
RTVSPropertyOp6
 70
     1
102
RTVSPropertyOp7
 70
     1
102
RTVSPropertyOp8
 70
     1
102
RTVSPropertyOp9
 70
     1
102
RTVSPropertyOp10
 70
     1
102
RTVSPropertyOp11
 70
     1
102
RTVSPropertyOp12
 70
     1
102
RTVSPropertyOp13
 70
     1
102
RTVSPropertyOp14
 70
     1
102
RTVSPropertyOp15
 70
     1
102
RTVSPropertyOp16
 70
     1
102
RTVSPropertyOp17
 70
     1
102
RTVSPropertyOp18
 70
     1
102
RTVSPropertyOp19
 70
     1
102
RTVSPropertyOp20
 70
     1
102
RTVSPropertyOp21
 70
     1
102
RTVSPropertyOp22
 70
     1
102
RTVSPropertyOp23
 70
     1
102
RTVSPropertyOp24
 70
     1
102
RTVSPropertyOp25
 70
     1
102
RTVSPropertyOp26
 70
     1
102
RTVSPropertyOp27
 70
     1
102
RTVSPropertyOp28
 70
     1
102
RTVSPropertyOp29
 70
     1
102
RTVSPropertyOp30
 70
     1
102
RTVSPropertyOp31
 70
     1
102
RTVSPropertyOp32
 70
     1
102
RTVSPropertyOp33
 70
     1
102
RTVSPropertyOp34
 70
     1
102
RTVSPropertyOp35
 70
     1
102
RTVSPropertyOp36
 70
     1
102
RTVSPropertyOp37
 70
     1
102
RTVSPropertyOp38
 70
     1
102
RTVSPropertyOp39
 70
     1
102
RTVSPropertyOp40
 70
     1
102
RTVSPropertyOp41
 70
     1
102
RTVSPropertyOp42
 70
     1
102
RTVSPropertyOp43
 70
     1
102
RTVSPropertyOp44
 70
     1
102
RTVSPropertyOp45
 70
     1
102
RTVSPropertyOp46
 70
     1
102
RTVSPropertyOp47
 70
     1
102
RTVSPropertyOp48
 70
     1
102
RTVSPropertyOp49
 70
     1
102
RTVSPropertyOp50
 70
     1
102
RTVSPropertyOp51
 70
     0
102
RTVSPropertyOp52
 70
     0
102
RTVSPropertyOp53
 70
     1
102
RTVSPropertyOp54
 70
     1
102
RTVSPropertyOp55
 70
     1
102
RTVSPropertyOp56
 70
     1
102
RTVSPropertyOp57
 70
     1
102
RTVSPost2010Prop28
280
     0
102
RTVSPost2010PropOp28
 70
     1
102
RTVSPost2010Prop29
280
     1
102
RTVSPost2010PropOp29
 70
     1
102
RTVSPost2010Prop30
280
     1
102
RTVSPost2010PropOp30
 70
     1
102
RTVSPost2010Prop31
280
     0
102
RTVSPost2010PropOp31
 70
     1
102
RTVSPost2010Prop32
280
     0
102
RTVSPost2010PropOp32
 70
     1
102
RTVSPost2010Prop33
280
     0
102
RTVSPost2010PropOp33
 70
     1
102
RTVSPost2010Prop34
280
     0
102
RTVSPost2010PropOp34
 70
     1
102
RTVSPost2010Prop35
280
     0
102
RTVSPost2010PropOp35
 70
     1
102
RTVSPost2010Prop36
280
     0
102
RTVSPost2010PropOp36
 70
     1
102
RTVSPost2010Prop37
 90
       50
102
RTVSPost2010PropOp37
 70
     1
102
RTVSPost2010Prop38
140
0.0
102
RTVSPost2010PropOp38
 70
     1
102
RTVSPost2010Prop39
140
1.0
102
RTVSPost2010PropOp39
 70
     1
102
RTVSPost2010Prop40
 90
        0
102
RTVSPost2010PropOp40
 70
     1
102
RTVSPost2010Prop41ColorIndex
 90
       18
102
RTVSPost2010Prop41ColorRGB
 90
        0
102
RTVSPost2010PropOp41
 70
     1
102
RTVSPost2010Prop42
 90
       50
102
RTVSPost2010PropOp42
 70
     1
102
RTVSPost2010Prop43
 90
        3
102
RTVSPost2010PropOp43
 70
     1
102
RTVSPost2010Prop44ColorIndex
 90
        5
102
RTVSPost2010Prop44ColorRGB
 90
      255
102
RTVSPost2010PropOp44
 70
     1
102
RTVSPost2010Prop45
280
     0
102
RTVSPost2010PropOp45
 70
     1
102
RTVSPost2010Prop46
 90
       50
102
RTVSPost2010PropOp46
 70
     1
102
RTVSPost2010Prop47
 90
       50
102
RTVSPost2010PropOp47
 70
     1
102
RTVSPost2010Prop48
 90
       50
102
RTVSPost2010PropOp48
 70
     1
102
RTVSPost2010Prop49
280
     0
102
RTVSPost2010PropOp49
 70
     1
102
RTVSPost2010Prop50
 90
       50
102
RTVSPost2010PropOp50
 70
     1
102
RTVSPost2010Prop51ColorIndex
 90
      256
102
RTVSPost2010Prop51ColorRGB
 90
-16777216
102
RTVSPost2010PropOp51
 70
     0
102
RTVSPost2010Prop52
140
1.0
102
RTVSPost2010PropOp52
 70
     0
102
RTVSPost2010Prop53
 90
        2
102
RTVSPost2010PropOp53
 70
     1
102
RTVSPost2010Prop54
  1
strokes_ogs.tif
102
RTVSPost2010PropOp54
 70
     1
102
RTVSPost2010Prop55
280
     0
102
RTVSPost2010PropOp55
 70
     1
102
RTVSPost2010Prop56
140
1.0
102
RTVSPost2010PropOp56
 70
     1
102
RTVSPost2010Prop57
140
1.0
102
RTVSPost2010PropOp57
 70
     1
  0
XRECORD
  5
85
102
{ACAD_REACTORS
330
84
102
}
330
84
100
AcDbXrecord
280
     1
102
RTVSPropertyOp0
 70
     1
102
RTVSPropertyOp1
 70
     1
102
RTVSPropertyOp2
 70
     1
102
RTVSPropertyOp3
 70
     1
102
RTVSPropertyOp4
 70
     1
102
RTVSPropertyOp5
 70
     1
102
RTVSPropertyOp6
 70
     1
102
RTVSPropertyOp7
 70
     1
102
RTVSPropertyOp8
 70
     1
102
RTVSPropertyOp9
 70
     1
102
RTVSPropertyOp10
 70
     1
102
RTVSPropertyOp11
 70
     1
102
RTVSPropertyOp12
 70
     1
102
RTVSPropertyOp13
 70
     1
102
RTVSPropertyOp14
 70
     1
102
RTVSPropertyOp15
 70
     1
102
RTVSPropertyOp16
 70
     1
102
RTVSPropertyOp17
 70
     1
102
RTVSPropertyOp18
 70
     1
102
RTVSPropertyOp19
 70
     1
102
RTVSPropertyOp20
 70
     1
102
RTVSPropertyOp21
 70
     1
102
RTVSPropertyOp22
 70
     1
102
RTVSPropertyOp23
 70
     1
102
RTVSPropertyOp24
 70
     1
102
RTVSPropertyOp25
 70
     1
102
RTVSPropertyOp26
 70
     1
102
RTVSPropertyOp27
 70
     1
102
RTVSPropertyOp28
 70
     1
102
RTVSPropertyOp29
 70
     1
102
RTVSPropertyOp30
 70
     1
102
RTVSPropertyOp31
 70
     1
102
RTVSPropertyOp32
 70
     1
102
RTVSPropertyOp33
 70
     1
102
RTVSPropertyOp34
 70
     1
102
RTVSPropertyOp35
 70
     1
102
RTVSPropertyOp36
 70
     1
102
RTVSPropertyOp37
 70
     1
102
RTVSPropertyOp38
 70
     1
102
RTVSPropertyOp39
 70
     1
102
RTVSPropertyOp40
 70
     1
102
RTVSPropertyOp41
 70
     1
102
RTVSPropertyOp42
 70
     1
102
RTVSPropertyOp43
 70
     1
102
RTVSPropertyOp44
 70
     1
102
RTVSPropertyOp45
 70
     1
102
RTVSPropertyOp46
 70
     1
102
RTVSPropertyOp47
 70
     1
102
RTVSPropertyOp48
 70
     1
102
RTVSPropertyOp49
 70
     1
102
RTVSPropertyOp50
 70
     1
102
RTVSPropertyOp51
 70
     0
102
RTVSPropertyOp52
 70
     0
102
RTVSPropertyOp53
 70
     1
102
RTVSPropertyOp54
 70
     1
102
RTVSPropertyOp55
 70
     1
102
RTVSPropertyOp56
 70
     1
102
RTVSPropertyOp57
 70
     1
102
RTVSPost2010Prop28
280
     0
102
RTVSPost2010PropOp28
 70
     1
102
RTVSPost2010Prop29
280
     1
102
RTVSPost2010PropOp29
 70
     1
102
RTVSPost2010Prop30
280
     1
102
RTVSPost2010PropOp30
 70
     1
102
RTVSPost2010Prop31
280
     0
102
RTVSPost2010PropOp31
 70
     1
102
RTVSPost2010Prop32
280
     0
102
RTVSPost2010PropOp32
 70
     1
102
RTVSPost2010Prop33
280
     0
102
RTVSPost2010PropOp33
 70
     1
102
RTVSPost2010Prop34
280
     0
102
RTVSPost2010PropOp34
 70
     1
102
RTVSPost2010Prop35
280
     0
102
RTVSPost2010PropOp35
 70
     1
102
RTVSPost2010Prop36
280
     0
102
RTVSPost2010PropOp36
 70
     1
102
RTVSPost2010Prop37
 90
       50
102
RTVSPost2010PropOp37
 70
     1
102
RTVSPost2010Prop38
140
0.0
102
RTVSPost2010PropOp38
 70
     1
102
RTVSPost2010Prop39
140
1.0
102
RTVSPost2010PropOp39
 70
     1
102
RTVSPost2010Prop40
 90
        0
102
RTVSPost2010PropOp40
 70
     1
102
RTVSPost2010Prop41ColorIndex
 90
       18
102
RTVSPost2010Prop41ColorRGB
 90
        0
102
RTVSPost2010PropOp41
 70
     1
102
RTVSPost2010Prop42
 90
       50
102
RTVSPost2010PropOp42
 70
     1
102
RTVSPost2010Prop43
 90
        3
102
RTVSPost2010PropOp43
 70
     1
102
RTVSPost2010Prop44ColorIndex
 90
        5
102
RTVSPost2010Prop44ColorRGB
 90
      255
102
RTVSPost2010PropOp44
 70
     1
102
RTVSPost2010Prop45
280
     0
102
RTVSPost2010PropOp45
 70
     1
102
RTVSPost2010Prop46
 90
       50
102
RTVSPost2010PropOp46
 70
     1
102
RTVSPost2010Prop47
 90
       50
102
RTVSPost2010PropOp47
 70
     1
102
RTVSPost2010Prop48
 90
       50
102
RTVSPost2010PropOp48
 70
     1
102
RTVSPost2010Prop49
280
     0
102
RTVSPost2010PropOp49
 70
     1
102
RTVSPost2010Prop50
 90
       50
102
RTVSPost2010PropOp50
 70
     1
102
RTVSPost2010Prop51ColorIndex
 90
      256
102
RTVSPost2010Prop51ColorRGB
 90
-16777216
102
RTVSPost2010PropOp51
 70
     0
102
RTVSPost2010Prop52
140
1.0
102
RTVSPost2010PropOp52
 70
     0
102
RTVSPost2010Prop53
 90
        2
102
RTVSPost2010PropOp53
 70
     1
102
RTVSPost2010Prop54
  1
strokes_ogs.tif
102
RTVSPost2010PropOp54
 70
     1
102
RTVSPost2010Prop55
280
     0
102
RTVSPost2010PropOp55
 70
     1
102
RTVSPost2010Prop56
140
1.0
102
RTVSPost2010PropOp56
 70
     1
102
RTVSPost2010Prop57
140
1.0
102
RTVSPost2010PropOp57
 70
     1
  0
XRECORD
  5
87
102
{ACAD_REACTORS
330
86
102
}
330
86
100
AcDbXrecord
280
     1
102
RTVSPropertyOp0
 70
     1
102
RTVSPropertyOp1
 70
     1
102
RTVSPropertyOp2
 70
     1
102
RTVSPropertyOp3
 70
     1
102
RTVSPropertyOp4
 70
     1
102
RTVSPropertyOp5
 70
     1
102
RTVSPropertyOp6
 70
     1
102
RTVSPropertyOp7
 70
     1
102
RTVSPropertyOp8
 70
     1
102
RTVSPropertyOp9
 70
     1
102
RTVSPropertyOp10
 70
     1
102
RTVSPropertyOp11
 70
     1
102
RTVSPropertyOp12
 70
     1
102
RTVSPropertyOp13
 70
     1
102
RTVSPropertyOp14
 70
     1
102
RTVSPropertyOp15
 70
     1
102
RTVSPropertyOp16
 70
     1
102
RTVSPropertyOp17
 70
     1
102
RTVSPropertyOp18
 70
     1
102
RTVSPropertyOp19
 70
     1
102
RTVSPropertyOp20
 70
     1
102
RTVSPropertyOp21
 70
     1
102
RTVSPropertyOp22
 70
     1
102
RTVSPropertyOp23
 70
     1
102
RTVSPropertyOp24
 70
     1
102
RTVSPropertyOp25
 70
     1
102
RTVSPropertyOp26
 70
     1
102
RTVSPropertyOp27
 70
     1
102
RTVSPropertyOp28
 70
     1
102
RTVSPropertyOp29
 70
     1
102
RTVSPropertyOp30
 70
     1
102
RTVSPropertyOp31
 70
     1
102
RTVSPropertyOp32
 70
     1
102
RTVSPropertyOp33
 70
     1
102
RTVSPropertyOp34
 70
     1
102
RTVSPropertyOp35
 70
     1
102
RTVSPropertyOp36
 70
     1
102
RTVSPropertyOp37
 70
     1
102
RTVSPropertyOp38
 70
     1
102
RTVSPropertyOp39
 70
     1
102
RTVSPropertyOp40
 70
     1
102
RTVSPropertyOp41
 70
     1
102
RTVSPropertyOp42
 70
     1
102
RTVSPropertyOp43
 70
     1
102
RTVSPropertyOp44
 70
     1
102
RTVSPropertyOp45
 70
     1
102
RTVSPropertyOp46
 70
     1
102
RTVSPropertyOp47
 70
     1
102
RTVSPropertyOp48
 70
     1
102
RTVSPropertyOp49
 70
     1
102
RTVSPropertyOp50
 70
     1
102
RTVSPropertyOp51
 70
     0
102
RTVSPropertyOp52
 70
     0
102
RTVSPropertyOp53
 70
     1
102
RTVSPropertyOp54
 70
     1
102
RTVSPropertyOp55
 70
     1
102
RTVSPropertyOp56
 70
     1
102
RTVSPropertyOp57
 70
     1
102
RTVSPost2010Prop28
280
     0
102
RTVSPost2010PropOp28
 70
     1
102
RTVSPost2010Prop29
280
     1
102
RTVSPost2010PropOp29
 70
     1
102
RTVSPost2010Prop30
280
     1
102
RTVSPost2010PropOp30
 70
     1
102
RTVSPost2010Prop31
280
     0
102
RTVSPost2010PropOp31
 70
     1
102
RTVSPost2010Prop32
280
     0
102
RTVSPost2010PropOp32
 70
     1
102
RTVSPost2010Prop33
280
     0
102
RTVSPost2010PropOp33
 70
     1
102
RTVSPost2010Prop34
280
     0
102
RTVSPost2010PropOp34
 70
     1
102
RTVSPost2010Prop35
280
     0
102
RTVSPost2010PropOp35
 70
     1
102
RTVSPost2010Prop36
280
     0
102
RTVSPost2010PropOp36
 70
     1
102
RTVSPost2010Prop37
 90
       50
102
RTVSPost2010PropOp37
 70
     1
102
RTVSPost2010Prop38
140
0.0
102
RTVSPost2010PropOp38
 70
     1
102
RTVSPost2010Prop39
140
1.0
102
RTVSPost2010PropOp39
 70
     1
102
RTVSPost2010Prop40
 90
        0
102
RTVSPost2010PropOp40
 70
     1
102
RTVSPost2010Prop41ColorIndex
 90
       18
102
RTVSPost2010Prop41ColorRGB
 90
        0
102
RTVSPost2010PropOp41
 70
     1
102
RTVSPost2010Prop42
 90
       50
102
RTVSPost2010PropOp42
 70
     1
102
RTVSPost2010Prop43
 90
        3
102
RTVSPost2010PropOp43
 70
     1
102
RTVSPost2010Prop44ColorIndex
 90
        5
102
RTVSPost2010Prop44ColorRGB
 90
      255
102
RTVSPost2010PropOp44
 70
     1
102
RTVSPost2010Prop45
280
     0
102
RTVSPost2010PropOp45
 70
     1
102
RTVSPost2010Prop46
 90
       50
102
RTVSPost2010PropOp46
 70
     1
102
RTVSPost2010Prop47
 90
       50
102
RTVSPost2010PropOp47
 70
     1
102
RTVSPost2010Prop48
 90
       50
102
RTVSPost2010PropOp48
 70
     1
102
RTVSPost2010Prop49
280
     0
102
RTVSPost2010PropOp49
 70
     1
102
RTVSPost2010Prop50
 90
       50
102
RTVSPost2010PropOp50
 70
     1
102
RTVSPost2010Prop51ColorIndex
 90
      256
102
RTVSPost2010Prop51ColorRGB
 90
-16777216
102
RTVSPost2010PropOp51
 70
     0
102
RTVSPost2010Prop52
140
1.0
102
RTVSPost2010PropOp52
 70
     0
102
RTVSPost2010Prop53
 90
        2
102
RTVSPost2010PropOp53
 70
     1
102
RTVSPost2010Prop54
  1
strokes_ogs.tif
102
RTVSPost2010PropOp54
 70
     1
102
RTVSPost2010Prop55
280
     0
102
RTVSPost2010PropOp55
 70
     1
102
RTVSPost2010Prop56
140
1.0
102
RTVSPost2010PropOp56
 70
     1
102
RTVSPost2010Prop57
140
1.0
102
RTVSPost2010PropOp57
 70
     1
  0
XRECORD
  5
8D
102
{ACAD_REACTORS
330
8C
102
}
330
8C
100
AcDbXrecord
280
     1
102
RTVSPropertyOp0
 70
     1
102
RTVSPropertyOp1
 70
     1
102
RTVSPropertyOp2
 70
     1
102
RTVSPropertyOp3
 70
     1
102
RTVSPropertyOp4
 70
     1
102
RTVSPropertyOp5
 70
     1
102
RTVSPropertyOp6
 70
     1
102
RTVSPropertyOp7
 70
     1
102
RTVSPropertyOp8
 70
     1
102
RTVSPropertyOp9
 70
     1
102
RTVSPropertyOp10
 70
     1
102
RTVSPropertyOp11
 70
     1
102
RTVSPropertyOp12
 70
     1
102
RTVSPropertyOp13
 70
     1
102
RTVSPropertyOp14
 70
     1
102
RTVSPropertyOp15
 70
     1
102
RTVSPropertyOp16
 70
     1
102
RTVSPropertyOp17
 70
     1
102
RTVSPropertyOp18
 70
     1
102
RTVSPropertyOp19
 70
     1
102
RTVSPropertyOp20
 70
     1
102
RTVSPropertyOp21
 70
     1
102
RTVSPropertyOp22
 70
     1
102
RTVSPropertyOp23
 70
     1
102
RTVSPropertyOp24
 70
     1
102
RTVSPropertyOp25
 70
     1
102
RTVSPropertyOp26
 70
     1
102
RTVSPropertyOp27
 70
     1
102
RTVSPropertyOp28
 70
     1
102
RTVSPropertyOp29
 70
     1
102
RTVSPropertyOp30
 70
     1
102
RTVSPropertyOp31
 70
     1
102
RTVSPropertyOp32
 70
     1
102
RTVSPropertyOp33
 70
     1
102
RTVSPropertyOp34
 70
     1
102
RTVSPropertyOp35
 70
     1
102
RTVSPropertyOp36
 70
     1
102
RTVSPropertyOp37
 70
     1
102
RTVSPropertyOp38
 70
     1
102
RTVSPropertyOp39
 70
     1
102
RTVSPropertyOp40
 70
     1
102
RTVSPropertyOp41
 70
     1
102
RTVSPropertyOp42
 70
     1
102
RTVSPropertyOp43
 70
     1
102
RTVSPropertyOp44
 70
     1
102
RTVSPropertyOp45
 70
     1
102
RTVSPropertyOp46
 70
     1
102
RTVSPropertyOp47
 70
     1
102
RTVSPropertyOp48
 70
     1
102
RTVSPropertyOp49
 70
     1
102
RTVSPropertyOp50
 70
     1
102
RTVSPropertyOp51
 70
     0
102
RTVSPropertyOp52
 70
     0
102
RTVSPropertyOp53
 70
     1
102
RTVSPropertyOp54
 70
     1
102
RTVSPropertyOp55
 70
     1
102
RTVSPropertyOp56
 70
     1
102
RTVSPropertyOp57
 70
     1
102
RTVSPost2010Prop28
280
     0
102
RTVSPost2010PropOp28
 70
     1
102
RTVSPost2010Prop29
280
     1
102
RTVSPost2010PropOp29
 70
     1
102
RTVSPost2010Prop30
280
     1
102
RTVSPost2010PropOp30
 70
     1
102
RTVSPost2010Prop31
280
     0
102
RTVSPost2010PropOp31
 70
     1
102
RTVSPost2010Prop32
280
     0
102
RTVSPost2010PropOp32
 70
     1
102
RTVSPost2010Prop33
280
     0
102
RTVSPost2010PropOp33
 70
     1
102
RTVSPost2010Prop34
280
     0
102
RTVSPost2010PropOp34
 70
     1
102
RTVSPost2010Prop35
280
     0
102
RTVSPost2010PropOp35
 70
     1
102
RTVSPost2010Prop36
280
     0
102
RTVSPost2010PropOp36
 70
     1
102
RTVSPost2010Prop37
 90
       50
102
RTVSPost2010PropOp37
 70
     1
102
RTVSPost2010Prop38
140
0.0
102
RTVSPost2010PropOp38
 70
     1
102
RTVSPost2010Prop39
140
1.0
102
RTVSPost2010PropOp39
 70
     1
102
RTVSPost2010Prop40
 90
        0
102
RTVSPost2010PropOp40
 70
     1
102
RTVSPost2010Prop41ColorIndex
 90
       18
102
RTVSPost2010Prop41ColorRGB
 90
        0
102
RTVSPost2010PropOp41
 70
     1
102
RTVSPost2010Prop42
 90
       50
102
RTVSPost2010PropOp42
 70
     1
102
RTVSPost2010Prop43
 90
        3
102
RTVSPost2010PropOp43
 70
     1
102
RTVSPost2010Prop44ColorIndex
 90
        5
102
RTVSPost2010Prop44ColorRGB
 90
      255
102
RTVSPost2010PropOp44
 70
     1
102
RTVSPost2010Prop45
280
     0
102
RTVSPost2010PropOp45
 70
     1
102
RTVSPost2010Prop46
 90
       50
102
RTVSPost2010PropOp46
 70
     1
102
RTVSPost2010Prop47
 90
       50
102
RTVSPost2010PropOp47
 70
     1
102
RTVSPost2010Prop48
 90
       50
102
RTVSPost2010PropOp48
 70
     1
102
RTVSPost2010Prop49
280
     0
102
RTVSPost2010PropOp49
 70
     1
102
RTVSPost2010Prop50
 90
       50
102
RTVSPost2010PropOp50
 70
     1
102
RTVSPost2010Prop51ColorIndex
 90
      256
102
RTVSPost2010Prop51ColorRGB
 90
-16777216
102
RTVSPost2010PropOp51
 70
     0
102
RTVSPost2010Prop52
140
1.0
102
RTVSPost2010PropOp52
 70
     0
102
RTVSPost2010Prop53
 90
        2
102
RTVSPost2010PropOp53
 70
     1
102
RTVSPost2010Prop54
  1
strokes_ogs.tif
102
RTVSPost2010PropOp54
 70
     1
102
RTVSPost2010Prop55
280
     0
102
RTVSPost2010PropOp55
 70
     1
102
RTVSPost2010Prop56
140
1.0
102
RTVSPost2010PropOp56
 70
     1
102
RTVSPost2010Prop57
140
1.0
102
RTVSPost2010PropOp57
 70
     1
  0
XRECORD
  5
A1
102
{ACAD_REACTORS
330
A0
102
}
330
A0
100
AcDbXrecord
280
     1
102
RTVSPropertyOp0
 70
     0
102
RTVSPropertyOp1
 70
     0
102
RTVSPropertyOp2
 70
     0
102
RTVSPropertyOp3
 70
     0
102
RTVSPropertyOp4
 70
     0
102
RTVSPropertyOp5
 70
     0
102
RTVSPropertyOp6
 70
     0
102
RTVSPropertyOp7
 70
     0
102
RTVSPropertyOp8
 70
     0
102
RTVSPropertyOp9
 70
     0
102
RTVSPropertyOp10
 70
     0
102
RTVSPropertyOp11
 70
     0
102
RTVSPropertyOp12
 70
     0
102
RTVSPropertyOp13
 70
     0
102
RTVSPropertyOp14
 70
     2
102
RTVSPropertyOp15
 70
     0
102
RTVSPropertyOp16
 70
     0
102
RTVSPropertyOp17
 70
     0
102
RTVSPropertyOp18
 70
     0
102
RTVSPropertyOp19
 70
     0
102
RTVSPropertyOp20
 70
     0
102
RTVSPropertyOp21
 70
     0
102
RTVSPropertyOp22
 70
     0
102
RTVSPropertyOp23
 70
     0
102
RTVSPropertyOp24
 70
     0
102
RTVSPropertyOp25
 70
     0
102
RTVSPropertyOp26
 70
     0
102
RTVSPropertyOp27
 70
     0
102
RTVSPropertyOp28
 70
     0
102
RTVSPropertyOp29
 70
     0
102
RTVSPropertyOp30
 70
     0
102
RTVSPropertyOp31
 70
     0
102
RTVSPropertyOp32
 70
     0
102
RTVSPropertyOp33
 70
     0
102
RTVSPropertyOp34
 70
     0
102
RTVSPropertyOp35
 70
     0
102
RTVSPropertyOp36
 70
     0
102
RTVSPropertyOp37
 70
     0
102
RTVSPropertyOp38
 70
     0
102
RTVSPropertyOp39
 70
     0
102
RTVSPropertyOp40
 70
     0
102
RTVSPropertyOp41
 70
     0
102
RTVSPropertyOp42
 70
     0
102
RTVSPropertyOp43
 70
     0
102
RTVSPropertyOp44
 70
     0
102
RTVSPropertyOp45
 70
     0
102
RTVSPropertyOp46
 70
     0
102
RTVSPropertyOp47
 70
     0
102
RTVSPropertyOp48
 70
     0
102
RTVSPropertyOp49
 70
     0
102
RTVSPropertyOp50
 70
     0
102
RTVSPropertyOp51
 70
     0
102
RTVSPropertyOp52
 70
     0
102
RTVSPropertyOp53
 70
     0
102
RTVSPropertyOp54
 70
     0
102
RTVSPropertyOp55
 70
     0
102
RTVSPropertyOp56
 70
     0
102
RTVSPropertyOp57
 70
     0
102
RTVSPost2010Prop28
280
     0
102
RTVSPost2010PropOp28
 70
     0
102
RTVSPost2010Prop29
280
     1
102
RTVSPost2010PropOp29
 70
     0
102
RTVSPost2010Prop30
280
     1
102
RTVSPost2010PropOp30
 70
     0
102
RTVSPost2010Prop31
280
     0
102
RTVSPost2010PropOp31
 70
     0
102
RTVSPost2010Prop32
280
     0
102
RTVSPost2010PropOp32
 70
     0
102
RTVSPost2010Prop33
280
     0
102
RTVSPost2010PropOp33
 70
     0
102
RTVSPost2010Prop34
280
     0
102
RTVSPost2010PropOp34
 70
     0
102
RTVSPost2010Prop35
280
     0
102
RTVSPost2010PropOp35
 70
     0
102
RTVSPost2010Prop36
280
     0
102
RTVSPost2010PropOp36
 70
     0
102
RTVSPost2010Prop37
 90
       50
102
RTVSPost2010PropOp37
 70
     0
102
RTVSPost2010Prop38
140
0.0
102
RTVSPost2010PropOp38
 70
     0
102
RTVSPost2010Prop39
140
1.0
102
RTVSPost2010PropOp39
 70
     0
102
RTVSPost2010Prop40
 90
        0
102
RTVSPost2010PropOp40
 70
     0
102
RTVSPost2010Prop41ColorIndex
 90
       18
102
RTVSPost2010Prop41ColorRGB
 90
        0
102
RTVSPost2010PropOp41
 70
     0
102
RTVSPost2010Prop42
 90
       50
102
RTVSPost2010PropOp42
 70
     0
102
RTVSPost2010Prop43
 90
        3
102
RTVSPost2010PropOp43
 70
     0
102
RTVSPost2010Prop44ColorIndex
 90
        5
102
RTVSPost2010Prop44ColorRGB
 90
      255
102
RTVSPost2010PropOp44
 70
     0
102
RTVSPost2010Prop45
280
     0
102
RTVSPost2010PropOp45
 70
     0
102
RTVSPost2010Prop46
 90
       50
102
RTVSPost2010PropOp46
 70
     0
102
RTVSPost2010Prop47
 90
       50
102
RTVSPost2010PropOp47
 70
     0
102
RTVSPost2010Prop48
 90
       50
102
RTVSPost2010PropOp48
 70
     0
102
RTVSPost2010Prop49
280
     0
102
RTVSPost2010PropOp49
 70
     0
102
RTVSPost2010Prop50
 90
       50
102
RTVSPost2010PropOp50
 70
     0
102
RTVSPost2010Prop51ColorIndex
 90
      256
102
RTVSPost2010Prop51ColorRGB
 90
-16777216
102
RTVSPost2010PropOp51
 70
     0
102
RTVSPost2010Prop52
140
1.0
102
RTVSPost2010PropOp52
 70
     0
102
RTVSPost2010Prop53
 90
        2
102
RTVSPost2010PropOp53
 70
     0
102
RTVSPost2010Prop54
  1
strokes_ogs.tif
102
RTVSPost2010PropOp54
 70
     0
102
RTVSPost2010Prop55
280
     0
102
RTVSPost2010PropOp55
 70
     0
102
RTVSPost2010Prop56
140
1.0
102
RTVSPost2010PropOp56
 70
     0
102
RTVSPost2010Prop57
140
1.0
102
RTVSPost2010PropOp57
 70
     0
  0
XRECORD
  5
9B
102
{ACAD_REACTORS
330
9A
102
}
330
9A
100
AcDbXrecord
280
     1
102
RTVSPropertyOp0
 70
     1
102
RTVSPropertyOp1
 70
     1
102
RTVSPropertyOp2
 70
     1
102
RTVSPropertyOp3
 70
     1
102
RTVSPropertyOp4
 70
     1
102
RTVSPropertyOp5
 70
     1
102
RTVSPropertyOp6
 70
     1
102
RTVSPropertyOp7
 70
     1
102
RTVSPropertyOp8
 70
     1
102
RTVSPropertyOp9
 70
     1
102
RTVSPropertyOp10
 70
     1
102
RTVSPropertyOp11
 70
     1
102
RTVSPropertyOp12
 70
     1
102
RTVSPropertyOp13
 70
     1
102
RTVSPropertyOp14
 70
     1
102
RTVSPropertyOp15
 70
     1
102
RTVSPropertyOp16
 70
     1
102
RTVSPropertyOp17
 70
     1
102
RTVSPropertyOp18
 70
     1
102
RTVSPropertyOp19
 70
     1
102
RTVSPropertyOp20
 70
     1
102
RTVSPropertyOp21
 70
     1
102
RTVSPropertyOp22
 70
     1
102
RTVSPropertyOp23
 70
     1
102
RTVSPropertyOp24
 70
     1
102
RTVSPropertyOp25
 70
     1
102
RTVSPropertyOp26
 70
     1
102
RTVSPropertyOp27
 70
     1
102
RTVSPropertyOp28
 70
     1
102
RTVSPropertyOp29
 70
     1
102
RTVSPropertyOp30
 70
     1
102
RTVSPropertyOp31
 70
     1
102
RTVSPropertyOp32
 70
     1
102
RTVSPropertyOp33
 70
     1
102
RTVSPropertyOp34
 70
     1
102
RTVSPropertyOp35
 70
     1
102
RTVSPropertyOp36
 70
     1
102
RTVSPropertyOp37
 70
     1
102
RTVSPropertyOp38
 70
     1
102
RTVSPropertyOp39
 70
     1
102
RTVSPropertyOp40
 70
     1
102
RTVSPropertyOp41
 70
     1
102
RTVSPropertyOp42
 70
     1
102
RTVSPropertyOp43
 70
     1
102
RTVSPropertyOp44
 70
     1
102
RTVSPropertyOp45
 70
     1
102
RTVSPropertyOp46
 70
     1
102
RTVSPropertyOp47
 70
     1
102
RTVSPropertyOp48
 70
     1
102
RTVSPropertyOp49
 70
     1
102
RTVSPropertyOp50
 70
     1
102
RTVSPropertyOp51
 70
     0
102
RTVSPropertyOp52
 70
     0
102
RTVSPropertyOp53
 70
     1
102
RTVSPropertyOp54
 70
     1
102
RTVSPropertyOp55
 70
     1
102
RTVSPropertyOp56
 70
     1
102
RTVSPropertyOp57
 70
     1
102
RTVSPost2010Prop28
280
     0
102
RTVSPost2010PropOp28
 70
     1
102
RTVSPost2010Prop29
280
     1
102
RTVSPost2010PropOp29
 70
     1
102
RTVSPost2010Prop30
280
     1
102
RTVSPost2010PropOp30
 70
     1
102
RTVSPost2010Prop31
280
     0
102
RTVSPost2010PropOp31
 70
     1
102
RTVSPost2010Prop32
280
     0
102
RTVSPost2010PropOp32
 70
     1
102
RTVSPost2010Prop33
280
     0
102
RTVSPost2010PropOp33
 70
     1
102
RTVSPost2010Prop34
280
     0
102
RTVSPost2010PropOp34
 70
     1
102
RTVSPost2010Prop35
280
     0
102
RTVSPost2010PropOp35
 70
     1
102
RTVSPost2010Prop36
280
     0
102
RTVSPost2010PropOp36
 70
     1
102
RTVSPost2010Prop37
 90
       50
102
RTVSPost2010PropOp37
 70
     1
102
RTVSPost2010Prop38
140
0.0
102
RTVSPost2010PropOp38
 70
     1
102
RTVSPost2010Prop39
140
1.0
102
RTVSPost2010PropOp39
 70
     1
102
RTVSPost2010Prop40
 90
        0
102
RTVSPost2010PropOp40
 70
     1
102
RTVSPost2010Prop41ColorIndex
 90
       18
102
RTVSPost2010Prop41ColorRGB
 90
        0
102
RTVSPost2010PropOp41
 70
     1
102
RTVSPost2010Prop42
 90
       50
102
RTVSPost2010PropOp42
 70
     1
102
RTVSPost2010Prop43
 90
        3
102
RTVSPost2010PropOp43
 70
     1
102
RTVSPost2010Prop44ColorIndex
 90
        5
102
RTVSPost2010Prop44ColorRGB
 90
      255
102
RTVSPost2010PropOp44
 70
     1
102
RTVSPost2010Prop45
280
     0
102
RTVSPost2010PropOp45
 70
     1
102
RTVSPost2010Prop46
 90
       50
102
RTVSPost2010PropOp46
 70
     1
102
RTVSPost2010Prop47
 90
       50
102
RTVSPost2010PropOp47
 70
     1
102
RTVSPost2010Prop48
 90
       50
102
RTVSPost2010PropOp48
 70
     1
102
RTVSPost2010Prop49
280
     0
102
RTVSPost2010PropOp49
 70
     1
102
RTVSPost2010Prop50
 90
       50
102
RTVSPost2010PropOp50
 70
     1
102
RTVSPost2010Prop51ColorIndex
 90
      256
102
RTVSPost2010Prop51ColorRGB
 90
-16777216
102
RTVSPost2010PropOp51
 70
     0
102
RTVSPost2010Prop52
140
1.0
102
RTVSPost2010PropOp52
 70
     0
102
RTVSPost2010Prop53
 90
        2
102
RTVSPost2010PropOp53
 70
     1
102
RTVSPost2010Prop54
  1
strokes_ogs.tif
102
RTVSPost2010PropOp54
 70
     1
102
RTVSPost2010Prop55
280
     0
102
RTVSPost2010PropOp55
 70
     1
102
RTVSPost2010Prop56
140
1.0
102
RTVSPost2010PropOp56
 70
     1
102
RTVSPost2010Prop57
140
1.0
102
RTVSPost2010PropOp57
 70
     1
  0
XRECORD
  5
A3
102
{ACAD_REACTORS
330
A2
102
}
330
A2
100
AcDbXrecord
280
     1
102
RTVSPropertyOp0
 70
     0
102
RTVSPropertyOp1
 70
     0
102
RTVSPropertyOp2
 70
     0
102
RTVSPropertyOp3
 70
     0
102
RTVSPropertyOp4
 70
     0
102
RTVSPropertyOp5
 70
     0
102
RTVSPropertyOp6
 70
     0
102
RTVSPropertyOp7
 70
     0
102
RTVSPropertyOp8
 70
     0
102
RTVSPropertyOp9
 70
     0
102
RTVSPropertyOp10
 70
     0
102
RTVSPropertyOp11
 70
     0
102
RTVSPropertyOp12
 70
     0
102
RTVSPropertyOp13
 70
     0
102
RTVSPropertyOp14
 70
     2
102
RTVSPropertyOp15
 70
     0
102
RTVSPropertyOp16
 70
     0
102
RTVSPropertyOp17
 70
     0
102
RTVSPropertyOp18
 70
     0
102
RTVSPropertyOp19
 70
     0
102
RTVSPropertyOp20
 70
     0
102
RTVSPropertyOp21
 70
     0
102
RTVSPropertyOp22
 70
     0
102
RTVSPropertyOp23
 70
     0
102
RTVSPropertyOp24
 70
     0
102
RTVSPropertyOp25
 70
     0
102
RTVSPropertyOp26
 70
     0
102
RTVSPropertyOp27
 70
     0
102
RTVSPropertyOp28
 70
     0
102
RTVSPropertyOp29
 70
     0
102
RTVSPropertyOp30
 70
     0
102
RTVSPropertyOp31
 70
     0
102
RTVSPropertyOp32
 70
     0
102
RTVSPropertyOp33
 70
     0
102
RTVSPropertyOp34
 70
     0
102
RTVSPropertyOp35
 70
     0
102
RTVSPropertyOp36
 70
     0
102
RTVSPropertyOp37
 70
     0
102
RTVSPropertyOp38
 70
     0
102
RTVSPropertyOp39
 70
     0
102
RTVSPropertyOp40
 70
     0
102
RTVSPropertyOp41
 70
     0
102
RTVSPropertyOp42
 70
     0
102
RTVSPropertyOp43
 70
     0
102
RTVSPropertyOp44
 70
     0
102
RTVSPropertyOp45
 70
     0
102
RTVSPropertyOp46
 70
     0
102
RTVSPropertyOp47
 70
     0
102
RTVSPropertyOp48
 70
     0
102
RTVSPropertyOp49
 70
     0
102
RTVSPropertyOp50
 70
     0
102
RTVSPropertyOp51
 70
     0
102
RTVSPropertyOp52
 70
     0
102
RTVSPropertyOp53
 70
     0
102
RTVSPropertyOp54
 70
     0
102
RTVSPropertyOp55
 70
     0
102
RTVSPropertyOp56
 70
     0
102
RTVSPropertyOp57
 70
     0
102
RTVSPost2010Prop28
280
     0
102
RTVSPost2010PropOp28
 70
     0
102
RTVSPost2010Prop29
280
     1
102
RTVSPost2010PropOp29
 70
     0
102
RTVSPost2010Prop30
280
     1
102
RTVSPost2010PropOp30
 70
     0
102
RTVSPost2010Prop31
280
     0
102
RTVSPost2010PropOp31
 70
     0
102
RTVSPost2010Prop32
280
     0
102
RTVSPost2010PropOp32
 70
     0
102
RTVSPost2010Prop33
280
     0
102
RTVSPost2010PropOp33
 70
     0
102
RTVSPost2010Prop34
280
     0
102
RTVSPost2010PropOp34
 70
     0
102
RTVSPost2010Prop35
280
     0
102
RTVSPost2010PropOp35
 70
     0
102
RTVSPost2010Prop36
280
     0
102
RTVSPost2010PropOp36
 70
     0
102
RTVSPost2010Prop37
 90
       50
102
RTVSPost2010PropOp37
 70
     0
102
RTVSPost2010Prop38
140
0.0
102
RTVSPost2010PropOp38
 70
     0
102
RTVSPost2010Prop39
140
1.0
102
RTVSPost2010PropOp39
 70
     0
102
RTVSPost2010Prop40
 90
        0
102
RTVSPost2010PropOp40
 70
     0
102
RTVSPost2010Prop41ColorIndex
 90
       18
102
RTVSPost2010Prop41ColorRGB
 90
        0
102
RTVSPost2010PropOp41
 70
     0
102
RTVSPost2010Prop42
 90
       50
102
RTVSPost2010PropOp42
 70
     0
102
RTVSPost2010Prop43
 90
        3
102
RTVSPost2010PropOp43
 70
     0
102
RTVSPost2010Prop44ColorIndex
 90
        5
102
RTVSPost2010Prop44ColorRGB
 90
      255
102
RTVSPost2010PropOp44
 70
     0
102
RTVSPost2010Prop45
280
     0
102
RTVSPost2010PropOp45
 70
     0
102
RTVSPost2010Prop46
 90
       50
102
RTVSPost2010PropOp46
 70
     0
102
RTVSPost2010Prop47
 90
       50
102
RTVSPost2010PropOp47
 70
     0
102
RTVSPost2010Prop48
 90
       50
102
RTVSPost2010PropOp48
 70
     0
102
RTVSPost2010Prop49
280
     0
102
RTVSPost2010PropOp49
 70
     0
102
RTVSPost2010Prop50
 90
       50
102
RTVSPost2010PropOp50
 70
     0
102
RTVSPost2010Prop51ColorIndex
 90
      256
102
RTVSPost2010Prop51ColorRGB
 90
-16777216
102
RTVSPost2010PropOp51
 70
     0
102
RTVSPost2010Prop52
140
1.0
102
RTVSPost2010PropOp52
 70
     0
102
RTVSPost2010Prop53
 90
        2
102
RTVSPost2010PropOp53
 70
     0
102
RTVSPost2010Prop54
  1
strokes_ogs.tif
102
RTVSPost2010PropOp54
 70
     0
102
RTVSPost2010Prop55
280
     0
102
RTVSPost2010PropOp55
 70
     0
102
RTVSPost2010Prop56
140
1.0
102
RTVSPost2010PropOp56
 70
     0
102
RTVSPost2010Prop57
140
1.0
102
RTVSPost2010PropOp57
 70
     0
  0
XRECORD
  5
91
102
{ACAD_REACTORS
330
90
102
}
330
90
100
AcDbXrecord
280
     1
102
RTVSPropertyOp0
 70
     1
102
RTVSPropertyOp1
 70
     1
102
RTVSPropertyOp2
 70
     1
102
RTVSPropertyOp3
 70
     1
102
RTVSPropertyOp4
 70
     1
102
RTVSPropertyOp5
 70
     1
102
RTVSPropertyOp6
 70
     1
102
RTVSPropertyOp7
 70
     1
102
RTVSPropertyOp8
 70
     1
102
RTVSPropertyOp9
 70
     1
102
RTVSPropertyOp10
 70
     1
102
RTVSPropertyOp11
 70
     1
102
RTVSPropertyOp12
 70
     1
102
RTVSPropertyOp13
 70
     1
102
RTVSPropertyOp14
 70
     1
102
RTVSPropertyOp15
 70
     1
102
RTVSPropertyOp16
 70
     1
102
RTVSPropertyOp17
 70
     1
102
RTVSPropertyOp18
 70
     1
102
RTVSPropertyOp19
 70
     1
102
RTVSPropertyOp20
 70
     1
102
RTVSPropertyOp21
 70
     1
102
RTVSPropertyOp22
 70
     1
102
RTVSPropertyOp23
 70
     1
102
RTVSPropertyOp24
 70
     1
102
RTVSPropertyOp25
 70
     1
102
RTVSPropertyOp26
 70
     1
102
RTVSPropertyOp27
 70
     1
102
RTVSPropertyOp28
 70
     1
102
RTVSPropertyOp29
 70
     1
102
RTVSPropertyOp30
 70
     1
102
RTVSPropertyOp31
 70
     1
102
RTVSPropertyOp32
 70
     1
102
RTVSPropertyOp33
 70
     1
102
RTVSPropertyOp34
 70
     1
102
RTVSPropertyOp35
 70
     1
102
RTVSPropertyOp36
 70
     1
102
RTVSPropertyOp37
 70
     1
102
RTVSPropertyOp38
 70
     1
102
RTVSPropertyOp39
 70
     1
102
RTVSPropertyOp40
 70
     1
102
RTVSPropertyOp41
 70
     1
102
RTVSPropertyOp42
 70
     1
102
RTVSPropertyOp43
 70
     1
102
RTVSPropertyOp44
 70
     1
102
RTVSPropertyOp45
 70
     1
102
RTVSPropertyOp46
 70
     1
102
RTVSPropertyOp47
 70
     1
102
RTVSPropertyOp48
 70
     1
102
RTVSPropertyOp49
 70
     1
102
RTVSPropertyOp50
 70
     1
102
RTVSPropertyOp51
 70
     0
102
RTVSPropertyOp52
 70
     0
102
RTVSPropertyOp53
 70
     1
102
RTVSPropertyOp54
 70
     1
102
RTVSPropertyOp55
 70
     1
102
RTVSPropertyOp56
 70
     1
102
RTVSPropertyOp57
 70
     1
102
RTVSPost2010Prop28
280
     0
102
RTVSPost2010PropOp28
 70
     1
102
RTVSPost2010Prop29
280
     1
102
RTVSPost2010PropOp29
 70
     1
102
RTVSPost2010Prop30
280
     1
102
RTVSPost2010PropOp30
 70
     1
102
RTVSPost2010Prop31
280
     0
102
RTVSPost2010PropOp31
 70
     1
102
RTVSPost2010Prop32
280
     0
102
RTVSPost2010PropOp32
 70
     1
102
RTVSPost2010Prop33
280
     0
102
RTVSPost2010PropOp33
 70
     1
102
RTVSPost2010Prop34
280
     0
102
RTVSPost2010PropOp34
 70
     1
102
RTVSPost2010Prop35
280
     0
102
RTVSPost2010PropOp35
 70
     1
102
RTVSPost2010Prop36
280
     0
102
RTVSPost2010PropOp36
 70
     1
102
RTVSPost2010Prop37
 90
       50
102
RTVSPost2010PropOp37
 70
     1
102
RTVSPost2010Prop38
140
0.0
102
RTVSPost2010PropOp38
 70
     1
102
RTVSPost2010Prop39
140
1.0
102
RTVSPost2010PropOp39
 70
     1
102
RTVSPost2010Prop40
 90
        0
102
RTVSPost2010PropOp40
 70
     1
102
RTVSPost2010Prop41ColorIndex
 90
       18
102
RTVSPost2010Prop41ColorRGB
 90
        0
102
RTVSPost2010PropOp41
 70
     1
102
RTVSPost2010Prop42
 90
       50
102
RTVSPost2010PropOp42
 70
     1
102
RTVSPost2010Prop43
 90
        3
102
RTVSPost2010PropOp43
 70
     1
102
RTVSPost2010Prop44ColorIndex
 90
        5
102
RTVSPost2010Prop44ColorRGB
 90
      255
102
RTVSPost2010PropOp44
 70
     1
102
RTVSPost2010Prop45
280
     0
102
RTVSPost2010PropOp45
 70
     1
102
RTVSPost2010Prop46
 90
       50
102
RTVSPost2010PropOp46
 70
     1
102
RTVSPost2010Prop47
 90
       50
102
RTVSPost2010PropOp47
 70
     1
102
RTVSPost2010Prop48
 90
       50
102
RTVSPost2010PropOp48
 70
     1
102
RTVSPost2010Prop49
280
     0
102
RTVSPost2010PropOp49
 70
     1
102
RTVSPost2010Prop50
 90
       50
102
RTVSPost2010PropOp50
 70
     1
102
RTVSPost2010Prop51ColorIndex
 90
      256
102
RTVSPost2010Prop51ColorRGB
 90
-16777216
102
RTVSPost2010PropOp51
 70
     0
102
RTVSPost2010Prop52
140
1.0
102
RTVSPost2010PropOp52
 70
     0
102
RTVSPost2010Prop53
 90
        2
102
RTVSPost2010PropOp53
 70
     1
102
RTVSPost2010Prop54
  1
strokes_ogs.tif
102
RTVSPost2010PropOp54
 70
     1
102
RTVSPost2010Prop55
280
     0
102
RTVSPost2010PropOp55
 70
     1
102
RTVSPost2010Prop56
140
1.0
102
RTVSPost2010PropOp56
 70
     1
102
RTVSPost2010Prop57
140
1.0
102
RTVSPost2010PropOp57
 70
     1
  0
XRECORD
  5
AF
102
{ACAD_REACTORS
330
AE
102
}
330
AE
100
AcDbXrecord
280
     1
102
RTVSPropertyOp0
 70
     1
102
RTVSPropertyOp1
 70
     1
102
RTVSPropertyOp2
 70
     1
102
RTVSPropertyOp3
 70
     1
102
RTVSPropertyOp4
 70
     1
102
RTVSPropertyOp5
 70
     1
102
RTVSPropertyOp6
 70
     1
102
RTVSPropertyOp7
 70
     1
102
RTVSPropertyOp8
 70
     1
102
RTVSPropertyOp9
 70
     1
102
RTVSPropertyOp10
 70
     1
102
RTVSPropertyOp11
 70
     1
102
RTVSPropertyOp12
 70
     1
102
RTVSPropertyOp13
 70
     1
102
RTVSPropertyOp14
 70
     1
102
RTVSPropertyOp15
 70
     1
102
RTVSPropertyOp16
 70
     1
102
RTVSPropertyOp17
 70
     1
102
RTVSPropertyOp18
 70
     1
102
RTVSPropertyOp19
 70
     1
102
RTVSPropertyOp20
 70
     1
102
RTVSPropertyOp21
 70
     1
102
RTVSPropertyOp22
 70
     1
102
RTVSPropertyOp23
 70
     1
102
RTVSPropertyOp24
 70
     1
102
RTVSPropertyOp25
 70
     1
102
RTVSPropertyOp26
 70
     1
102
RTVSPropertyOp27
 70
     1
102
RTVSPropertyOp28
 70
     1
102
RTVSPropertyOp29
 70
     1
102
RTVSPropertyOp30
 70
     1
102
RTVSPropertyOp31
 70
     1
102
RTVSPropertyOp32
 70
     1
102
RTVSPropertyOp33
 70
     1
102
RTVSPropertyOp34
 70
     1
102
RTVSPropertyOp35
 70
     1
102
RTVSPropertyOp36
 70
     1
102
RTVSPropertyOp37
 70
     1
102
RTVSPropertyOp38
 70
     1
102
RTVSPropertyOp39
 70
     1
102
RTVSPropertyOp40
 70
     1
102
RTVSPropertyOp41
 70
     1
102
RTVSPropertyOp42
 70
     1
102
RTVSPropertyOp43
 70
     1
102
RTVSPropertyOp44
 70
     1
102
RTVSPropertyOp45
 70
     1
102
RTVSPropertyOp46
 70
     1
102
RTVSPropertyOp47
 70
     1
102
RTVSPropertyOp48
 70
     1
102
RTVSPropertyOp49
 70
     1
102
RTVSPropertyOp50
 70
     1
102
RTVSPropertyOp51
 70
     0
102
RTVSPropertyOp52
 70
     0
102
RTVSPropertyOp53
 70
     1
102
RTVSPropertyOp54
 70
     1
102
RTVSPropertyOp55
 70
     1
102
RTVSPropertyOp56
 70
     1
102
RTVSPropertyOp57
 70
     1
102
RTVSPost2010Prop28
280
     0
102
RTVSPost2010PropOp28
 70
     1
102
RTVSPost2010Prop29
280
     1
102
RTVSPost2010PropOp29
 70
     1
102
RTVSPost2010Prop30
280
     1
102
RTVSPost2010PropOp30
 70
     1
102
RTVSPost2010Prop31
280
     0
102
RTVSPost2010PropOp31
 70
     1
102
RTVSPost2010Prop32
280
     0
102
RTVSPost2010PropOp32
 70
     1
102
RTVSPost2010Prop33
280
     0
102
RTVSPost2010PropOp33
 70
     1
102
RTVSPost2010Prop34
280
     0
102
RTVSPost2010PropOp34
 70
     1
102
RTVSPost2010Prop35
280
     0
102
RTVSPost2010PropOp35
 70
     1
102
RTVSPost2010Prop36
280
     0
102
RTVSPost2010PropOp36
 70
     1
102
RTVSPost2010Prop37
 90
       50
102
RTVSPost2010PropOp37
 70
     1
102
RTVSPost2010Prop38
140
0.0
102
RTVSPost2010PropOp38
 70
     1
102
RTVSPost2010Prop39
140
1.0
102
RTVSPost2010PropOp39
 70
     1
102
RTVSPost2010Prop40
 90
        0
102
RTVSPost2010PropOp40
 70
     1
102
RTVSPost2010Prop41ColorIndex
 90
       18
102
RTVSPost2010Prop41ColorRGB
 90
        0
102
RTVSPost2010PropOp41
 70
     1
102
RTVSPost2010Prop42
 90
       50
102
RTVSPost2010PropOp42
 70
     1
102
RTVSPost2010Prop43
 90
        3
102
RTVSPost2010PropOp43
 70
     1
102
RTVSPost2010Prop44ColorIndex
 90
        5
102
RTVSPost2010Prop44ColorRGB
 90
      255
102
RTVSPost2010PropOp44
 70
     1
102
RTVSPost2010Prop45
280
     0
102
RTVSPost2010PropOp45
 70
     1
102
RTVSPost2010Prop46
 90
       50
102
RTVSPost2010PropOp46
 70
     1
102
RTVSPost2010Prop47
 90
       50
102
RTVSPost2010PropOp47
 70
     1
102
RTVSPost2010Prop48
 90
       50
102
RTVSPost2010PropOp48
 70
     1
102
RTVSPost2010Prop49
280
     0
102
RTVSPost2010PropOp49
 70
     1
102
RTVSPost2010Prop50
 90
       50
102
RTVSPost2010PropOp50
 70
     1
102
RTVSPost2010Prop51ColorIndex
 90
      256
102
RTVSPost2010Prop51ColorRGB
 90
-16777216
102
RTVSPost2010PropOp51
 70
     0
102
RTVSPost2010Prop52
140
1.0
102
RTVSPost2010PropOp52
 70
     0
102
RTVSPost2010Prop53
 90
        2
102
RTVSPost2010PropOp53
 70
     1
102
RTVSPost2010Prop54
  1
strokes_ogs.tif
102
RTVSPost2010PropOp54
 70
     1
102
RTVSPost2010Prop55
280
     0
102
RTVSPost2010PropOp55
 70
     1
102
RTVSPost2010Prop56
140
1.0
102
RTVSPost2010PropOp56
 70
     1
102
RTVSPost2010Prop57
140
1.0
102
RTVSPost2010PropOp57
 70
     1
  0
XRECORD
  5
AD
102
{ACAD_REACTORS
330
AC
102
}
330
AC
100
AcDbXrecord
280
     1
102
RTVSPropertyOp0
 70
     1
102
RTVSPropertyOp1
 70
     1
102
RTVSPropertyOp2
 70
     1
102
RTVSPropertyOp3
 70
     1
102
RTVSPropertyOp4
 70
     1
102
RTVSPropertyOp5
 70
     1
102
RTVSPropertyOp6
 70
     1
102
RTVSPropertyOp7
 70
     1
102
RTVSPropertyOp8
 70
     1
102
RTVSPropertyOp9
 70
     1
102
RTVSPropertyOp10
 70
     1
102
RTVSPropertyOp11
 70
     1
102
RTVSPropertyOp12
 70
     1
102
RTVSPropertyOp13
 70
     1
102
RTVSPropertyOp14
 70
     1
102
RTVSPropertyOp15
 70
     1
102
RTVSPropertyOp16
 70
     1
102
RTVSPropertyOp17
 70
     1
102
RTVSPropertyOp18
 70
     1
102
RTVSPropertyOp19
 70
     1
102
RTVSPropertyOp20
 70
     1
102
RTVSPropertyOp21
 70
     1
102
RTVSPropertyOp22
 70
     1
102
RTVSPropertyOp23
 70
     1
102
RTVSPropertyOp24
 70
     1
102
RTVSPropertyOp25
 70
     1
102
RTVSPropertyOp26
 70
     1
102
RTVSPropertyOp27
 70
     1
102
RTVSPropertyOp28
 70
     1
102
RTVSPropertyOp29
 70
     1
102
RTVSPropertyOp30
 70
     1
102
RTVSPropertyOp31
 70
     1
102
RTVSPropertyOp32
 70
     1
102
RTVSPropertyOp33
 70
     1
102
RTVSPropertyOp34
 70
     1
102
RTVSPropertyOp35
 70
     1
102
RTVSPropertyOp36
 70
     1
102
RTVSPropertyOp37
 70
     1
102
RTVSPropertyOp38
 70
     1
102
RTVSPropertyOp39
 70
     1
102
RTVSPropertyOp40
 70
     1
102
RTVSPropertyOp41
 70
     1
102
RTVSPropertyOp42
 70
     1
102
RTVSPropertyOp43
 70
     1
102
RTVSPropertyOp44
 70
     1
102
RTVSPropertyOp45
 70
     1
102
RTVSPropertyOp46
 70
     1
102
RTVSPropertyOp47
 70
     1
102
RTVSPropertyOp48
 70
     1
102
RTVSPropertyOp49
 70
     1
102
RTVSPropertyOp50
 70
     1
102
RTVSPropertyOp51
 70
     0
102
RTVSPropertyOp52
 70
     0
102
RTVSPropertyOp53
 70
     1
102
RTVSPropertyOp54
 70
     1
102
RTVSPropertyOp55
 70
     1
102
RTVSPropertyOp56
 70
     1
102
RTVSPropertyOp57
 70
     1
102
RTVSPost2010Prop28
280
     0
102
RTVSPost2010PropOp28
 70
     1
102
RTVSPost2010Prop29
280
     1
102
RTVSPost2010PropOp29
 70
     1
102
RTVSPost2010Prop30
280
     1
102
RTVSPost2010PropOp30
 70
     1
102
RTVSPost2010Prop31
280
     0
102
RTVSPost2010PropOp31
 70
     1
102
RTVSPost2010Prop32
280
     0
102
RTVSPost2010PropOp32
 70
     1
102
RTVSPost2010Prop33
280
     0
102
RTVSPost2010PropOp33
 70
     1
102
RTVSPost2010Prop34
280
     0
102
RTVSPost2010PropOp34
 70
     1
102
RTVSPost2010Prop35
280
     0
102
RTVSPost2010PropOp35
 70
     1
102
RTVSPost2010Prop36
280
     0
102
RTVSPost2010PropOp36
 70
     1
102
RTVSPost2010Prop37
 90
       50
102
RTVSPost2010PropOp37
 70
     1
102
RTVSPost2010Prop38
140
0.0
102
RTVSPost2010PropOp38
 70
     1
102
RTVSPost2010Prop39
140
1.0
102
RTVSPost2010PropOp39
 70
     1
102
RTVSPost2010Prop40
 90
        0
102
RTVSPost2010PropOp40
 70
     1
102
RTVSPost2010Prop41ColorIndex
 90
       18
102
RTVSPost2010Prop41ColorRGB
 90
        0
102
RTVSPost2010PropOp41
 70
     1
102
RTVSPost2010Prop42
 90
       50
102
RTVSPost2010PropOp42
 70
     1
102
RTVSPost2010Prop43
 90
        3
102
RTVSPost2010PropOp43
 70
     1
102
RTVSPost2010Prop44ColorIndex
 90
        5
102
RTVSPost2010Prop44ColorRGB
 90
      255
102
RTVSPost2010PropOp44
 70
     1
102
RTVSPost2010Prop45
280
     0
102
RTVSPost2010PropOp45
 70
     1
102
RTVSPost2010Prop46
 90
       50
102
RTVSPost2010PropOp46
 70
     1
102
RTVSPost2010Prop47
 90
       50
102
RTVSPost2010PropOp47
 70
     1
102
RTVSPost2010Prop48
 90
       50
102
RTVSPost2010PropOp48
 70
     1
102
RTVSPost2010Prop49
280
     0
102
RTVSPost2010PropOp49
 70
     1
102
RTVSPost2010Prop50
 90
       50
102
RTVSPost2010PropOp50
 70
     1
102
RTVSPost2010Prop51ColorIndex
 90
      256
102
RTVSPost2010Prop51ColorRGB
 90
-16777216
102
RTVSPost2010PropOp51
 70
     0
102
RTVSPost2010Prop52
140
1.0
102
RTVSPost2010PropOp52
 70
     0
102
RTVSPost2010Prop53
 90
        2
102
RTVSPost2010PropOp53
 70
     1
102
RTVSPost2010Prop54
  1
strokes_ogs.tif
102
RTVSPost2010PropOp54
 70
     1
102
RTVSPost2010Prop55
280
     0
102
RTVSPost2010PropOp55
 70
     1
102
RTVSPost2010Prop56
140
1.0
102
RTVSPost2010PropOp56
 70
     1
102
RTVSPost2010Prop57
140
1.0
102
RTVSPost2010PropOp57
 70
     1
  0
XRECORD
  5
A7
102
{ACAD_REACTORS
330
A6
102
}
330
A6
100
AcDbXrecord
280
     1
102
RTVSPropertyOp0
 70
     1
102
RTVSPropertyOp1
 70
     1
102
RTVSPropertyOp2
 70
     1
102
RTVSPropertyOp3
 70
     1
102
RTVSPropertyOp4
 70
     1
102
RTVSPropertyOp5
 70
     1
102
RTVSPropertyOp6
 70
     1
102
RTVSPropertyOp7
 70
     1
102
RTVSPropertyOp8
 70
     1
102
RTVSPropertyOp9
 70
     1
102
RTVSPropertyOp10
 70
     1
102
RTVSPropertyOp11
 70
     1
102
RTVSPropertyOp12
 70
     1
102
RTVSPropertyOp13
 70
     1
102
RTVSPropertyOp14
 70
     1
102
RTVSPropertyOp15
 70
     1
102
RTVSPropertyOp16
 70
     1
102
RTVSPropertyOp17
 70
     1
102
RTVSPropertyOp18
 70
     1
102
RTVSPropertyOp19
 70
     1
102
RTVSPropertyOp20
 70
     1
102
RTVSPropertyOp21
 70
     1
102
RTVSPropertyOp22
 70
     1
102
RTVSPropertyOp23
 70
     1
102
RTVSPropertyOp24
 70
     1
102
RTVSPropertyOp25
 70
     1
102
RTVSPropertyOp26
 70
     1
102
RTVSPropertyOp27
 70
     1
102
RTVSPropertyOp28
 70
     1
102
RTVSPropertyOp29
 70
     1
102
RTVSPropertyOp30
 70
     1
102
RTVSPropertyOp31
 70
     1
102
RTVSPropertyOp32
 70
     1
102
RTVSPropertyOp33
 70
     1
102
RTVSPropertyOp34
 70
     1
102
RTVSPropertyOp35
 70
     1
102
RTVSPropertyOp36
 70
     1
102
RTVSPropertyOp37
 70
     1
102
RTVSPropertyOp38
 70
     1
102
RTVSPropertyOp39
 70
     1
102
RTVSPropertyOp40
 70
     1
102
RTVSPropertyOp41
 70
     1
102
RTVSPropertyOp42
 70
     1
102
RTVSPropertyOp43
 70
     1
102
RTVSPropertyOp44
 70
     1
102
RTVSPropertyOp45
 70
     1
102
RTVSPropertyOp46
 70
     1
102
RTVSPropertyOp47
 70
     1
102
RTVSPropertyOp48
 70
     1
102
RTVSPropertyOp49
 70
     1
102
RTVSPropertyOp50
 70
     1
102
RTVSPropertyOp51
 70
     0
102
RTVSPropertyOp52
 70
     0
102
RTVSPropertyOp53
 70
     1
102
RTVSPropertyOp54
 70
     1
102
RTVSPropertyOp55
 70
     1
102
RTVSPropertyOp56
 70
     1
102
RTVSPropertyOp57
 70
     1
102
RTVSPost2010Prop28
280
     0
102
RTVSPost2010PropOp28
 70
     1
102
RTVSPost2010Prop29
280
     1
102
RTVSPost2010PropOp29
 70
     1
102
RTVSPost2010Prop30
280
     1
102
RTVSPost2010PropOp30
 70
     1
102
RTVSPost2010Prop31
280
     0
102
RTVSPost2010PropOp31
 70
     1
102
RTVSPost2010Prop32
280
     0
102
RTVSPost2010PropOp32
 70
     1
102
RTVSPost2010Prop33
280
     0
102
RTVSPost2010PropOp33
 70
     1
102
RTVSPost2010Prop34
280
     0
102
RTVSPost2010PropOp34
 70
     1
102
RTVSPost2010Prop35
280
     0
102
RTVSPost2010PropOp35
 70
     1
102
RTVSPost2010Prop36
280
     0
102
RTVSPost2010PropOp36
 70
     1
102
RTVSPost2010Prop37
 90
       50
102
RTVSPost2010PropOp37
 70
     1
102
RTVSPost2010Prop38
140
0.0
102
RTVSPost2010PropOp38
 70
     1
102
RTVSPost2010Prop39
140
1.0
102
RTVSPost2010PropOp39
 70
     1
102
RTVSPost2010Prop40
 90
        0
102
RTVSPost2010PropOp40
 70
     1
102
RTVSPost2010Prop41ColorIndex
 90
       18
102
RTVSPost2010Prop41ColorRGB
 90
        0
102
RTVSPost2010PropOp41
 70
     1
102
RTVSPost2010Prop42
 90
       50
102
RTVSPost2010PropOp42
 70
     1
102
RTVSPost2010Prop43
 90
        3
102
RTVSPost2010PropOp43
 70
     1
102
RTVSPost2010Prop44ColorIndex
 90
        5
102
RTVSPost2010Prop44ColorRGB
 90
      255
102
RTVSPost2010PropOp44
 70
     1
102
RTVSPost2010Prop45
280
     0
102
RTVSPost2010PropOp45
 70
     1
102
RTVSPost2010Prop46
 90
       50
102
RTVSPost2010PropOp46
 70
     1
102
RTVSPost2010Prop47
 90
       50
102
RTVSPost2010PropOp47
 70
     1
102
RTVSPost2010Prop48
 90
       50
102
RTVSPost2010PropOp48
 70
     1
102
RTVSPost2010Prop49
280
     0
102
RTVSPost2010PropOp49
 70
     1
102
RTVSPost2010Prop50
 90
       50
102
RTVSPost2010PropOp50
 70
     1
102
RTVSPost2010Prop51ColorIndex
 90
      256
102
RTVSPost2010Prop51ColorRGB
 90
-16777216
102
RTVSPost2010PropOp51
 70
     0
102
RTVSPost2010Prop52
140
1.0
102
RTVSPost2010PropOp52
 70
     0
102
RTVSPost2010Prop53
 90
        2
102
RTVSPost2010PropOp53
 70
     1
102
RTVSPost2010Prop54
  1
strokes_ogs.tif
102
RTVSPost2010PropOp54
 70
     1
102
RTVSPost2010Prop55
280
     0
102
RTVSPost2010PropOp55
 70
     1
102
RTVSPost2010Prop56
140
1.0
102
RTVSPost2010PropOp56
 70
     1
102
RTVSPost2010Prop57
140
1.0
102
RTVSPost2010PropOp57
 70
     1
  0
XRECORD
  5
A9
102
{ACAD_REACTORS
330
A8
102
}
330
A8
100
AcDbXrecord
280
     1
102
RTVSPropertyOp0
 70
     1
102
RTVSPropertyOp1
 70
     1
102
RTVSPropertyOp2
 70
     1
102
RTVSPropertyOp3
 70
     1
102
RTVSPropertyOp4
 70
     1
102
RTVSPropertyOp5
 70
     1
102
RTVSPropertyOp6
 70
     1
102
RTVSPropertyOp7
 70
     1
102
RTVSPropertyOp8
 70
     1
102
RTVSPropertyOp9
 70
     1
102
RTVSPropertyOp10
 70
     1
102
RTVSPropertyOp11
 70
     1
102
RTVSPropertyOp12
 70
     1
102
RTVSPropertyOp13
 70
     1
102
RTVSPropertyOp14
 70
     1
102
RTVSPropertyOp15
 70
     1
102
RTVSPropertyOp16
 70
     1
102
RTVSPropertyOp17
 70
     1
102
RTVSPropertyOp18
 70
     1
102
RTVSPropertyOp19
 70
     1
102
RTVSPropertyOp20
 70
     1
102
RTVSPropertyOp21
 70
     1
102
RTVSPropertyOp22
 70
     1
102
RTVSPropertyOp23
 70
     1
102
RTVSPropertyOp24
 70
     1
102
RTVSPropertyOp25
 70
     1
102
RTVSPropertyOp26
 70
     1
102
RTVSPropertyOp27
 70
     1
102
RTVSPropertyOp28
 70
     1
102
RTVSPropertyOp29
 70
     1
102
RTVSPropertyOp30
 70
     1
102
RTVSPropertyOp31
 70
     1
102
RTVSPropertyOp32
 70
     1
102
RTVSPropertyOp33
 70
     1
102
RTVSPropertyOp34
 70
     1
102
RTVSPropertyOp35
 70
     1
102
RTVSPropertyOp36
 70
     1
102
RTVSPropertyOp37
 70
     1
102
RTVSPropertyOp38
 70
     1
102
RTVSPropertyOp39
 70
     1
102
RTVSPropertyOp40
 70
     1
102
RTVSPropertyOp41
 70
     1
102
RTVSPropertyOp42
 70
     1
102
RTVSPropertyOp43
 70
     1
102
RTVSPropertyOp44
 70
     1
102
RTVSPropertyOp45
 70
     1
102
RTVSPropertyOp46
 70
     1
102
RTVSPropertyOp47
 70
     1
102
RTVSPropertyOp48
 70
     1
102
RTVSPropertyOp49
 70
     1
102
RTVSPropertyOp50
 70
     1
102
RTVSPropertyOp51
 70
     0
102
RTVSPropertyOp52
 70
     0
102
RTVSPropertyOp53
 70
     1
102
RTVSPropertyOp54
 70
     1
102
RTVSPropertyOp55
 70
     1
102
RTVSPropertyOp56
 70
     1
102
RTVSPropertyOp57
 70
     1
102
RTVSPost2010Prop28
280
     0
102
RTVSPost2010PropOp28
 70
     1
102
RTVSPost2010Prop29
280
     1
102
RTVSPost2010PropOp29
 70
     1
102
RTVSPost2010Prop30
280
     1
102
RTVSPost2010PropOp30
 70
     1
102
RTVSPost2010Prop31
280
     0
102
RTVSPost2010PropOp31
 70
     1
102
RTVSPost2010Prop32
280
     0
102
RTVSPost2010PropOp32
 70
     1
102
RTVSPost2010Prop33
280
     0
102
RTVSPost2010PropOp33
 70
     1
102
RTVSPost2010Prop34
280
     0
102
RTVSPost2010PropOp34
 70
     1
102
RTVSPost2010Prop35
280
     0
102
RTVSPost2010PropOp35
 70
     1
102
RTVSPost2010Prop36
280
     0
102
RTVSPost2010PropOp36
 70
     1
102
RTVSPost2010Prop37
 90
       50
102
RTVSPost2010PropOp37
 70
     1
102
RTVSPost2010Prop38
140
0.0
102
RTVSPost2010PropOp38
 70
     1
102
RTVSPost2010Prop39
140
1.0
102
RTVSPost2010PropOp39
 70
     1
102
RTVSPost2010Prop40
 90
        0
102
RTVSPost2010PropOp40
 70
     1
102
RTVSPost2010Prop41ColorIndex
 90
       18
102
RTVSPost2010Prop41ColorRGB
 90
        0
102
RTVSPost2010PropOp41
 70
     1
102
RTVSPost2010Prop42
 90
       50
102
RTVSPost2010PropOp42
 70
     1
102
RTVSPost2010Prop43
 90
        3
102
RTVSPost2010PropOp43
 70
     1
102
RTVSPost2010Prop44ColorIndex
 90
        5
102
RTVSPost2010Prop44ColorRGB
 90
      255
102
RTVSPost2010PropOp44
 70
     1
102
RTVSPost2010Prop45
280
     0
102
RTVSPost2010PropOp45
 70
     1
102
RTVSPost2010Prop46
 90
       50
102
RTVSPost2010PropOp46
 70
     1
102
RTVSPost2010Prop47
 90
       50
102
RTVSPost2010PropOp47
 70
     1
102
RTVSPost2010Prop48
 90
       50
102
RTVSPost2010PropOp48
 70
     1
102
RTVSPost2010Prop49
280
     0
102
RTVSPost2010PropOp49
 70
     1
102
RTVSPost2010Prop50
 90
       50
102
RTVSPost2010PropOp50
 70
     1
102
RTVSPost2010Prop51ColorIndex
 90
      256
102
RTVSPost2010Prop51ColorRGB
 90
-16777216
102
RTVSPost2010PropOp51
 70
     0
102
RTVSPost2010Prop52
140
1.0
102
RTVSPost2010PropOp52
 70
     0
102
RTVSPost2010Prop53
 90
        2
102
RTVSPost2010PropOp53
 70
     1
102
RTVSPost2010Prop54
  1
strokes_ogs.tif
102
RTVSPost2010PropOp54
 70
     1
102
RTVSPost2010Prop55
280
     0
102
RTVSPost2010PropOp55
 70
     1
102
RTVSPost2010Prop56
140
1.0
102
RTVSPost2010PropOp56
 70
     1
102
RTVSPost2010Prop57
140
1.0
102
RTVSPost2010PropOp57
 70
     1
  0
XRECORD
  5
99
102
{ACAD_REACTORS
330
98
102
}
330
98
100
AcDbXrecord
280
     1
102
RTVSPropertyOp0
 70
     1
102
RTVSPropertyOp1
 70
     1
102
RTVSPropertyOp2
 70
     1
102
RTVSPropertyOp3
 70
     1
102
RTVSPropertyOp4
 70
     1
102
RTVSPropertyOp5
 70
     1
102
RTVSPropertyOp6
 70
     1
102
RTVSPropertyOp7
 70
     1
102
RTVSPropertyOp8
 70
     1
102
RTVSPropertyOp9
 70
     1
102
RTVSPropertyOp10
 70
     1
102
RTVSPropertyOp11
 70
     1
102
RTVSPropertyOp12
 70
     1
102
RTVSPropertyOp13
 70
     1
102
RTVSPropertyOp14
 70
     1
102
RTVSPropertyOp15
 70
     1
102
RTVSPropertyOp16
 70
     1
102
RTVSPropertyOp17
 70
     1
102
RTVSPropertyOp18
 70
     1
102
RTVSPropertyOp19
 70
     1
102
RTVSPropertyOp20
 70
     1
102
RTVSPropertyOp21
 70
     1
102
RTVSPropertyOp22
 70
     1
102
RTVSPropertyOp23
 70
     1
102
RTVSPropertyOp24
 70
     1
102
RTVSPropertyOp25
 70
     1
102
RTVSPropertyOp26
 70
     1
102
RTVSPropertyOp27
 70
     1
102
RTVSPropertyOp28
 70
     1
102
RTVSPropertyOp29
 70
     1
102
RTVSPropertyOp30
 70
     1
102
RTVSPropertyOp31
 70
     1
102
RTVSPropertyOp32
 70
     1
102
RTVSPropertyOp33
 70
     1
102
RTVSPropertyOp34
 70
     1
102
RTVSPropertyOp35
 70
     1
102
RTVSPropertyOp36
 70
     1
102
RTVSPropertyOp37
 70
     1
102
RTVSPropertyOp38
 70
     1
102
RTVSPropertyOp39
 70
     1
102
RTVSPropertyOp40
 70
     1
102
RTVSPropertyOp41
 70
     1
102
RTVSPropertyOp42
 70
     1
102
RTVSPropertyOp43
 70
     1
102
RTVSPropertyOp44
 70
     1
102
RTVSPropertyOp45
 70
     1
102
RTVSPropertyOp46
 70
     1
102
RTVSPropertyOp47
 70
     1
102
RTVSPropertyOp48
 70
     1
102
RTVSPropertyOp49
 70
     1
102
RTVSPropertyOp50
 70
     1
102
RTVSPropertyOp51
 70
     0
102
RTVSPropertyOp52
 70
     0
102
RTVSPropertyOp53
 70
     1
102
RTVSPropertyOp54
 70
     1
102
RTVSPropertyOp55
 70
     1
102
RTVSPropertyOp56
 70
     1
102
RTVSPropertyOp57
 70
     1
102
RTVSPost2010Prop28
280
     0
102
RTVSPost2010PropOp28
 70
     1
102
RTVSPost2010Prop29
280
     1
102
RTVSPost2010PropOp29
 70
     1
102
RTVSPost2010Prop30
280
     1
102
RTVSPost2010PropOp30
 70
     1
102
RTVSPost2010Prop31
280
     0
102
RTVSPost2010PropOp31
 70
     1
102
RTVSPost2010Prop32
280
     0
102
RTVSPost2010PropOp32
 70
     1
102
RTVSPost2010Prop33
280
     0
102
RTVSPost2010PropOp33
 70
     1
102
RTVSPost2010Prop34
280
     0
102
RTVSPost2010PropOp34
 70
     1
102
RTVSPost2010Prop35
280
     0
102
RTVSPost2010PropOp35
 70
     1
102
RTVSPost2010Prop36
280
     0
102
RTVSPost2010PropOp36
 70
     1
102
RTVSPost2010Prop37
 90
       50
102
RTVSPost2010PropOp37
 70
     1
102
RTVSPost2010Prop38
140
0.0
102
RTVSPost2010PropOp38
 70
     1
102
RTVSPost2010Prop39
140
1.0
102
RTVSPost2010PropOp39
 70
     1
102
RTVSPost2010Prop40
 90
        0
102
RTVSPost2010PropOp40
 70
     1
102
RTVSPost2010Prop41ColorIndex
 90
       18
102
RTVSPost2010Prop41ColorRGB
 90
        0
102
RTVSPost2010PropOp41
 70
     1
102
RTVSPost2010Prop42
 90
       50
102
RTVSPost2010PropOp42
 70
     1
102
RTVSPost2010Prop43
 90
        3
102
RTVSPost2010PropOp43
 70
     1
102
RTVSPost2010Prop44ColorIndex
 90
        5
102
RTVSPost2010Prop44ColorRGB
 90
      255
102
RTVSPost2010PropOp44
 70
     1
102
RTVSPost2010Prop45
280
     0
102
RTVSPost2010PropOp45
 70
     1
102
RTVSPost2010Prop46
 90
       50
102
RTVSPost2010PropOp46
 70
     1
102
RTVSPost2010Prop47
 90
       50
102
RTVSPost2010PropOp47
 70
     1
102
RTVSPost2010Prop48
 90
       50
102
RTVSPost2010PropOp48
 70
     1
102
RTVSPost2010Prop49
280
     0
102
RTVSPost2010PropOp49
 70
     1
102
RTVSPost2010Prop50
 90
       50
102
RTVSPost2010PropOp50
 70
     1
102
RTVSPost2010Prop51ColorIndex
 90
      256
102
RTVSPost2010Prop51ColorRGB
 90
-16777216
102
RTVSPost2010PropOp51
 70
     0
102
RTVSPost2010Prop52
140
1.0
102
RTVSPost2010PropOp52
 70
     0
102
RTVSPost2010Prop53
 90
        2
102
RTVSPost2010PropOp53
 70
     1
102
RTVSPost2010Prop54
  1
strokes_ogs.tif
102
RTVSPost2010PropOp54
 70
     1
102
RTVSPost2010Prop55
280
     0
102
RTVSPost2010PropOp55
 70
     1
102
RTVSPost2010Prop56
140
1.0
102
RTVSPost2010PropOp56
 70
     1
102
RTVSPost2010Prop57
140
1.0
102
RTVSPost2010PropOp57
 70
     1
  0
XRECORD
  5
8B
102
{ACAD_REACTORS
330
8A
102
}
330
8A
100
AcDbXrecord
280
     1
102
RTVSPropertyOp0
 70
     1
102
RTVSPropertyOp1
 70
     1
102
RTVSPropertyOp2
 70
     1
102
RTVSPropertyOp3
 70
     1
102
RTVSPropertyOp4
 70
     1
102
RTVSPropertyOp5
 70
     1
102
RTVSPropertyOp6
 70
     1
102
RTVSPropertyOp7
 70
     1
102
RTVSPropertyOp8
 70
     1
102
RTVSPropertyOp9
 70
     1
102
RTVSPropertyOp10
 70
     1
102
RTVSPropertyOp11
 70
     1
102
RTVSPropertyOp12
 70
     1
102
RTVSPropertyOp13
 70
     1
102
RTVSPropertyOp14
 70
     1
102
RTVSPropertyOp15
 70
     1
102
RTVSPropertyOp16
 70
     1
102
RTVSPropertyOp17
 70
     1
102
RTVSPropertyOp18
 70
     1
102
RTVSPropertyOp19
 70
     1
102
RTVSPropertyOp20
 70
     1
102
RTVSPropertyOp21
 70
     1
102
RTVSPropertyOp22
 70
     1
102
RTVSPropertyOp23
 70
     1
102
RTVSPropertyOp24
 70
     1
102
RTVSPropertyOp25
 70
     1
102
RTVSPropertyOp26
 70
     1
102
RTVSPropertyOp27
 70
     1
102
RTVSPropertyOp28
 70
     1
102
RTVSPropertyOp29
 70
     1
102
RTVSPropertyOp30
 70
     1
102
RTVSPropertyOp31
 70
     1
102
RTVSPropertyOp32
 70
     1
102
RTVSPropertyOp33
 70
     1
102
RTVSPropertyOp34
 70
     1
102
RTVSPropertyOp35
 70
     1
102
RTVSPropertyOp36
 70
     1
102
RTVSPropertyOp37
 70
     1
102
RTVSPropertyOp38
 70
     1
102
RTVSPropertyOp39
 70
     1
102
RTVSPropertyOp40
 70
     1
102
RTVSPropertyOp41
 70
     1
102
RTVSPropertyOp42
 70
     1
102
RTVSPropertyOp43
 70
     1
102
RTVSPropertyOp44
 70
     1
102
RTVSPropertyOp45
 70
     1
102
RTVSPropertyOp46
 70
     1
102
RTVSPropertyOp47
 70
     1
102
RTVSPropertyOp48
 70
     1
102
RTVSPropertyOp49
 70
     1
102
RTVSPropertyOp50
 70
     1
102
RTVSPropertyOp51
 70
     0
102
RTVSPropertyOp52
 70
     0
102
RTVSPropertyOp53
 70
     1
102
RTVSPropertyOp54
 70
     1
102
RTVSPropertyOp55
 70
     1
102
RTVSPropertyOp56
 70
     1
102
RTVSPropertyOp57
 70
     1
102
RTVSPost2010Prop28
280
     0
102
RTVSPost2010PropOp28
 70
     1
102
RTVSPost2010Prop29
280
     1
102
RTVSPost2010PropOp29
 70
     1
102
RTVSPost2010Prop30
280
     1
102
RTVSPost2010PropOp30
 70
     1
102
RTVSPost2010Prop31
280
     0
102
RTVSPost2010PropOp31
 70
     1
102
RTVSPost2010Prop32
280
     0
102
RTVSPost2010PropOp32
 70
     1
102
RTVSPost2010Prop33
280
     0
102
RTVSPost2010PropOp33
 70
     1
102
RTVSPost2010Prop34
280
     0
102
RTVSPost2010PropOp34
 70
     1
102
RTVSPost2010Prop35
280
     0
102
RTVSPost2010PropOp35
 70
     1
102
RTVSPost2010Prop36
280
     0
102
RTVSPost2010PropOp36
 70
     1
102
RTVSPost2010Prop37
 90
       50
102
RTVSPost2010PropOp37
 70
     1
102
RTVSPost2010Prop38
140
0.0
102
RTVSPost2010PropOp38
 70
     1
102
RTVSPost2010Prop39
140
1.0
102
RTVSPost2010PropOp39
 70
     1
102
RTVSPost2010Prop40
 90
        0
102
RTVSPost2010PropOp40
 70
     1
102
RTVSPost2010Prop41ColorIndex
 90
       18
102
RTVSPost2010Prop41ColorRGB
 90
        0
102
RTVSPost2010PropOp41
 70
     1
102
RTVSPost2010Prop42
 90
       50
102
RTVSPost2010PropOp42
 70
     1
102
RTVSPost2010Prop43
 90
        3
102
RTVSPost2010PropOp43
 70
     1
102
RTVSPost2010Prop44ColorIndex
 90
        5
102
RTVSPost2010Prop44ColorRGB
 90
      255
102
RTVSPost2010PropOp44
 70
     1
102
RTVSPost2010Prop45
280
     0
102
RTVSPost2010PropOp45
 70
     1
102
RTVSPost2010Prop46
 90
       50
102
RTVSPost2010PropOp46
 70
     1
102
RTVSPost2010Prop47
 90
       50
102
RTVSPost2010PropOp47
 70
     1
102
RTVSPost2010Prop48
 90
       50
102
RTVSPost2010PropOp48
 70
     1
102
RTVSPost2010Prop49
280
     0
102
RTVSPost2010PropOp49
 70
     1
102
RTVSPost2010Prop50
 90
       50
102
RTVSPost2010PropOp50
 70
     1
102
RTVSPost2010Prop51ColorIndex
 90
      256
102
RTVSPost2010Prop51ColorRGB
 90
-16777216
102
RTVSPost2010PropOp51
 70
     0
102
RTVSPost2010Prop52
140
1.0
102
RTVSPost2010PropOp52
 70
     0
102
RTVSPost2010Prop53
 90
        2
102
RTVSPost2010PropOp53
 70
     1
102
RTVSPost2010Prop54
  1
strokes_ogs.tif
102
RTVSPost2010PropOp54
 70
     1
102
RTVSPost2010Prop55
280
     0
102
RTVSPost2010PropOp55
 70
     1
102
RTVSPost2010Prop56
140
1.0
102
RTVSPost2010PropOp56
 70
     1
102
RTVSPost2010Prop57
140
1.0
102
RTVSPost2010PropOp57
 70
     1
  0
XRECORD
  5
AB
102
{ACAD_REACTORS
330
AA
102
}
330
AA
100
AcDbXrecord
280
     1
102
RTVSPropertyOp0
 70
     1
102
RTVSPropertyOp1
 70
     1
102
RTVSPropertyOp2
 70
     1
102
RTVSPropertyOp3
 70
     1
102
RTVSPropertyOp4
 70
     1
102
RTVSPropertyOp5
 70
     1
102
RTVSPropertyOp6
 70
     1
102
RTVSPropertyOp7
 70
     1
102
RTVSPropertyOp8
 70
     1
102
RTVSPropertyOp9
 70
     1
102
RTVSPropertyOp10
 70
     1
102
RTVSPropertyOp11
 70
     1
102
RTVSPropertyOp12
 70
     1
102
RTVSPropertyOp13
 70
     1
102
RTVSPropertyOp14
 70
     1
102
RTVSPropertyOp15
 70
     1
102
RTVSPropertyOp16
 70
     1
102
RTVSPropertyOp17
 70
     1
102
RTVSPropertyOp18
 70
     1
102
RTVSPropertyOp19
 70
     1
102
RTVSPropertyOp20
 70
     1
102
RTVSPropertyOp21
 70
     1
102
RTVSPropertyOp22
 70
     1
102
RTVSPropertyOp23
 70
     1
102
RTVSPropertyOp24
 70
     1
102
RTVSPropertyOp25
 70
     1
102
RTVSPropertyOp26
 70
     1
102
RTVSPropertyOp27
 70
     1
102
RTVSPropertyOp28
 70
     1
102
RTVSPropertyOp29
 70
     1
102
RTVSPropertyOp30
 70
     1
102
RTVSPropertyOp31
 70
     1
102
RTVSPropertyOp32
 70
     1
102
RTVSPropertyOp33
 70
     1
102
RTVSPropertyOp34
 70
     1
102
RTVSPropertyOp35
 70
     1
102
RTVSPropertyOp36
 70
     1
102
RTVSPropertyOp37
 70
     1
102
RTVSPropertyOp38
 70
     1
102
RTVSPropertyOp39
 70
     1
102
RTVSPropertyOp40
 70
     1
102
RTVSPropertyOp41
 70
     1
102
RTVSPropertyOp42
 70
     1
102
RTVSPropertyOp43
 70
     1
102
RTVSPropertyOp44
 70
     1
102
RTVSPropertyOp45
 70
     1
102
RTVSPropertyOp46
 70
     1
102
RTVSPropertyOp47
 70
     1
102
RTVSPropertyOp48
 70
     1
102
RTVSPropertyOp49
 70
     1
102
RTVSPropertyOp50
 70
     1
102
RTVSPropertyOp51
 70
     0
102
RTVSPropertyOp52
 70
     0
102
RTVSPropertyOp53
 70
     1
102
RTVSPropertyOp54
 70
     1
102
RTVSPropertyOp55
 70
     1
102
RTVSPropertyOp56
 70
     1
102
RTVSPropertyOp57
 70
     1
102
RTVSPost2010Prop28
280
     0
102
RTVSPost2010PropOp28
 70
     1
102
RTVSPost2010Prop29
280
     1
102
RTVSPost2010PropOp29
 70
     1
102
RTVSPost2010Prop30
280
     1
102
RTVSPost2010PropOp30
 70
     1
102
RTVSPost2010Prop31
280
     0
102
RTVSPost2010PropOp31
 70
     1
102
RTVSPost2010Prop32
280
     0
102
RTVSPost2010PropOp32
 70
     1
102
RTVSPost2010Prop33
280
     0
102
RTVSPost2010PropOp33
 70
     1
102
RTVSPost2010Prop34
280
     0
102
RTVSPost2010PropOp34
 70
     1
102
RTVSPost2010Prop35
280
     0
102
RTVSPost2010PropOp35
 70
     1
102
RTVSPost2010Prop36
280
     0
102
RTVSPost2010PropOp36
 70
     1
102
RTVSPost2010Prop37
 90
       50
102
RTVSPost2010PropOp37
 70
     1
102
RTVSPost2010Prop38
140
0.0
102
RTVSPost2010PropOp38
 70
     1
102
RTVSPost2010Prop39
140
1.0
102
RTVSPost2010PropOp39
 70
     1
102
RTVSPost2010Prop40
 90
        0
102
RTVSPost2010PropOp40
 70
     1
102
RTVSPost2010Prop41ColorIndex
 90
       18
102
RTVSPost2010Prop41ColorRGB
 90
        0
102
RTVSPost2010PropOp41
 70
     1
102
RTVSPost2010Prop42
 90
       50
102
RTVSPost2010PropOp42
 70
     1
102
RTVSPost2010Prop43
 90
        3
102
RTVSPost2010PropOp43
 70
     1
102
RTVSPost2010Prop44ColorIndex
 90
        5
102
RTVSPost2010Prop44ColorRGB
 90
      255
102
RTVSPost2010PropOp44
 70
     1
102
RTVSPost2010Prop45
280
     0
102
RTVSPost2010PropOp45
 70
     1
102
RTVSPost2010Prop46
 90
       50
102
RTVSPost2010PropOp46
 70
     1
102
RTVSPost2010Prop47
 90
       50
102
RTVSPost2010PropOp47
 70
     1
102
RTVSPost2010Prop48
 90
       50
102
RTVSPost2010PropOp48
 70
     1
102
RTVSPost2010Prop49
280
     0
102
RTVSPost2010PropOp49
 70
     1
102
RTVSPost2010Prop50
 90
       50
102
RTVSPost2010PropOp50
 70
     1
102
RTVSPost2010Prop51ColorIndex
 90
      256
102
RTVSPost2010Prop51ColorRGB
 90
-16777216
102
RTVSPost2010PropOp51
 70
     0
102
RTVSPost2010Prop52
140
1.0
102
RTVSPost2010PropOp52
 70
     0
102
RTVSPost2010Prop53
 90
        2
102
RTVSPost2010PropOp53
 70
     1
102
RTVSPost2010Prop54
  1
strokes_ogs.tif
102
RTVSPost2010PropOp54
 70
     1
102
RTVSPost2010Prop55
280
     0
102
RTVSPost2010PropOp55
 70
     1
102
RTVSPost2010Prop56
140
1.0
102
RTVSPost2010PropOp56
 70
     1
102
RTVSPost2010Prop57
140
1.0
102
RTVSPost2010PropOp57
 70
     1
  0
ENDSEC
  0
EOF
