  0
SECTION
  2
HEADER
  9
$ACADVER
  1
AC1015
  9
$ACADMAINTVER
 70
     6
  9
$DWGCODEPAGE
  3
ANSI_1252
  9
$INSBASE
 10
0.0
 20
0.0
 30
0.0
  9
$EXTMIN
 10
0.0
 20
0.0
 30
0.0
  9
$EXTMAX
 10
1011.431885
 20
720.806152
 30
2.0
  9
$LIMMIN
 10
0.0
 20
0.0
  9
$LIMMAX
 10
420.0
 20
297.0
  9
$ORTHOMODE
 70
     0
  9
$REGENMODE
 70
     1
  9
$FILLMODE
 70
     1
  9
$QTEXTMODE
 70
     0
  9
$MIRRTEXT
 70
     1
  9
$LTSCALE
 40
1.0
  9
$ATTMODE
 70
     1
  9
$TEXTSIZE
 40
2.5
  9
$TRACEWID
 40
1.0
  9
$TEXTSTYLE
  7
Standard
  9
$CLAYER
  8
0
  9
$CELTYPE
  6
ByLayer
  9
$CECOLOR
 62
   256
  9
$CELTSCALE
 40
1.0
  9
$DISPSILH
 70
     0
  9
$DIMSCALE
 40
1.0
  9
$DIMASZ
 40
2.5
  9
$DIMEXO
 40
0.625
  9
$DIMDLI
 40
3.75
  9
$DIMRND
 40
0.0
  9
$DIMDLE
 40
0.0
  9
$DIMEXE
 40
1.25
  9
$DIMTP
 40
0.0
  9
$DIMTM
 40
0.0
  9
$DIMTXT
 40
2.5
  9
$DIMCEN
 40
2.5
  9
$DIMTSZ
 40
0.0
  9
$DIMTOL
 70
     0
  9
$DIMLIM
 70
     0
  9
$DIMTIH
 70
     0
  9
$DIMTOH
 70
     0
  9
$DIMSE1
 70
     0
  9
$DIMSE2
 70
     0
  9
$DIMTAD
 70
     1
  9
$DIMZIN
 70
     8
  9
$DIMBLK
  1

  9
$DIMASO
 70
     1
  9
$DIMSHO
 70
     1
  9
$DIMPOST
  1

  9
$DIMAPOST
  1

  9
$DIMALT
 70
     0
  9
$DIMALTD
 70
     3
  9
$DIMALTF
 40
0.03937
  9
$DIMLFAC
 40
1.0
  9
$DIMTOFL
 70
     1
  9
$DIMTVP
 40
0.0
  9
$DIMTIX
 70
     0
  9
$DIMSOXD
 70
     0
  9
$DIMSAH
 70
     0
  9
$DIMBLK1
  1

  9
$DIMBLK2
  1

  9
$DIMSTYLE
  2
Standard
  9
$DIMCLRD
 70
     0
  9
$DIMCLRE
 70
     0
  9
$DIMCLRT
 70
     0
  9
$DIMTFAC
 40
1.0
  9
$DIMGAP
 40
0.625
  9
$DIMJUST
 70
     0
  9
$DIMSD1
 70
     0
  9
$DIMSD2
 70
     0
  9
$DIMTOLJ
 70
     0
  9
$DIMTZIN
 70
     8
  9
$DIMALTZ
 70
     0
  9
$DIMALTTZ
 70
     0
  9
$DIMUPT
 70
     0
  9
$DIMDEC
 70
     2
  9
$DIMTDEC
 70
     2
  9
$DIMALTU
 70
     2
  9
$DIMALTTD
 70
     3
  9
$DIMTXSTY
  7
Standard
  9
$DIMAUNIT
 70
     0
  9
$DIMADEC
 70
     0
  9
$DIMALTRND
 40
0.0
  9
$DIMAZIN
 70
     0
  9
$DIMDSEP
 70
    44
  9
$DIMATFIT
 70
     0
  9
$DIMFRAC
 70
     0
  9
$DIMLDRBLK
  1

  9
$DIMLUNIT
 70
     2
  9
$DIMLWD
 70
    -2
  9
$DIMLWE
 70
    -2
  9
$DIMTMOVE
 70
     0
  9
$LUNITS
 70
     2
  9
$LUPREC
 70
     4
  9
$SKETCHINC
 40
1.0
  9
$FILLETRAD
 40
2.5
  9
$AUNITS
 70
     0
  9
$AUPREC
 70
     0
  9
$MENU
  1
.
  9
$ELEVATION
 40
0.0
  9
$PELEVATION
 40
0.0
  9
$THICKNESS
 40
0.0
  9
$LIMCHECK
 70
     0
  9
$CHAMFERA
 40
2.5
  9
$CHAMFERB
 40
2.5
  9
$CHAMFERC
 40
0.0
  9
$CHAMFERD
 40
0.0
  9
$SKPOLY
 70
     0
  9
$TDCREATE
 40
2447893.125
  9
$TDUCREATE
 40
0.0
  9
$TDUPDATE
 40
2458345.490859491
  9
$TDUUPDATE
 40
2458345.365859491
  9
$TDINDWG
 40
0.0
  9
$TDUSRTIMER
 40
0.0
  9
$USRTIMER
 70
     1
  9
$ANGBASE
 50
0.0
  9
$ANGDIR
 70
     0
  9
$PDMODE
 70
     0
  9
$PDSIZE
 40
0.0
  9
$PLINEWID
 40
0.0
  9
$SPLFRAME
 70
     0
  9
$SPLINETYPE
 70
     6
  9
$SPLINESEGS
 70
     8
  9
$HANDSEED
  5
21F
  9
$SURFTAB1
 70
     6
  9
$SURFTAB2
 70
     6
  9
$SURFTYPE
 70
     6
  9
$SURFU
 70
     6
  9
$SURFV
 70
     6
  9
$UCSBASE
  2

  9
$UCSNAME
  2

  9
$UCSORG
 10
0.0
 20
0.0
 30
0.0
  9
$UCSXDIR
 10
1.0
 20
0.0
 30
0.0
  9
$UCSYDIR
 10
0.0
 20
1.0
 30
0.0
  9
$UCSORTHOREF
  2

  9
$UCSORTHOVIEW
 70
     1
  9
$UCSORGTOP
 10
0.0
 20
0.0
 30
0.0
  9
$UCSORGBOTTOM
 10
0.0
 20
0.0
 30
0.0
  9
$UCSORGLEFT
 10
0.0
 20
0.0
 30
0.0
  9
$UCSORGRIGHT
 10
0.0
 20
0.0
 30
0.0
  9
$UCSORGFRONT
 10
0.0
 20
0.0
 30
0.0
  9
$UCSORGBACK
 10
0.0
 20
0.0
 30
0.0
  9
$PUCSBASE
  2

  9
$PUCSNAME
  2

  9
$PUCSORG
 10
0.0
 20
0.0
 30
0.0
  9
$PUCSXDIR
 10
1.0
 20
0.0
 30
0.0
  9
$PUCSYDIR
 10
0.0
 20
1.0
 30
0.0
  9
$PUCSORTHOREF
  2

  9
$PUCSORTHOVIEW
 70
     0
  9
$PUCSORGTOP
 10
0.0
 20
0.0
 30
0.0
  9
$PUCSORGBOTTOM
 10
0.0
 20
0.0
 30
0.0
  9
$PUCSORGLEFT
 10
0.0
 20
0.0
 30
0.0
  9
$PUCSORGRIGHT
 10
0.0
 20
0.0
 30
0.0
  9
$PUCSORGFRONT
 10
0.0
 20
0.0
 30
0.0
  9
$PUCSORGBACK
 10
0.0
 20
0.0
 30
0.0
  9
$USERI1
 70
     0
  9
$USERI2
 70
     0
  9
$USERI3
 70
     0
  9
$USERI4
 70
     0
  9
$USERI5
 70
     0
  9
$USERR1
 40
0.0
  9
$USERR2
 40
0.0
  9
$USERR3
 40
0.0
  9
$USERR4
 40
0.0
  9
$USERR5
 40
0.0
  9
$WORLDVIEW
 70
     1
  9
$SHADEDGE
 70
     3
  9
$SHADEDIF
 70
    70
  9
$TILEMODE
 70
     1
  9
$MAXACTVP
 70
    64
  9
$PINSBASE
 10
0.0
 20
0.0
 30
0.0
  9
$PLIMCHECK
 70
     0
  9
$PEXTMIN
 10
0.0
 20
0.0
 30
0.0
  9
$PEXTMAX
 10
1011.431885
 20
720.806152
 30
2.0
  9
$PLIMMIN
 10
0.0
 20
0.0
  9
$PLIMMAX
 10
420.0
 20
297.0
  9
$UNITMODE
 70
     0
  9
$VISRETAIN
 70
     0
  9
$PLINEGEN
 70
     0
  9
$PSLTSCALE
 70
     1
  9
$TREEDEPTH
 70
  3020
  9
$CMLSTYLE
  2
Standard
  9
$CMLJUST
 70
     0
  9
$CMLSCALE
 40
20.0
  9
$PROXYGRAPHICS
 70
     1
  9
$MEASUREMENT
 70
     1
  9
$CELWEIGHT
370
    -1
  9
$ENDCAPS
280
     0
  9
$JOINSTYLE
280
     0
  9
$LWDISPLAY
290
     0
  9
$INSUNITS
 70
     0
  9
$HYPERLINKBASE
  1

  9
$STYLESHEET
  1

  9
$XEDIT
290
     1
  9
$CEPSNTYPE
380
     0
  9
$PSTYLEMODE
290
     0
  9
$FINGERPRINTGUID
  2
{DD311D9C-C656-4BFE-9EBD-71EA062642B6}
  9
$VERSIONGUID
  2
{FAEB1C32-E019-11D5-929B-00C0DF256EC4}
  9
$EXTNAMES
290
     1
  9
$PSVPSCALE
 40
0.0
  9
$OLESTARTUP
290
     0
  0
ENDSEC
  0
SECTION
  2
CLASSES
  0
CLASS
  1
ACDBDICTIONARYWDFLT
  2
AcDbDictionaryWithDefault
  3
ObjectDBX Classes
 90
        0
280
     0
281
     0
  0
CLASS
  1
VISUALSTYLE
  2
AcDbVisualStyle
  3
ObjectDBX Classes
 90
     4095
280
     0
281
     0
  0
CLASS
  1
MATERIAL
  2
AcDbMaterial
  3
ObjectDBX Classes
 90
     1153
280
     0
281
     0
  0
CLASS
  1
SCALE
  2
AcDbScale
  3
ObjectDBX Classes
 90
     1153
280
     0
281
     0
  0
CLASS
  1
SUN
  2
AcDbSun
  3
SCENEOE
 90
     1153
280
     0
281
     0
  0
CLASS
  1
ACDBPLACEHOLDER
  2
AcDbPlaceHolder
  3
ObjectDBX Classes
 90
        0
280
     0
281
     0
  0
CLASS
  1
LAYOUT
  2
AcDbLayout
  3
ObjectDBX Classes
 90
        0
280
     0
281
     0
  0
ENDSEC
  0
SECTION
  2
TABLES
  0
TABLE
  2
VPORT
  5
8
330
0
100
AcDbSymbolTable
 70
     1
  0
VPORT
  5
29
330
8
100
AcDbSymbolTableRecord
100
AcDbViewportTableRecord
  2
*Active
 70
     0
 10
0.0
 20
0.0
 11
1.0
 21
1.0
 12
10.429907
 22
4.5
 13
0.0
 23
0.0
 14
0.5
 24
0.5
 15
0.5
 25
0.5
 16
0.0
 26
0.0
 36
1.0
 17
0.0
 27
0.0
 37
0.0
 40
9.0
 41
1.972973
 42
50.0
 43
0.0
 44
0.0
 50
0.0
 51
0.0
 71
     0
 72
   100
 73
     1
 74
     3
 75
     0
 76
     0
 77
     0
 78
     0
281
     0
 65
     1
110
0.0
120
0.0
130
0.0
111
1.0
121
0.0
131
0.0
112
0.0
122
1.0
132
0.0
 79
     0
146
0.0
  0
ENDTAB
  0
TABLE
  2
LTYPE
  5
5
330
0
100
AcDbSymbolTable
 70
     2
  0
LTYPE
  5
14
330
5
100
AcDbSymbolTableRecord
100
AcDbLinetypeTableRecord
  2
ByBlock
 70
     0
  3

 72
    65
 73
     0
 40
0.0
  0
LTYPE
  5
15
330
5
100
AcDbSymbolTableRecord
100
AcDbLinetypeTableRecord
  2
ByLayer
 70
     0
  3

 72
    65
 73
     0
 40
0.0
  0
LTYPE
  5
16
330
5
100
AcDbSymbolTableRecord
100
AcDbLinetypeTableRecord
  2
Continuous
 70
     0
  3
Solid line
 72
    65
 73
     0
 40
0.0
  0
LTYPE
  5
6A
330
5
100
AcDbSymbolTableRecord
100
AcDbLinetypeTableRecord
  2
DASHSPACE
 70
     0
  3
__    __    __    __    __   
 72
    65
 73
     2
 40
30.0
 49
12.0
 74
     0
 49
-18.0
 74
     0
  0
ENDTAB
  0
TABLE
  2
LAYER
  5
2
330
0
100
AcDbSymbolTable
 70
     1
  0
LAYER
  5
10
330
2
100
AcDbSymbolTableRecord
100
AcDbLayerTableRecord
  2
0
 70
     0
 62
     7
  6
Continuous
370
    -3
390
F
  0
ENDTAB
  0
TABLE
  2
STYLE
  5
3
330
0
100
AcDbSymbolTable
 70
     1
  0
STYLE
  5
11
330
3
100
AcDbSymbolTableRecord
100
AcDbTextStyleTableRecord
  2
Standard
 70
     0
 40
0.0
 41
1.0
 50
0.0
 71
     0
 42
2.5
  3
txt
  4

  0
ENDTAB
  0
TABLE
  2
VIEW
  5
6
330
0
100
AcDbSymbolTable
 70
     0
  0
ENDTAB
  0
TABLE
  2
UCS
  5
7
330
0
100
AcDbSymbolTable
 70
     0
  0
ENDTAB
  0
TABLE
  2
APPID
  5
9
330
0
100
AcDbSymbolTable
 70
     1
  0
APPID
  5
12
330
9
100
AcDbSymbolTableRecord
100
AcDbRegAppTableRecord
  2
ACAD
 70
     0
  0
ENDTAB
  0
TABLE
  2
DIMSTYLE
  5
A
330
0
100
AcDbSymbolTable
 70
     1
100
AcDbDimStyleTable
  0
DIMSTYLE
105
27
330
A
100
AcDbSymbolTableRecord
100
AcDbDimStyleTableRecord
  2
Standard
 70
     0
178
     0
340
11
  0
ENDTAB
  0
TABLE
  2
BLOCK_RECORD
  5
1
330
0
100
AcDbSymbolTable
 70
     1
  0
BLOCK_RECORD
  5
1F
330
1
100
AcDbSymbolTableRecord
100
AcDbBlockTableRecord
  2
*Model_Space
340
22
  0
BLOCK_RECORD
  5
1B
330
1
100
AcDbSymbolTableRecord
100
AcDbBlockTableRecord
  2
*Paper_Space
340
1E
  0
BLOCK_RECORD
  5
23
330
1
100
AcDbSymbolTableRecord
100
AcDbBlockTableRecord
  2
*Paper_Space0
340
26
  0
ENDTAB
  0
ENDSEC
  0
SECTION
  2
BLOCKS
  0
BLOCK
  5
20
330
1F
100
AcDbEntity
  8
0
100
AcDbBlockBegin
  2
*Model_Space
 70
     0
 10
0.0
 20
0.0
 30
0.0
  3
*Model_Space
  1
*Model_Space
  0
ENDBLK
  5
21
330
1F
100
AcDbEntity
  8
0
100
AcDbBlockEnd
  0
BLOCK
  5
1C
330
1B
100
AcDbEntity
 67
     1
  8
0
100
AcDbBlockBegin
  2
*Paper_Space
 70
     0
 10
0.0
 20
0.0
 30
0.0
  3
*Paper_Space
  1
*Paper_Space
  0
ENDBLK
  5
1D
330
1B
100
AcDbEntity
 67
     1
  8
0
100
AcDbBlockEnd
  0
BLOCK
  5
24
330
23
100
AcDbEntity
  8
0
100
AcDbBlockBegin
  2
*Paper_Space0
 70
     0
 10
0.0
 20
0.0
 30
0.0
  3
*Paper_Space0
  1
*Paper_Space0
  0
ENDBLK
  5
25
330
23
100
AcDbEntity
  8
0
100
AcDbBlockEnd
  0
ENDSEC
  0
SECTION
  2
ENTITIES
  0
POLYLINE
  5
6B
330
1F
100
AcDbEntity
  8
0
 62
     7
370
    13
100
AcDb2dPolyline
 66
     1
 10
0.0
 20
0.0
 30
0.0
  0
VERTEX
  5
6C
330
6B
100
AcDbEntity
  8
0
370
     0
100
AcDbVertex
100
AcDb2dVertex
 10
573.409668
 20
664.468933
 30
0.0
  0
VERTEX
  5
6D
330
6B
100
AcDbEntity
  8
0
370
     0
100
AcDbVertex
100
AcDb2dVertex
 10
574.764526
 20
663.565735
 30
0.0
  0
VERTEX
  5
6E
330
6B
100
AcDbEntity
  8
0
370
     0
100
AcDbVertex
100
AcDb2dVertex
 10
577.022583
 20
662.888306
 30
0.0
  0
VERTEX
  5
6F
330
6B
100
AcDbEntity
  8
0
370
     0
100
AcDbVertex
100
AcDb2dVertex
 10
578.829041
 20
662.888306
 30
0.0
  0
VERTEX
  5
70
330
6B
100
AcDbEntity
  8
0
370
     0
100
AcDbVertex
100
AcDb2dVertex
 10
581.087097
 20
663.565735
 30
0.0
  0
SEQEND
  5
71
330
6B
100
AcDbEntity
  8
0
 62
     7
370
    13
  0
POLYLINE
  5
72
330
1F
100
AcDbEntity
  8
0
 62
     7
370
    13
100
AcDb2dPolyline
 66
     1
 10
0.0
 20
0.0
 30
0.0
  0
VERTEX
  5
73
330
72
100
AcDbEntity
  8
0
370
     0
100
AcDbVertex
100
AcDb2dVertex
 10
581.087097
 20
676.210876
 30
0.0
  0
VERTEX
  5
74
330
72
100
AcDbEntity
  8
0
370
     0
100
AcDbVertex
100
AcDb2dVertex
 10
578.829041
 20
676.888306
 30
0.0
  0
VERTEX
  5
75
330
72
100
AcDbEntity
  8
0
370
     0
100
AcDbVertex
100
AcDb2dVertex
 10
577.022583
 20
676.888306
 30
0.0
  0
VERTEX
  5
76
330
72
100
AcDbEntity
  8
0
370
     0
100
AcDbVertex
100
AcDb2dVertex
 10
574.764526
 20
676.210876
 30
0.0
  0
SEQEND
  5
77
330
72
100
AcDbEntity
  8
0
 62
     7
370
    13
  0
POLYLINE
  5
78
330
1F
100
AcDbEntity
  8
0
 62
     7
370
    13
100
AcDb2dPolyline
 66
     1
 10
0.0
 20
0.0
 30
0.0
  0
VERTEX
  5
79
330
78
100
AcDbEntity
  8
0
370
     0
100
AcDbVertex
100
AcDb2dVertex
 10
573.409668
 20
664.468933
 30
0.0
  0
VERTEX
  5
7A
330
78
100
AcDbEntity
  8
0
370
     0
100
AcDbVertex
100
AcDb2dVertex
 10
572.732239
 20
665.823792
 30
0.0
  0
VERTEX
  5
7B
330
78
100
AcDbEntity
  8
0
370
     0
100
AcDbVertex
100
AcDb2dVertex
 10
572.732239
 20
667.17865
 30
0.0
  0
VERTEX
  5
7C
330
78
100
AcDbEntity
  8
0
370
     0
100
AcDbVertex
100
AcDb2dVertex
 10
573.409668
 20
668.533447
 30
0.0
  0
VERTEX
  5
7D
330
78
100
AcDbEntity
  8
0
370
     0
100
AcDbVertex
100
AcDb2dVertex
 10
574.990295
 20
669.888306
 30
0.0
  0
VERTEX
  5
7E
330
78
100
AcDbEntity
  8
0
370
     0
100
AcDbVertex
100
AcDb2dVertex
 10
579.732239
 20
671.243164
 30
0.0
  0
VERTEX
  5
7F
330
78
100
AcDbEntity
  8
0
370
     0
100
AcDbVertex
100
AcDb2dVertex
 10
580.861267
 20
671.694763
 30
0.0
  0
VERTEX
  5
80
330
78
100
AcDbEntity
  8
0
370
     0
100
AcDbVertex
100
AcDb2dVertex
 10
581.538696
 20
672.372192
 30
0.0
  0
VERTEX
  5
81
330
78
100
AcDbEntity
  8
0
370
     0
100
AcDbVertex
100
AcDb2dVertex
 10
581.990295
 20
673.501221
 30
0.0
  0
VERTEX
  5
82
330
78
100
AcDbEntity
  8
0
370
     0
100
AcDbVertex
100
AcDb2dVertex
 10
581.990295
 20
675.081848
 30
0.0
  0
VERTEX
  5
83
330
78
100
AcDbEntity
  8
0
370
     0
100
AcDbVertex
100
AcDb2dVertex
 10
581.087097
 20
676.210876
 30
0.0
  0
SEQEND
  5
84
330
78
100
AcDbEntity
  8
0
 62
     7
370
    13
  0
POLYLINE
  5
85
330
1F
100
AcDbEntity
  8
0
 62
     7
370
    13
100
AcDb2dPolyline
 66
     1
 10
0.0
 20
0.0
 30
0.0
  0
VERTEX
  5
86
330
85
100
AcDbEntity
  8
0
370
     0
100
AcDbVertex
100
AcDb2dVertex
 10
574.764526
 20
676.210876
 30
0.0
  0
VERTEX
  5
87
330
85
100
AcDbEntity
  8
0
370
     0
100
AcDbVertex
100
AcDb2dVertex
 10
573.861267
 20
675.081848
 30
0.0
  0
VERTEX
  5
88
330
85
100
AcDbEntity
  8
0
370
     0
100
AcDbVertex
100
AcDb2dVertex
 10
573.861267
 20
673.501221
 30
0.0
  0
VERTEX
  5
89
330
85
100
AcDbEntity
  8
0
370
     0
100
AcDbVertex
100
AcDb2dVertex
 10
574.312927
 20
672.372192
 30
0.0
  0
VERTEX
  5
8A
330
85
100
AcDbEntity
  8
0
370
     0
100
AcDbVertex
100
AcDb2dVertex
 10
574.990295
 20
671.694763
 30
0.0
  0
VERTEX
  5
8B
330
85
100
AcDbEntity
  8
0
370
     0
100
AcDbVertex
100
AcDb2dVertex
 10
576.119385
 20
671.243164
 30
0.0
  0
VERTEX
  5
8C
330
85
100
AcDbEntity
  8
0
370
     0
100
AcDbVertex
100
AcDb2dVertex
 10
581.087097
 20
669.888306
 30
0.0
  0
SEQEND
  5
8D
330
85
100
AcDbEntity
  8
0
 62
     7
370
    13
  0
POLYLINE
  5
8E
330
1F
100
AcDbEntity
  8
0
 62
     7
370
    13
100
AcDb2dPolyline
 66
     1
 10
0.0
 20
0.0
 30
0.0
  0
VERTEX
  5
8F
330
8E
100
AcDbEntity
  8
0
370
     0
100
AcDbVertex
100
AcDb2dVertex
 10
582.667725
 20
668.533447
 30
0.0
  0
VERTEX
  5
90
330
8E
100
AcDbEntity
  8
0
370
     0
100
AcDbVertex
100
AcDb2dVertex
 10
583.345154
 20
667.17865
 30
0.0
  0
VERTEX
  5
91
330
8E
100
AcDbEntity
  8
0
370
     0
100
AcDbVertex
100
AcDb2dVertex
 10
583.345154
 20
665.823792
 30
0.0
  0
VERTEX
  5
92
330
8E
100
AcDbEntity
  8
0
370
     0
100
AcDbVertex
100
AcDb2dVertex
 10
582.667725
 20
664.468933
 30
0.0
  0
VERTEX
  5
93
330
8E
100
AcDbEntity
  8
0
370
     0
100
AcDbVertex
100
AcDb2dVertex
 10
581.087097
 20
663.565735
 30
0.0
  0
SEQEND
  5
94
330
8E
100
AcDbEntity
  8
0
 62
     7
370
    13
  0
POLYLINE
  5
95
330
1F
100
AcDbEntity
  8
0
 62
     7
370
    13
100
AcDb2dPolyline
 66
     1
 10
0.0
 20
0.0
 30
0.0
  0
VERTEX
  5
96
330
95
100
AcDbEntity
  8
0
370
     0
100
AcDbVertex
100
AcDb2dVertex
 10
582.667725
 20
668.533447
 30
0.0
  0
VERTEX
  5
97
330
95
100
AcDbEntity
  8
0
370
     0
100
AcDbVertex
100
AcDb2dVertex
 10
581.087097
 20
669.888306
 30
0.0
  0
SEQEND
  5
98
330
95
100
AcDbEntity
  8
0
 62
     7
370
    13
  0
POLYLINE
  5
99
330
1F
100
AcDbEntity
  8
0
 62
     7
370
    13
100
AcDb2dPolyline
 66
     1
 10
0.0
 20
0.0
 30
0.0
  0
VERTEX
  5
9A
330
99
100
AcDbEntity
  8
0
370
     0
100
AcDbVertex
100
AcDb2dVertex
 10
599.919373
 20
662.888306
 30
0.0
  0
VERTEX
  5
9B
330
99
100
AcDbEntity
  8
0
370
     0
100
AcDbVertex
100
AcDb2dVertex
 10
589.080627
 20
662.888306
 30
0.0
  0
VERTEX
  5
9C
330
99
100
AcDbEntity
  8
0
370
     0
100
AcDbVertex
100
AcDb2dVertex
 10
596.758057
 20
669.210876
 30
0.0
  0
VERTEX
  5
9D
330
99
100
AcDbEntity
  8
0
370
     0
100
AcDbVertex
100
AcDb2dVertex
 10
598.338684
 20
671.017334
 30
0.0
  0
VERTEX
  5
9E
330
99
100
AcDbEntity
  8
0
370
     0
100
AcDbVertex
100
AcDb2dVertex
 10
599.016113
 20
672.372192
 30
0.0
  0
VERTEX
  5
9F
330
99
100
AcDbEntity
  8
0
370
     0
100
AcDbVertex
100
AcDb2dVertex
 10
599.016113
 20
673.727051
 30
0.0
  0
VERTEX
  5
A0
330
99
100
AcDbEntity
  8
0
370
     0
100
AcDbVertex
100
AcDb2dVertex
 10
598.338684
 20
675.307678
 30
0.0
  0
VERTEX
  5
A1
330
99
100
AcDbEntity
  8
0
370
     0
100
AcDbVertex
100
AcDb2dVertex
 10
597.661316
 20
676.210876
 30
0.0
  0
VERTEX
  5
A2
330
99
100
AcDbEntity
  8
0
370
     0
100
AcDbVertex
100
AcDb2dVertex
 10
596.080627
 20
676.888306
 30
0.0
  0
VERTEX
  5
A3
330
99
100
AcDbEntity
  8
0
370
     0
100
AcDbVertex
100
AcDb2dVertex
 10
593.370972
 20
676.888306
 30
0.0
  0
VERTEX
  5
A4
330
99
100
AcDbEntity
  8
0
370
     0
100
AcDbVertex
100
AcDb2dVertex
 10
591.790344
 20
676.210876
 30
0.0
  0
VERTEX
  5
A5
330
99
100
AcDbEntity
  8
0
370
     0
100
AcDbVertex
100
AcDb2dVertex
 10
591.112915
 20
675.533447
 30
0.0
  0
VERTEX
  5
A6
330
99
100
AcDbEntity
  8
0
370
     0
100
AcDbVertex
100
AcDb2dVertex
 10
590.209656
 20
674.17865
 30
0.0
  0
VERTEX
  5
A7
330
99
100
AcDbEntity
  8
0
370
     0
100
AcDbVertex
100
AcDb2dVertex
 10
590.209656
 20
673.501221
 30
0.0
  0
SEQEND
  5
A8
330
99
100
AcDbEntity
  8
0
 62
     7
370
    13
  0
POLYLINE
  5
A9
330
1F
100
AcDbEntity
  8
0
 62
     7
370
    13
100
AcDb2dPolyline
 66
     1
 10
0.0
 20
0.0
 30
0.0
 70
     1
  0
VERTEX
  5
AA
330
A9
100
AcDbEntity
  8
0
370
     0
100
AcDbVertex
100
AcDb2dVertex
 10
609.94519
 20
676.888306
 30
0.0
  0
VERTEX
  5
AB
330
A9
100
AcDbEntity
  8
0
370
     0
100
AcDbVertex
100
AcDb2dVertex
 10
607.461304
 20
676.210876
 30
0.0
  0
VERTEX
  5
AC
330
A9
100
AcDbEntity
  8
0
370
     0
100
AcDbVertex
100
AcDb2dVertex
 10
605.880615
 20
673.95282
 30
0.0
  0
VERTEX
  5
AD
330
A9
100
AcDbEntity
  8
0
370
     0
100
AcDbVertex
100
AcDb2dVertex
 10
605.203247
 20
671.694763
 30
0.0
  0
VERTEX
  5
AE
330
A9
100
AcDbEntity
  8
0
370
     0
100
AcDbVertex
100
AcDb2dVertex
 10
605.203247
 20
668.759277
 30
0.0
  0
VERTEX
  5
AF
330
A9
100
AcDbEntity
  8
0
370
     0
100
AcDbVertex
100
AcDb2dVertex
 10
605.880615
 20
665.823792
 30
0.0
  0
VERTEX
  5
B0
330
A9
100
AcDbEntity
  8
0
370
     0
100
AcDbVertex
100
AcDb2dVertex
 10
607.461304
 20
663.565735
 30
0.0
  0
VERTEX
  5
B1
330
A9
100
AcDbEntity
  8
0
370
     0
100
AcDbVertex
100
AcDb2dVertex
 10
609.945129
 20
662.888306
 30
0.0
  0
VERTEX
  5
B2
330
A9
100
AcDbEntity
  8
0
370
     0
100
AcDbVertex
100
AcDb2dVertex
 10
611.751587
 20
662.888306
 30
0.0
  0
VERTEX
  5
B3
330
A9
100
AcDbEntity
  8
0
370
     0
100
AcDbVertex
100
AcDb2dVertex
 10
614.235474
 20
663.565735
 30
0.0
  0
VERTEX
  5
B4
330
A9
100
AcDbEntity
  8
0
370
     0
100
AcDbVertex
100
AcDb2dVertex
 10
615.816101
 20
665.823792
 30
0.0
  0
VERTEX
  5
B5
330
A9
100
AcDbEntity
  8
0
370
     0
100
AcDbVertex
100
AcDb2dVertex
 10
616.49353
 20
668.533447
 30
0.0
  0
VERTEX
  5
B6
330
A9
100
AcDbEntity
  8
0
370
     0
100
AcDbVertex
100
AcDb2dVertex
 10
616.49353
 20
671.694763
 30
0.0
  0
VERTEX
  5
B7
330
A9
100
AcDbEntity
  8
0
370
     0
100
AcDbVertex
100
AcDb2dVertex
 10
615.816101
 20
673.95282
 30
0.0
  0
VERTEX
  5
B8
330
A9
100
AcDbEntity
  8
0
370
     0
100
AcDbVertex
100
AcDb2dVertex
 10
614.235474
 20
676.210876
 30
0.0
  0
VERTEX
  5
B9
330
A9
100
AcDbEntity
  8
0
370
     0
100
AcDbVertex
100
AcDb2dVertex
 10
611.751587
 20
676.888306
 30
0.0
  0
SEQEND
  5
BA
330
A9
100
AcDbEntity
  8
0
 62
     7
370
    13
  0
LINE
  5
BB
330
1F
100
AcDbEntity
  8
0
 62
     7
370
    13
100
AcDbLine
 10
184.5
 20
597.5
 30
0.0
 11
184.5
 21
662.888306
 31
0.0
  0
LINE
  5
BC
330
1F
100
AcDbEntity
  8
0
 62
     7
370
    13
100
AcDbLine
 10
1004.5
 20
597.5
 30
0.0
 11
1004.5
 21
662.888306
 31
0.0
  0
POLYLINE
  5
BD
330
1F
100
AcDbEntity
  8
0
 62
     7
370
    13
100
AcDb2dPolyline
 66
     1
 10
0.0
 20
0.0
 30
0.0
  0
VERTEX
  5
BE
330
BD
100
AcDbEntity
  8
0
370
     0
100
AcDbVertex
100
AcDb2dVertex
 10
1002.568115
 20
660.370667
 30
0.0
  0
VERTEX
  5
BF
330
BD
100
AcDbEntity
  8
0
370
     0
100
AcDbVertex
100
AcDb2dVertex
 10
1004.5
 20
660.888306
 30
0.0
  0
VERTEX
  5
C0
330
BD
100
AcDbEntity
  8
0
370
     0
100
AcDbVertex
100
AcDb2dVertex
 10
1002.568115
 20
661.405945
 30
0.0
  0
SEQEND
  5
C1
330
BD
100
AcDbEntity
  8
0
 62
     7
370
    13
  0
POLYLINE
  5
C2
330
1F
100
AcDbEntity
  8
0
 62
     7
370
    13
100
AcDb2dPolyline
 66
     1
 10
0.0
 20
0.0
 30
0.0
  0
VERTEX
  5
C3
330
C2
100
AcDbEntity
  8
0
370
     0
100
AcDbVertex
100
AcDb2dVertex
 10
186.431854
 20
661.405945
 30
0.0
  0
VERTEX
  5
C4
330
C2
100
AcDbEntity
  8
0
370
     0
100
AcDbVertex
100
AcDb2dVertex
 10
184.5
 20
660.888306
 30
0.0
  0
VERTEX
  5
C5
330
C2
100
AcDbEntity
  8
0
370
     0
100
AcDbVertex
100
AcDb2dVertex
 10
186.431854
 20
660.370667
 30
0.0
  0
SEQEND
  5
C6
330
C2
100
AcDbEntity
  8
0
 62
     7
370
    13
  0
LINE
  5
C7
330
1F
100
AcDbEntity
  8
0
 62
     7
370
    13
100
AcDbLine
 10
184.5
 20
660.888306
 30
0.0
 11
1004.5
 21
660.888306
 31
0.0
  0
POLYLINE
  5
C8
330
1F
100
AcDbEntity
  8
0
 62
     7
370
    13
100
AcDb2dPolyline
 66
     1
 10
0.0
 20
0.0
 30
0.0
  0
VERTEX
  5
C9
330
C8
100
AcDbEntity
  8
0
370
     0
100
AcDbVertex
100
AcDb2dVertex
 10
573.409668
 20
707.386841
 30
0.0
  0
VERTEX
  5
CA
330
C8
100
AcDbEntity
  8
0
370
     0
100
AcDbVertex
100
AcDb2dVertex
 10
574.764526
 20
706.483582
 30
0.0
  0
VERTEX
  5
CB
330
C8
100
AcDbEntity
  8
0
370
     0
100
AcDbVertex
100
AcDb2dVertex
 10
577.022583
 20
705.806152
 30
0.0
  0
VERTEX
  5
CC
330
C8
100
AcDbEntity
  8
0
370
     0
100
AcDbVertex
100
AcDb2dVertex
 10
578.829041
 20
705.806152
 30
0.0
  0
VERTEX
  5
CD
330
C8
100
AcDbEntity
  8
0
370
     0
100
AcDbVertex
100
AcDb2dVertex
 10
581.087097
 20
706.483582
 30
0.0
  0
SEQEND
  5
CE
330
C8
100
AcDbEntity
  8
0
 62
     7
370
    13
  0
POLYLINE
  5
CF
330
1F
100
AcDbEntity
  8
0
 62
     7
370
    13
100
AcDb2dPolyline
 66
     1
 10
0.0
 20
0.0
 30
0.0
  0
VERTEX
  5
D0
330
CF
100
AcDbEntity
  8
0
370
     0
100
AcDbVertex
100
AcDb2dVertex
 10
581.087097
 20
719.128723
 30
0.0
  0
VERTEX
  5
D1
330
CF
100
AcDbEntity
  8
0
370
     0
100
AcDbVertex
100
AcDb2dVertex
 10
578.829041
 20
719.806152
 30
0.0
  0
VERTEX
  5
D2
330
CF
100
AcDbEntity
  8
0
370
     0
100
AcDbVertex
100
AcDb2dVertex
 10
577.022583
 20
719.806152
 30
0.0
  0
VERTEX
  5
D3
330
CF
100
AcDbEntity
  8
0
370
     0
100
AcDbVertex
100
AcDb2dVertex
 10
574.764526
 20
719.128723
 30
0.0
  0
SEQEND
  5
D4
330
CF
100
AcDbEntity
  8
0
 62
     7
370
    13
  0
POLYLINE
  5
D5
330
1F
100
AcDbEntity
  8
0
 62
     7
370
    13
100
AcDb2dPolyline
 66
     1
 10
0.0
 20
0.0
 30
0.0
  0
VERTEX
  5
D6
330
D5
100
AcDbEntity
  8
0
370
     0
100
AcDbVertex
100
AcDb2dVertex
 10
573.409668
 20
707.386841
 30
0.0
  0
VERTEX
  5
D7
330
D5
100
AcDbEntity
  8
0
370
     0
100
AcDbVertex
100
AcDb2dVertex
 10
572.732239
 20
708.741638
 30
0.0
  0
VERTEX
  5
D8
330
D5
100
AcDbEntity
  8
0
370
     0
100
AcDbVertex
100
AcDb2dVertex
 10
572.732239
 20
710.096436
 30
0.0
  0
VERTEX
  5
D9
330
D5
100
AcDbEntity
  8
0
370
     0
100
AcDbVertex
100
AcDb2dVertex
 10
573.409668
 20
711.451294
 30
0.0
  0
VERTEX
  5
DA
330
D5
100
AcDbEntity
  8
0
370
     0
100
AcDbVertex
100
AcDb2dVertex
 10
574.990295
 20
712.806152
 30
0.0
  0
VERTEX
  5
DB
330
D5
100
AcDbEntity
  8
0
370
     0
100
AcDbVertex
100
AcDb2dVertex
 10
579.732239
 20
714.161011
 30
0.0
  0
VERTEX
  5
DC
330
D5
100
AcDbEntity
  8
0
370
     0
100
AcDbVertex
100
AcDb2dVertex
 10
580.861267
 20
714.61261
 30
0.0
  0
VERTEX
  5
DD
330
D5
100
AcDbEntity
  8
0
370
     0
100
AcDbVertex
100
AcDb2dVertex
 10
581.538696
 20
715.290039
 30
0.0
  0
VERTEX
  5
DE
330
D5
100
AcDbEntity
  8
0
370
     0
100
AcDbVertex
100
AcDb2dVertex
 10
581.990295
 20
716.419067
 30
0.0
  0
VERTEX
  5
DF
330
D5
100
AcDbEntity
  8
0
370
     0
100
AcDbVertex
100
AcDb2dVertex
 10
581.990295
 20
717.999695
 30
0.0
  0
VERTEX
  5
E0
330
D5
100
AcDbEntity
  8
0
370
     0
100
AcDbVertex
100
AcDb2dVertex
 10
581.087097
 20
719.128723
 30
0.0
  0
SEQEND
  5
E1
330
D5
100
AcDbEntity
  8
0
 62
     7
370
    13
  0
POLYLINE
  5
E2
330
1F
100
AcDbEntity
  8
0
 62
     7
370
    13
100
AcDb2dPolyline
 66
     1
 10
0.0
 20
0.0
 30
0.0
  0
VERTEX
  5
E3
330
E2
100
AcDbEntity
  8
0
370
     0
100
AcDbVertex
100
AcDb2dVertex
 10
574.764526
 20
719.128723
 30
0.0
  0
VERTEX
  5
E4
330
E2
100
AcDbEntity
  8
0
370
     0
100
AcDbVertex
100
AcDb2dVertex
 10
573.861267
 20
717.999695
 30
0.0
  0
VERTEX
  5
E5
330
E2
100
AcDbEntity
  8
0
370
     0
100
AcDbVertex
100
AcDb2dVertex
 10
573.861267
 20
716.419067
 30
0.0
  0
VERTEX
  5
E6
330
E2
100
AcDbEntity
  8
0
370
     0
100
AcDbVertex
100
AcDb2dVertex
 10
574.312927
 20
715.290039
 30
0.0
  0
VERTEX
  5
E7
330
E2
100
AcDbEntity
  8
0
370
     0
100
AcDbVertex
100
AcDb2dVertex
 10
574.990295
 20
714.61261
 30
0.0
  0
VERTEX
  5
E8
330
E2
100
AcDbEntity
  8
0
370
     0
100
AcDbVertex
100
AcDb2dVertex
 10
576.119385
 20
714.161011
 30
0.0
  0
VERTEX
  5
E9
330
E2
100
AcDbEntity
  8
0
370
     0
100
AcDbVertex
100
AcDb2dVertex
 10
581.087097
 20
712.806152
 30
0.0
  0
SEQEND
  5
EA
330
E2
100
AcDbEntity
  8
0
 62
     7
370
    13
  0
POLYLINE
  5
EB
330
1F
100
AcDbEntity
  8
0
 62
     7
370
    13
100
AcDb2dPolyline
 66
     1
 10
0.0
 20
0.0
 30
0.0
  0
VERTEX
  5
EC
330
EB
100
AcDbEntity
  8
0
370
     0
100
AcDbVertex
100
AcDb2dVertex
 10
582.667725
 20
711.451294
 30
0.0
  0
VERTEX
  5
ED
330
EB
100
AcDbEntity
  8
0
370
     0
100
AcDbVertex
100
AcDb2dVertex
 10
583.345154
 20
710.096436
 30
0.0
  0
VERTEX
  5
EE
330
EB
100
AcDbEntity
  8
0
370
     0
100
AcDbVertex
100
AcDb2dVertex
 10
583.345154
 20
708.741638
 30
0.0
  0
VERTEX
  5
EF
330
EB
100
AcDbEntity
  8
0
370
     0
100
AcDbVertex
100
AcDb2dVertex
 10
582.667725
 20
707.386841
 30
0.0
  0
VERTEX
  5
F0
330
EB
100
AcDbEntity
  8
0
370
     0
100
AcDbVertex
100
AcDb2dVertex
 10
581.087097
 20
706.483582
 30
0.0
  0
SEQEND
  5
F1
330
EB
100
AcDbEntity
  8
0
 62
     7
370
    13
  0
POLYLINE
  5
F2
330
1F
100
AcDbEntity
  8
0
 62
     7
370
    13
100
AcDb2dPolyline
 66
     1
 10
0.0
 20
0.0
 30
0.0
  0
VERTEX
  5
F3
330
F2
100
AcDbEntity
  8
0
370
     0
100
AcDbVertex
100
AcDb2dVertex
 10
582.667725
 20
711.451294
 30
0.0
  0
VERTEX
  5
F4
330
F2
100
AcDbEntity
  8
0
370
     0
100
AcDbVertex
100
AcDb2dVertex
 10
581.087097
 20
712.806152
 30
0.0
  0
SEQEND
  5
F5
330
F2
100
AcDbEntity
  8
0
 62
     7
370
    13
  0
POLYLINE
  5
F6
330
1F
100
AcDbEntity
  8
0
 62
     7
370
    13
100
AcDb2dPolyline
 66
     1
 10
0.0
 20
0.0
 30
0.0
  0
VERTEX
  5
F7
330
F6
100
AcDbEntity
  8
0
370
     0
100
AcDbVertex
100
AcDb2dVertex
 10
589.080627
 20
708.290039
 30
0.0
  0
VERTEX
  5
F8
330
F6
100
AcDbEntity
  8
0
370
     0
100
AcDbVertex
100
AcDb2dVertex
 10
589.758057
 20
707.161011
 30
0.0
  0
VERTEX
  5
F9
330
F6
100
AcDbEntity
  8
0
370
     0
100
AcDbVertex
100
AcDb2dVertex
 10
590.435486
 20
706.483582
 30
0.0
  0
VERTEX
  5
FA
330
F6
100
AcDbEntity
  8
0
370
     0
100
AcDbVertex
100
AcDb2dVertex
 10
592.919373
 20
705.806152
 30
0.0
  0
VERTEX
  5
FB
330
F6
100
AcDbEntity
  8
0
370
     0
100
AcDbVertex
100
AcDb2dVertex
 10
595.403198
 20
705.806152
 30
0.0
  0
VERTEX
  5
FC
330
F6
100
AcDbEntity
  8
0
370
     0
100
AcDbVertex
100
AcDb2dVertex
 10
598.112915
 20
706.483582
 30
0.0
  0
VERTEX
  5
FD
330
F6
100
AcDbEntity
  8
0
370
     0
100
AcDbVertex
100
AcDb2dVertex
 10
599.467712
 20
707.838379
 30
0.0
  0
VERTEX
  5
FE
330
F6
100
AcDbEntity
  8
0
370
     0
100
AcDbVertex
100
AcDb2dVertex
 10
600.145142
 20
709.870667
 30
0.0
  0
VERTEX
  5
FF
330
F6
100
AcDbEntity
  8
0
370
     0
100
AcDbVertex
100
AcDb2dVertex
 10
600.145142
 20
711.225464
 30
0.0
  0
VERTEX
  5
100
330
F6
100
AcDbEntity
  8
0
370
     0
100
AcDbVertex
100
AcDb2dVertex
 10
599.467712
 20
713.257751
 30
0.0
  0
VERTEX
  5
101
330
F6
100
AcDbEntity
  8
0
370
     0
100
AcDbVertex
100
AcDb2dVertex
 10
598.790344
 20
713.935181
 30
0.0
  0
VERTEX
  5
102
330
F6
100
AcDbEntity
  8
0
370
     0
100
AcDbVertex
100
AcDb2dVertex
 10
597.435486
 20
714.61261
 30
0.0
  0
VERTEX
  5
103
330
F6
100
AcDbEntity
  8
0
370
     0
100
AcDbVertex
100
AcDb2dVertex
 10
594.27417
 20
714.61261
 30
0.0
  0
VERTEX
  5
104
330
F6
100
AcDbEntity
  8
0
370
     0
100
AcDbVertex
100
AcDb2dVertex
 10
599.016113
 20
719.806152
 30
0.0
  0
VERTEX
  5
105
330
F6
100
AcDbEntity
  8
0
370
     0
100
AcDbVertex
100
AcDb2dVertex
 10
590.661316
 20
719.806152
 30
0.0
  0
SEQEND
  5
106
330
F6
100
AcDbEntity
  8
0
 62
     7
370
    13
  0
POLYLINE
  5
107
330
1F
100
AcDbEntity
  8
0
 62
     7
370
    13
100
AcDb2dPolyline
 66
     1
 10
0.0
 20
0.0
 30
0.0
 70
     1
  0
VERTEX
  5
108
330
107
100
AcDbEntity
  8
0
370
     0
100
AcDbVertex
100
AcDb2dVertex
 10
609.94519
 20
719.806152
 30
0.0
  0
VERTEX
  5
109
330
107
100
AcDbEntity
  8
0
370
     0
100
AcDbVertex
100
AcDb2dVertex
 10
607.461304
 20
719.128723
 30
0.0
  0
VERTEX
  5
10A
330
107
100
AcDbEntity
  8
0
370
     0
100
AcDbVertex
100
AcDb2dVertex
 10
605.880615
 20
716.870667
 30
0.0
  0
VERTEX
  5
10B
330
107
100
AcDbEntity
  8
0
370
     0
100
AcDbVertex
100
AcDb2dVertex
 10
605.203247
 20
714.61261
 30
0.0
  0
VERTEX
  5
10C
330
107
100
AcDbEntity
  8
0
370
     0
100
AcDbVertex
100
AcDb2dVertex
 10
605.203247
 20
711.677124
 30
0.0
  0
VERTEX
  5
10D
330
107
100
AcDbEntity
  8
0
370
     0
100
AcDbVertex
100
AcDb2dVertex
 10
605.880615
 20
708.741638
 30
0.0
  0
VERTEX
  5
10E
330
107
100
AcDbEntity
  8
0
370
     0
100
AcDbVertex
100
AcDb2dVertex
 10
607.461304
 20
706.483582
 30
0.0
  0
VERTEX
  5
10F
330
107
100
AcDbEntity
  8
0
370
     0
100
AcDbVertex
100
AcDb2dVertex
 10
609.945129
 20
705.806152
 30
0.0
  0
VERTEX
  5
110
330
107
100
AcDbEntity
  8
0
370
     0
100
AcDbVertex
100
AcDb2dVertex
 10
611.751587
 20
705.806152
 30
0.0
  0
VERTEX
  5
111
330
107
100
AcDbEntity
  8
0
370
     0
100
AcDbVertex
100
AcDb2dVertex
 10
614.235474
 20
706.483582
 30
0.0
  0
VERTEX
  5
112
330
107
100
AcDbEntity
  8
0
370
     0
100
AcDbVertex
100
AcDb2dVertex
 10
615.816101
 20
708.741638
 30
0.0
  0
VERTEX
  5
113
330
107
100
AcDbEntity
  8
0
370
     0
100
AcDbVertex
100
AcDb2dVertex
 10
616.49353
 20
711.451294
 30
0.0
  0
VERTEX
  5
114
330
107
100
AcDbEntity
  8
0
370
     0
100
AcDbVertex
100
AcDb2dVertex
 10
616.49353
 20
714.61261
 30
0.0
  0
VERTEX
  5
115
330
107
100
AcDbEntity
  8
0
370
     0
100
AcDbVertex
100
AcDb2dVertex
 10
615.816101
 20
716.870667
 30
0.0
  0
VERTEX
  5
116
330
107
100
AcDbEntity
  8
0
370
     0
100
AcDbVertex
100
AcDb2dVertex
 10
614.235474
 20
719.128723
 30
0.0
  0
VERTEX
  5
117
330
107
100
AcDbEntity
  8
0
370
     0
100
AcDbVertex
100
AcDb2dVertex
 10
611.751587
 20
719.806152
 30
0.0
  0
SEQEND
  5
118
330
107
100
AcDbEntity
  8
0
 62
     7
370
    13
  0
LINE
  5
119
330
1F
100
AcDbEntity
  8
0
 62
     7
370
    13
100
AcDbLine
 10
179.5
 20
600.087585
 30
0.0
 11
179.5
 21
705.806152
 31
0.0
  0
LINE
  5
11A
330
1F
100
AcDbEntity
  8
0
 62
     7
370
    13
100
AcDbLine
 10
1009.5
 20
597.5
 30
0.0
 11
1009.5
 21
705.806152
 31
0.0
  0
POLYLINE
  5
11B
330
1F
100
AcDbEntity
  8
0
 62
     7
370
    13
100
AcDb2dPolyline
 66
     1
 10
0.0
 20
0.0
 30
0.0
  0
VERTEX
  5
11C
330
11B
100
AcDbEntity
  8
0
370
     0
100
AcDbVertex
100
AcDb2dVertex
 10
181.431854
 20
704.323792
 30
0.0
  0
VERTEX
  5
11D
330
11B
100
AcDbEntity
  8
0
370
     0
100
AcDbVertex
100
AcDb2dVertex
 10
179.5
 20
703.806152
 30
0.0
  0
VERTEX
  5
11E
330
11B
100
AcDbEntity
  8
0
370
     0
100
AcDbVertex
100
AcDb2dVertex
 10
181.431854
 20
703.288513
 30
0.0
  0
SEQEND
  5
11F
330
11B
100
AcDbEntity
  8
0
 62
     7
370
    13
  0
POLYLINE
  5
120
330
1F
100
AcDbEntity
  8
0
 62
     7
370
    13
100
AcDb2dPolyline
 66
     1
 10
0.0
 20
0.0
 30
0.0
  0
VERTEX
  5
121
330
120
100
AcDbEntity
  8
0
370
     0
100
AcDbVertex
100
AcDb2dVertex
 10
1007.568115
 20
703.288513
 30
0.0
  0
VERTEX
  5
122
330
120
100
AcDbEntity
  8
0
370
     0
100
AcDbVertex
100
AcDb2dVertex
 10
1009.5
 20
703.806152
 30
0.0
  0
VERTEX
  5
123
330
120
100
AcDbEntity
  8
0
370
     0
100
AcDbVertex
100
AcDb2dVertex
 10
1007.568115
 20
704.323792
 30
0.0
  0
SEQEND
  5
124
330
120
100
AcDbEntity
  8
0
 62
     7
370
    13
  0
LINE
  5
125
330
1F
100
AcDbEntity
  8
0
 62
     7
370
    13
100
AcDbLine
 10
179.5
 20
703.806152
 30
0.0
 11
1009.5
 21
703.806152
 31
0.0
  0
POLYLINE
  5
126
330
1F
100
AcDbEntity
  8
0
 62
     7
370
    13
100
AcDb2dPolyline
 66
     1
 10
0.0
 20
0.0
 30
0.0
  0
VERTEX
  5
127
330
126
100
AcDbEntity
  8
0
370
     0
100
AcDbVertex
100
AcDb2dVertex
 10
128.924683
 20
409.119354
 30
0.0
  0
VERTEX
  5
128
330
126
100
AcDbEntity
  8
0
370
     0
100
AcDbVertex
100
AcDb2dVertex
 10
128.924683
 20
398.732269
 30
0.0
  0
VERTEX
  5
129
330
126
100
AcDbEntity
  8
0
370
     0
100
AcDbVertex
100
AcDb2dVertex
 10
119.892426
 20
406.409668
 30
0.0
  0
VERTEX
  5
12A
330
126
100
AcDbEntity
  8
0
370
     0
100
AcDbVertex
100
AcDb2dVertex
 10
126.666626
 20
406.409668
 30
0.0
  0
VERTEX
  5
12B
330
126
100
AcDbEntity
  8
0
370
     0
100
AcDbVertex
100
AcDb2dVertex
 10
133.892426
 20
406.409668
 30
0.0
  0
SEQEND
  5
12C
330
126
100
AcDbEntity
  8
0
 62
     7
370
    13
  0
POLYLINE
  5
12D
330
1F
100
AcDbEntity
  8
0
 62
     7
370
    13
100
AcDb2dPolyline
 66
     1
 10
0.0
 20
0.0
 30
0.0
 70
     1
  0
VERTEX
  5
12E
330
12D
100
AcDbEntity
  8
0
370
     0
100
AcDbVertex
100
AcDb2dVertex
 10
119.892426
 20
419.596771
 30
0.0
  0
VERTEX
  5
12F
330
12D
100
AcDbEntity
  8
0
370
     0
100
AcDbVertex
100
AcDb2dVertex
 10
120.569855
 20
417.112915
 30
0.0
  0
VERTEX
  5
130
330
12D
100
AcDbEntity
  8
0
370
     0
100
AcDbVertex
100
AcDb2dVertex
 10
122.827911
 20
415.532257
 30
0.0
  0
VERTEX
  5
131
330
12D
100
AcDbEntity
  8
0
370
     0
100
AcDbVertex
100
AcDb2dVertex
 10
125.085968
 20
414.854828
 30
0.0
  0
VERTEX
  5
132
330
12D
100
AcDbEntity
  8
0
370
     0
100
AcDbVertex
100
AcDb2dVertex
 10
128.021454
 20
414.854828
 30
0.0
  0
VERTEX
  5
133
330
12D
100
AcDbEntity
  8
0
370
     0
100
AcDbVertex
100
AcDb2dVertex
 10
130.95694
 20
415.532257
 30
0.0
  0
VERTEX
  5
134
330
12D
100
AcDbEntity
  8
0
370
     0
100
AcDbVertex
100
AcDb2dVertex
 10
133.214996
 20
417.112915
 30
0.0
  0
VERTEX
  5
135
330
12D
100
AcDbEntity
  8
0
370
     0
100
AcDbVertex
100
AcDb2dVertex
 10
133.892426
 20
419.596771
 30
0.0
  0
VERTEX
  5
136
330
12D
100
AcDbEntity
  8
0
370
     0
100
AcDbVertex
100
AcDb2dVertex
 10
133.892426
 20
421.403229
 30
0.0
  0
VERTEX
  5
137
330
12D
100
AcDbEntity
  8
0
370
     0
100
AcDbVertex
100
AcDb2dVertex
 10
133.214996
 20
423.887085
 30
0.0
  0
VERTEX
  5
138
330
12D
100
AcDbEntity
  8
0
370
     0
100
AcDbVertex
100
AcDb2dVertex
 10
130.95694
 20
425.467743
 30
0.0
  0
VERTEX
  5
139
330
12D
100
AcDbEntity
  8
0
370
     0
100
AcDbVertex
100
AcDb2dVertex
 10
128.247253
 20
426.145172
 30
0.0
  0
VERTEX
  5
13A
330
12D
100
AcDbEntity
  8
0
370
     0
100
AcDbVertex
100
AcDb2dVertex
 10
125.085968
 20
426.145172
 30
0.0
  0
VERTEX
  5
13B
330
12D
100
AcDbEntity
  8
0
370
     0
100
AcDbVertex
100
AcDb2dVertex
 10
122.827911
 20
425.467743
 30
0.0
  0
VERTEX
  5
13C
330
12D
100
AcDbEntity
  8
0
370
     0
100
AcDbVertex
100
AcDb2dVertex
 10
120.569855
 20
423.887085
 30
0.0
  0
VERTEX
  5
13D
330
12D
100
AcDbEntity
  8
0
370
     0
100
AcDbVertex
100
AcDb2dVertex
 10
119.892426
 20
421.403229
 30
0.0
  0
SEQEND
  5
13E
330
12D
100
AcDbEntity
  8
0
 62
     7
370
    13
  0
POLYLINE
  5
13F
330
1F
100
AcDbEntity
  8
0
 62
     7
370
    13
100
AcDb2dPolyline
 66
     1
 10
0.0
 20
0.0
 30
0.0
 70
     1
  0
VERTEX
  5
140
330
13F
100
AcDbEntity
  8
0
370
     0
100
AcDbVertex
100
AcDb2dVertex
 10
119.892426
 20
435.94516
 30
0.0
  0
VERTEX
  5
141
330
13F
100
AcDbEntity
  8
0
370
     0
100
AcDbVertex
100
AcDb2dVertex
 10
120.569855
 20
433.461304
 30
0.0
  0
VERTEX
  5
142
330
13F
100
AcDbEntity
  8
0
370
     0
100
AcDbVertex
100
AcDb2dVertex
 10
122.827911
 20
431.880646
 30
0.0
  0
VERTEX
  5
143
330
13F
100
AcDbEntity
  8
0
370
     0
100
AcDbVertex
100
AcDb2dVertex
 10
125.085968
 20
431.203217
 30
0.0
  0
VERTEX
  5
144
330
13F
100
AcDbEntity
  8
0
370
     0
100
AcDbVertex
100
AcDb2dVertex
 10
128.021454
 20
431.203217
 30
0.0
  0
VERTEX
  5
145
330
13F
100
AcDbEntity
  8
0
370
     0
100
AcDbVertex
100
AcDb2dVertex
 10
130.95694
 20
431.880646
 30
0.0
  0
VERTEX
  5
146
330
13F
100
AcDbEntity
  8
0
370
     0
100
AcDbVertex
100
AcDb2dVertex
 10
133.214996
 20
433.461304
 30
0.0
  0
VERTEX
  5
147
330
13F
100
AcDbEntity
  8
0
370
     0
100
AcDbVertex
100
AcDb2dVertex
 10
133.892426
 20
435.94516
 30
0.0
  0
VERTEX
  5
148
330
13F
100
AcDbEntity
  8
0
370
     0
100
AcDbVertex
100
AcDb2dVertex
 10
133.892426
 20
437.751617
 30
0.0
  0
VERTEX
  5
149
330
13F
100
AcDbEntity
  8
0
370
     0
100
AcDbVertex
100
AcDb2dVertex
 10
133.214996
 20
440.235474
 30
0.0
  0
VERTEX
  5
14A
330
13F
100
AcDbEntity
  8
0
370
     0
100
AcDbVertex
100
AcDb2dVertex
 10
130.95694
 20
441.816132
 30
0.0
  0
VERTEX
  5
14B
330
13F
100
AcDbEntity
  8
0
370
     0
100
AcDbVertex
100
AcDb2dVertex
 10
128.247253
 20
442.49353
 30
0.0
  0
VERTEX
  5
14C
330
13F
100
AcDbEntity
  8
0
370
     0
100
AcDbVertex
100
AcDb2dVertex
 10
125.085968
 20
442.49353
 30
0.0
  0
VERTEX
  5
14D
330
13F
100
AcDbEntity
  8
0
370
     0
100
AcDbVertex
100
AcDb2dVertex
 10
122.827911
 20
441.816132
 30
0.0
  0
VERTEX
  5
14E
330
13F
100
AcDbEntity
  8
0
370
     0
100
AcDbVertex
100
AcDb2dVertex
 10
120.569855
 20
440.235474
 30
0.0
  0
VERTEX
  5
14F
330
13F
100
AcDbEntity
  8
0
370
     0
100
AcDbVertex
100
AcDb2dVertex
 10
119.892426
 20
437.751617
 30
0.0
  0
SEQEND
  5
150
330
13F
100
AcDbEntity
  8
0
 62
     7
370
    13
  0
LINE
  5
151
330
1F
100
AcDbEntity
  8
0
 62
     7
370
    13
100
AcDbLine
 10
207.5
 20
220.5
 30
0.0
 11
133.892426
 21
220.5
 31
0.0
  0
LINE
  5
152
330
1F
100
AcDbEntity
  8
0
 62
     7
370
    13
100
AcDbLine
 10
207.5
 20
620.5
 30
0.0
 11
133.892426
 21
620.5
 31
0.0
  0
POLYLINE
  5
153
330
1F
100
AcDbEntity
  8
0
 62
     7
370
    13
100
AcDb2dPolyline
 66
     1
 10
0.0
 20
0.0
 30
0.0
  0
VERTEX
  5
154
330
153
100
AcDbEntity
  8
0
370
     0
100
AcDbVertex
100
AcDb2dVertex
 10
136.410065
 20
618.568115
 30
0.0
  0
VERTEX
  5
155
330
153
100
AcDbEntity
  8
0
370
     0
100
AcDbVertex
100
AcDb2dVertex
 10
135.892426
 20
620.5
 30
0.0
  0
VERTEX
  5
156
330
153
100
AcDbEntity
  8
0
370
     0
100
AcDbVertex
100
AcDb2dVertex
 10
135.374786
 20
618.568115
 30
0.0
  0
SEQEND
  5
157
330
153
100
AcDbEntity
  8
0
 62
     7
370
    13
  0
POLYLINE
  5
158
330
1F
100
AcDbEntity
  8
0
 62
     7
370
    13
100
AcDb2dPolyline
 66
     1
 10
0.0
 20
0.0
 30
0.0
  0
VERTEX
  5
159
330
158
100
AcDbEntity
  8
0
370
     0
100
AcDbVertex
100
AcDb2dVertex
 10
135.374786
 20
222.431854
 30
0.0
  0
VERTEX
  5
15A
330
158
100
AcDbEntity
  8
0
370
     0
100
AcDbVertex
100
AcDb2dVertex
 10
135.892426
 20
220.5
 30
0.0
  0
VERTEX
  5
15B
330
158
100
AcDbEntity
  8
0
370
     0
100
AcDbVertex
100
AcDb2dVertex
 10
136.410065
 20
222.431854
 30
0.0
  0
SEQEND
  5
15C
330
158
100
AcDbEntity
  8
0
 62
     7
370
    13
  0
LINE
  5
15D
330
1F
100
AcDbEntity
  8
0
 62
     7
370
    13
100
AcDbLine
 10
135.892426
 20
220.5
 30
0.0
 11
135.892426
 21
620.5
 31
0.0
  0
POLYLINE
  5
15E
330
1F
100
AcDbEntity
  8
0
 62
     7
370
    13
100
AcDb2dPolyline
 66
     1
 10
0.0
 20
0.0
 30
0.0
  0
VERTEX
  5
15F
330
15E
100
AcDbEntity
  8
0
370
     0
100
AcDbVertex
100
AcDb2dVertex
 10
88.531464
 20
409.119354
 30
0.0
  0
VERTEX
  5
160
330
15E
100
AcDbEntity
  8
0
370
     0
100
AcDbVertex
100
AcDb2dVertex
 10
88.531464
 20
398.732269
 30
0.0
  0
VERTEX
  5
161
330
15E
100
AcDbEntity
  8
0
370
     0
100
AcDbVertex
100
AcDb2dVertex
 10
79.499207
 20
406.409668
 30
0.0
  0
VERTEX
  5
162
330
15E
100
AcDbEntity
  8
0
370
     0
100
AcDbVertex
100
AcDb2dVertex
 10
86.273407
 20
406.409668
 30
0.0
  0
VERTEX
  5
163
330
15E
100
AcDbEntity
  8
0
370
     0
100
AcDbVertex
100
AcDb2dVertex
 10
93.499207
 20
406.409668
 30
0.0
  0
SEQEND
  5
164
330
15E
100
AcDbEntity
  8
0
 62
     7
370
    13
  0
POLYLINE
  5
165
330
1F
100
AcDbEntity
  8
0
 62
     7
370
    13
100
AcDb2dPolyline
 66
     1
 10
0.0
 20
0.0
 30
0.0
  0
VERTEX
  5
166
330
165
100
AcDbEntity
  8
0
370
     0
100
AcDbVertex
100
AcDb2dVertex
 10
81.305664
 20
418.467743
 30
0.0
  0
VERTEX
  5
167
330
165
100
AcDbEntity
  8
0
370
     0
100
AcDbVertex
100
AcDb2dVertex
 10
79.499207
 20
420.951599
 30
0.0
  0
VERTEX
  5
168
330
165
100
AcDbEntity
  8
0
370
     0
100
AcDbVertex
100
AcDb2dVertex
 10
93.499207
 20
420.951599
 30
0.0
  0
SEQEND
  5
169
330
165
100
AcDbEntity
  8
0
 62
     7
370
    13
  0
POLYLINE
  5
16A
330
1F
100
AcDbEntity
  8
0
 62
     7
370
    13
100
AcDb2dPolyline
 66
     1
 10
0.0
 20
0.0
 30
0.0
  0
VERTEX
  5
16B
330
16A
100
AcDbEntity
  8
0
370
     0
100
AcDbVertex
100
AcDb2dVertex
 10
81.983093
 20
417.112915
 30
0.0
  0
VERTEX
  5
16C
330
16A
100
AcDbEntity
  8
0
370
     0
100
AcDbVertex
100
AcDb2dVertex
 10
81.305664
 20
418.467743
 30
0.0
  0
SEQEND
  5
16D
330
16A
100
AcDbEntity
  8
0
 62
     7
370
    13
  0
POLYLINE
  5
16E
330
1F
100
AcDbEntity
  8
0
 62
     7
370
    13
100
AcDb2dPolyline
 66
     1
 10
0.0
 20
0.0
 30
0.0
 70
     1
  0
VERTEX
  5
16F
330
16E
100
AcDbEntity
  8
0
370
     0
100
AcDbVertex
100
AcDb2dVertex
 10
79.499207
 20
435.94516
 30
0.0
  0
VERTEX
  5
170
330
16E
100
AcDbEntity
  8
0
370
     0
100
AcDbVertex
100
AcDb2dVertex
 10
80.176636
 20
433.461304
 30
0.0
  0
VERTEX
  5
171
330
16E
100
AcDbEntity
  8
0
370
     0
100
AcDbVertex
100
AcDb2dVertex
 10
82.434692
 20
431.880646
 30
0.0
  0
VERTEX
  5
172
330
16E
100
AcDbEntity
  8
0
370
     0
100
AcDbVertex
100
AcDb2dVertex
 10
84.692749
 20
431.203217
 30
0.0
  0
VERTEX
  5
173
330
16E
100
AcDbEntity
  8
0
370
     0
100
AcDbVertex
100
AcDb2dVertex
 10
87.628235
 20
431.203217
 30
0.0
  0
VERTEX
  5
174
330
16E
100
AcDbEntity
  8
0
370
     0
100
AcDbVertex
100
AcDb2dVertex
 10
90.563721
 20
431.880646
 30
0.0
  0
VERTEX
  5
175
330
16E
100
AcDbEntity
  8
0
370
     0
100
AcDbVertex
100
AcDb2dVertex
 10
92.821777
 20
433.461304
 30
0.0
  0
VERTEX
  5
176
330
16E
100
AcDbEntity
  8
0
370
     0
100
AcDbVertex
100
AcDb2dVertex
 10
93.499207
 20
435.94516
 30
0.0
  0
VERTEX
  5
177
330
16E
100
AcDbEntity
  8
0
370
     0
100
AcDbVertex
100
AcDb2dVertex
 10
93.499207
 20
437.751617
 30
0.0
  0
VERTEX
  5
178
330
16E
100
AcDbEntity
  8
0
370
     0
100
AcDbVertex
100
AcDb2dVertex
 10
92.821777
 20
440.235474
 30
0.0
  0
VERTEX
  5
179
330
16E
100
AcDbEntity
  8
0
370
     0
100
AcDbVertex
100
AcDb2dVertex
 10
90.563721
 20
441.816132
 30
0.0
  0
VERTEX
  5
17A
330
16E
100
AcDbEntity
  8
0
370
     0
100
AcDbVertex
100
AcDb2dVertex
 10
87.854034
 20
442.49353
 30
0.0
  0
VERTEX
  5
17B
330
16E
100
AcDbEntity
  8
0
370
     0
100
AcDbVertex
100
AcDb2dVertex
 10
84.692749
 20
442.49353
 30
0.0
  0
VERTEX
  5
17C
330
16E
100
AcDbEntity
  8
0
370
     0
100
AcDbVertex
100
AcDb2dVertex
 10
82.434692
 20
441.816132
 30
0.0
  0
VERTEX
  5
17D
330
16E
100
AcDbEntity
  8
0
370
     0
100
AcDbVertex
100
AcDb2dVertex
 10
80.176636
 20
440.235474
 30
0.0
  0
VERTEX
  5
17E
330
16E
100
AcDbEntity
  8
0
370
     0
100
AcDbVertex
100
AcDb2dVertex
 10
79.499207
 20
437.751617
 30
0.0
  0
SEQEND
  5
17F
330
16E
100
AcDbEntity
  8
0
 62
     7
370
    13
  0
LINE
  5
180
330
1F
100
AcDbEntity
  8
0
 62
     7
370
    13
100
AcDbLine
 10
207.5
 20
215.5
 30
0.0
 11
93.499207
 21
215.5
 31
0.0
  0
LINE
  5
181
330
1F
100
AcDbEntity
  8
0
 62
     7
370
    13
100
AcDbLine
 10
204.912415
 20
625.5
 30
0.0
 11
93.499207
 21
625.5
 31
0.0
  0
POLYLINE
  5
182
330
1F
100
AcDbEntity
  8
0
 62
     7
370
    13
100
AcDb2dPolyline
 66
     1
 10
0.0
 20
0.0
 30
0.0
  0
VERTEX
  5
183
330
182
100
AcDbEntity
  8
0
370
     0
100
AcDbVertex
100
AcDb2dVertex
 10
96.016846
 20
623.568115
 30
0.0
  0
VERTEX
  5
184
330
182
100
AcDbEntity
  8
0
370
     0
100
AcDbVertex
100
AcDb2dVertex
 10
95.499207
 20
625.5
 30
0.0
  0
VERTEX
  5
185
330
182
100
AcDbEntity
  8
0
370
     0
100
AcDbVertex
100
AcDb2dVertex
 10
94.981567
 20
623.568115
 30
0.0
  0
SEQEND
  5
186
330
182
100
AcDbEntity
  8
0
 62
     7
370
    13
  0
POLYLINE
  5
187
330
1F
100
AcDbEntity
  8
0
 62
     7
370
    13
100
AcDb2dPolyline
 66
     1
 10
0.0
 20
0.0
 30
0.0
  0
VERTEX
  5
188
330
187
100
AcDbEntity
  8
0
370
     0
100
AcDbVertex
100
AcDb2dVertex
 10
94.981567
 20
217.431854
 30
0.0
  0
VERTEX
  5
189
330
187
100
AcDbEntity
  8
0
370
     0
100
AcDbVertex
100
AcDb2dVertex
 10
95.499207
 20
215.5
 30
0.0
  0
VERTEX
  5
18A
330
187
100
AcDbEntity
  8
0
370
     0
100
AcDbVertex
100
AcDb2dVertex
 10
96.016846
 20
217.431854
 30
0.0
  0
SEQEND
  5
18B
330
187
100
AcDbEntity
  8
0
 62
     7
370
    13
  0
LINE
  5
18C
330
1F
100
AcDbEntity
  8
0
 62
     7
370
    13
100
AcDbLine
 10
95.499207
 20
215.5
 30
0.0
 11
95.499207
 21
625.5
 31
0.0
  0
POLYLINE
  5
18D
330
1F
100
AcDbEntity
  8
0
 62
     7
370
    13
100
AcDb2dPolyline
 66
     1
 10
0.0
 20
0.0
 30
0.0
  0
VERTEX
  5
18E
330
18D
100
AcDbEntity
  8
0
370
     0
100
AcDbVertex
100
AcDb2dVertex
 10
946.651001
 20
280.582397
 30
0.0
  0
VERTEX
  5
18F
330
18D
100
AcDbEntity
  8
0
370
     0
100
AcDbVertex
100
AcDb2dVertex
 10
938.920044
 20
288.179077
 30
0.0
  0
VERTEX
  5
190
330
18D
100
AcDbEntity
  8
0
370
     0
100
AcDbVertex
100
AcDb2dVertex
 10
948.827515
 20
287.307831
 30
0.0
  0
VERTEX
  5
191
330
18D
100
AcDbEntity
  8
0
370
     0
100
AcDbVertex
100
AcDb2dVertex
 10
951.221069
 20
287.488464
 30
0.0
  0
VERTEX
  5
192
330
18D
100
AcDbEntity
  8
0
370
     0
100
AcDbVertex
100
AcDb2dVertex
 10
952.653809
 20
287.980042
 30
0.0
  0
VERTEX
  5
193
330
18D
100
AcDbEntity
  8
0
370
     0
100
AcDbVertex
100
AcDb2dVertex
 10
953.603394
 20
288.946411
 30
0.0
  0
VERTEX
  5
194
330
18D
100
AcDbEntity
  8
0
370
     0
100
AcDbVertex
100
AcDb2dVertex
 10
954.228088
 20
290.548645
 30
0.0
  0
VERTEX
  5
195
330
18D
100
AcDbEntity
  8
0
370
     0
100
AcDbVertex
100
AcDb2dVertex
 10
954.37793
 20
291.667694
 30
0.0
  0
VERTEX
  5
196
330
18D
100
AcDbEntity
  8
0
370
     0
100
AcDbVertex
100
AcDb2dVertex
 10
953.725342
 20
293.258728
 30
0.0
  0
VERTEX
  5
197
330
18D
100
AcDbEntity
  8
0
370
     0
100
AcDbVertex
100
AcDb2dVertex
 10
951.792603
 20
295.157898
 30
0.0
  0
VERTEX
  5
198
330
18D
100
AcDbEntity
  8
0
370
     0
100
AcDbVertex
100
AcDb2dVertex
 10
950.190308
 20
295.782562
 30
0.0
  0
VERTEX
  5
199
330
18D
100
AcDbEntity
  8
0
370
     0
100
AcDbVertex
100
AcDb2dVertex
 10
949.232361
 20
295.77417
 30
0.0
  0
VERTEX
  5
19A
330
18D
100
AcDbEntity
  8
0
370
     0
100
AcDbVertex
100
AcDb2dVertex
 10
947.63855
 20
295.440857
 30
0.0
  0
VERTEX
  5
19B
330
18D
100
AcDbEntity
  8
0
370
     0
100
AcDbVertex
100
AcDb2dVertex
 10
947.163696
 20
294.957672
 30
0.0
  0
SEQEND
  5
19C
330
18D
100
AcDbEntity
  8
0
 62
     7
370
    13
  0
POLYLINE
  5
19D
330
1F
100
AcDbEntity
  8
0
 62
     7
370
    13
100
AcDb2dPolyline
 66
     1
 10
0.0
 20
0.0
 30
0.0
  0
VERTEX
  5
19E
330
19D
100
AcDbEntity
  8
0
370
     0
100
AcDbVertex
100
AcDb2dVertex
 10
952.321777
 20
278.492432
 30
0.0
  0
VERTEX
  5
19F
330
19D
100
AcDbEntity
  8
0
370
     0
100
AcDbVertex
100
AcDb2dVertex
 10
952.013672
 20
277.212341
 30
0.0
  0
VERTEX
  5
1A0
330
19D
100
AcDbEntity
  8
0
370
     0
100
AcDbVertex
100
AcDb2dVertex
 10
952.022095
 20
276.254333
 30
0.0
  0
VERTEX
  5
1A1
330
19D
100
AcDbEntity
  8
0
370
     0
100
AcDbVertex
100
AcDb2dVertex
 10
953.31897
 20
274.030273
 30
0.0
  0
VERTEX
  5
1A2
330
19D
100
AcDbEntity
  8
0
370
     0
100
AcDbVertex
100
AcDb2dVertex
 10
955.090637
 20
272.289368
 30
0.0
  0
VERTEX
  5
1A3
330
19D
100
AcDbEntity
  8
0
370
     0
100
AcDbVertex
100
AcDb2dVertex
 10
957.498169
 20
270.873352
 30
0.0
  0
VERTEX
  5
1A4
330
19D
100
AcDbEntity
  8
0
370
     0
100
AcDbVertex
100
AcDb2dVertex
 10
959.414124
 20
270.890137
 30
0.0
  0
VERTEX
  5
1A5
330
19D
100
AcDbEntity
  8
0
370
     0
100
AcDbVertex
100
AcDb2dVertex
 10
961.321655
 20
271.864929
 30
0.0
  0
VERTEX
  5
1A6
330
19D
100
AcDbEntity
  8
0
370
     0
100
AcDbVertex
100
AcDb2dVertex
 10
962.27124
 20
272.831299
 30
0.0
  0
VERTEX
  5
1A7
330
19D
100
AcDbEntity
  8
0
370
     0
100
AcDbVertex
100
AcDb2dVertex
 10
963.212463
 20
274.755646
 30
0.0
  0
VERTEX
  5
1A8
330
19D
100
AcDbEntity
  8
0
370
     0
100
AcDbVertex
100
AcDb2dVertex
 10
963.037415
 20
276.510559
 30
0.0
  0
VERTEX
  5
1A9
330
19D
100
AcDbEntity
  8
0
370
     0
100
AcDbVertex
100
AcDb2dVertex
 10
961.579468
 20
278.892883
 30
0.0
  0
VERTEX
  5
1AA
330
19D
100
AcDbEntity
  8
0
370
     0
100
AcDbVertex
100
AcDb2dVertex
 10
959.807739
 20
280.633789
 30
0.0
  0
VERTEX
  5
1AB
330
19D
100
AcDbEntity
  8
0
370
     0
100
AcDbVertex
100
AcDb2dVertex
 10
957.883423
 20
281.575012
 30
0.0
  0
VERTEX
  5
1AC
330
19D
100
AcDbEntity
  8
0
370
     0
100
AcDbVertex
100
AcDb2dVertex
 10
956.925415
 20
281.566589
 30
0.0
  0
VERTEX
  5
1AD
330
19D
100
AcDbEntity
  8
0
370
     0
100
AcDbVertex
100
AcDb2dVertex
 10
961.681763
 20
285.440491
 30
0.0
  0
VERTEX
  5
1AE
330
19D
100
AcDbEntity
  8
0
370
     0
100
AcDbVertex
100
AcDb2dVertex
 10
967.641052
 20
279.584717
 30
0.0
  0
SEQEND
  5
1AF
330
19D
100
AcDbEntity
  8
0
 62
     7
370
    13
  0
POLYLINE
  5
1B0
330
1F
100
AcDbEntity
  8
0
 62
     7
370
    13
100
AcDb2dPolyline
 66
     1
 10
0.0
 20
0.0
 30
0.0
  0
VERTEX
  5
1B1
330
1B0
100
AcDbEntity
  8
0
370
     0
100
AcDbVertex
100
AcDb2dVertex
 10
943.509399
 20
303.297211
 30
0.0
  0
VERTEX
  5
1B2
330
1B0
100
AcDbEntity
  8
0
370
     0
100
AcDbVertex
100
AcDb2dVertex
 10
938.033264
 20
308.678192
 30
0.0
  0
SEQEND
  5
1B3
330
1B0
100
AcDbEntity
  8
0
 62
     7
370
    13
  0
POLYLINE
  5
1B4
330
1F
100
AcDbEntity
  8
0
 62
     7
370
    13
100
AcDb2dPolyline
 66
     1
 10
0.0
 20
0.0
 30
0.0
  0
VERTEX
  5
1B5
330
1B4
100
AcDbEntity
  8
0
370
     0
100
AcDbVertex
100
AcDb2dVertex
 10
933.285339
 20
303.846344
 30
0.0
  0
VERTEX
  5
1B6
330
1B4
100
AcDbEntity
  8
0
370
     0
100
AcDbVertex
100
AcDb2dVertex
 10
939.083618
 20
298.148834
 30
0.0
  0
SEQEND
  5
1B7
330
1B4
100
AcDbEntity
  8
0
 62
     7
370
    13
  0
POLYLINE
  5
1B8
330
1F
100
AcDbEntity
  8
0
 62
     7
370
    13
100
AcDb2dPolyline
 66
     1
 10
0.0
 20
0.0
 30
0.0
  0
VERTEX
  5
1B9
330
1B8
100
AcDbEntity
  8
0
370
     0
100
AcDbVertex
100
AcDb2dVertex
 10
938.033264
 20
308.678192
 30
0.0
  0
VERTEX
  5
1BA
330
1B8
100
AcDbEntity
  8
0
370
     0
100
AcDbVertex
100
AcDb2dVertex
 10
928.220886
 20
298.692352
 30
0.0
  0
SEQEND
  5
1BB
330
1B8
100
AcDbEntity
  8
0
 62
     7
370
    13
  0
POLYLINE
  5
1BC
330
1F
100
AcDbEntity
  8
0
 62
     7
370
    13
100
AcDb2dPolyline
 66
     1
 10
0.0
 20
0.0
 30
0.0
  0
VERTEX
  5
1BD
330
1BC
100
AcDbEntity
  8
0
370
     0
100
AcDbVertex
100
AcDb2dVertex
 10
943.509399
 20
303.297211
 30
0.0
  0
VERTEX
  5
1BE
330
1BC
100
AcDbEntity
  8
0
370
     0
100
AcDbVertex
100
AcDb2dVertex
 10
944.161987
 20
301.706177
 30
0.0
  0
VERTEX
  5
1BF
330
1BC
100
AcDbEntity
  8
0
370
     0
100
AcDbVertex
100
AcDb2dVertex
 10
944.181641
 20
299.470886
 30
0.0
  0
VERTEX
  5
1C0
330
1BC
100
AcDbEntity
  8
0
370
     0
100
AcDbVertex
100
AcDb2dVertex
 10
942.598999
 20
297.860291
 30
0.0
  0
VERTEX
  5
1C1
330
1BC
100
AcDbEntity
  8
0
370
     0
100
AcDbVertex
100
AcDb2dVertex
 10
940.844116
 20
297.685242
 30
0.0
  0
VERTEX
  5
1C2
330
1BC
100
AcDbEntity
  8
0
370
     0
100
AcDbVertex
100
AcDb2dVertex
 10
939.083618
 20
298.148834
 30
0.0
  0
SEQEND
  5
1C3
330
1BC
100
AcDbEntity
  8
0
 62
     7
370
    13
  0
POLYLINE
  5
1C4
330
1F
100
AcDbEntity
  8
0
 62
     7
370
    13
100
AcDb2dPolyline
 66
     1
 10
0.0
 20
0.0
 30
0.0
  0
VERTEX
  5
1C5
330
1C4
100
AcDbEntity
  8
0
370
     0
100
AcDbVertex
100
AcDb2dVertex
 10
937.795044
 20
299.414948
 30
0.0
  0
VERTEX
  5
1C6
330
1C4
100
AcDbEntity
  8
0
370
     0
100
AcDbVertex
100
AcDb2dVertex
 10
935.951904
 20
291.095673
 30
0.0
  0
SEQEND
  5
1C7
330
1C4
100
AcDbEntity
  8
0
 62
     7
370
    13
  0
POLYLINE
  5
1C8
330
1F
100
AcDbEntity
  8
0
 62
     7
370
    13
100
AcDb2dPolyline
 66
     1
 10
0.0
 20
0.0
 30
0.0
  0
VERTEX
  5
1C9
330
1C8
100
AcDbEntity
  8
0
370
     0
100
AcDbVertex
100
AcDb2dVertex
 10
995.591125
 20
228.962677
 30
0.0
  0
VERTEX
  5
1CA
330
1C8
100
AcDbEntity
  8
0
370
     0
100
AcDbVertex
100
AcDb2dVertex
 10
997.331909
 20
227.97789
 30
0.0
  0
VERTEX
  5
1CB
330
1C8
100
AcDbEntity
  8
0
370
     0
100
AcDbVertex
100
AcDb2dVertex
 10
996.316772
 20
229.701111
 30
0.0
  0
SEQEND
  5
1CC
330
1C8
100
AcDbEntity
  8
0
 62
     7
370
    13
  0
LINE
  5
1CD
330
1F
100
AcDbEntity
  8
0
 62
     7
370
    13
100
AcDbLine
 10
997.331909
 20
227.97789
 30
0.0
 11
926.174866
 21
297.898865
 31
0.0
  0
POLYLINE
  5
1CE
330
1F
100
AcDbEntity
  8
0
 62
     7
370
    13
100
AcDb2dPolyline
 66
     1
 10
0.0
 20
0.0
 30
0.0
  0
VERTEX
  5
1CF
330
1CE
100
AcDbEntity
  8
0
370
     0
100
AcDbVertex
100
AcDb2dVertex
 10
143.559265
 20
171.585266
 30
0.0
  0
VERTEX
  5
1D0
330
1CE
100
AcDbEntity
  8
0
370
     0
100
AcDbVertex
100
AcDb2dVertex
 10
144.862549
 20
171.39798
 30
0.0
  0
VERTEX
  5
1D1
330
1CE
100
AcDbEntity
  8
0
370
     0
100
AcDbVertex
100
AcDb2dVertex
 10
145.815582
 20
171.495743
 30
0.0
  0
VERTEX
  5
1D2
330
1CE
100
AcDbEntity
  8
0
370
     0
100
AcDbVertex
100
AcDb2dVertex
 10
147.908905
 20
172.994568
 30
0.0
  0
VERTEX
  5
1D3
330
1CE
100
AcDbEntity
  8
0
370
     0
100
AcDbVertex
100
AcDb2dVertex
 10
149.476837
 20
174.921021
 30
0.0
  0
VERTEX
  5
1D4
330
1CE
100
AcDbEntity
  8
0
370
     0
100
AcDbVertex
100
AcDb2dVertex
 10
150.661926
 20
177.450195
 30
0.0
  0
VERTEX
  5
1D5
330
1CE
100
AcDbEntity
  8
0
370
     0
100
AcDbVertex
100
AcDb2dVertex
 10
150.46637
 20
179.356232
 30
0.0
  0
VERTEX
  5
1D6
330
1CE
100
AcDbEntity
  8
0
370
     0
100
AcDbVertex
100
AcDb2dVertex
 10
149.31781
 20
181.16449
 30
0.0
  0
VERTEX
  5
1D7
330
1CE
100
AcDbEntity
  8
0
370
     0
100
AcDbVertex
100
AcDb2dVertex
 10
148.267029
 20
182.01973
 30
0.0
  0
VERTEX
  5
1D8
330
1CE
100
AcDbEntity
  8
0
370
     0
100
AcDbVertex
100
AcDb2dVertex
 10
146.263214
 20
182.777191
 30
0.0
  0
VERTEX
  5
1D9
330
1CE
100
AcDbEntity
  8
0
370
     0
100
AcDbVertex
100
AcDb2dVertex
 10
145.310211
 20
182.679428
 30
0.0
  0
VERTEX
  5
1DA
330
1CE
100
AcDbEntity
  8
0
370
     0
100
AcDbVertex
100
AcDb2dVertex
 10
143.929596
 20
182.056244
 30
0.0
  0
VERTEX
  5
1DB
330
1CE
100
AcDbEntity
  8
0
370
     0
100
AcDbVertex
100
AcDb2dVertex
 10
141.934021
 20
179.604416
 30
0.0
  0
VERTEX
  5
1DC
330
1CE
100
AcDbEntity
  8
0
370
     0
100
AcDbVertex
100
AcDb2dVertex
 10
140.899353
 20
186.560577
 30
0.0
  0
VERTEX
  5
1DD
330
1CE
100
AcDbEntity
  8
0
370
     0
100
AcDbVertex
100
AcDb2dVertex
 10
135.625366
 20
180.080719
 30
0.0
  0
SEQEND
  5
1DE
330
1CE
100
AcDbEntity
  8
0
 62
     7
370
    13
  0
POLYLINE
  5
1DF
330
1F
100
AcDbEntity
  8
0
 62
     7
370
    13
100
AcDb2dPolyline
 66
     1
 10
0.0
 20
0.0
 30
0.0
 70
     1
  0
VERTEX
  5
1E0
330
1DF
100
AcDbEntity
  8
0
370
     0
100
AcDbVertex
100
AcDb2dVertex
 10
147.798279
 20
195.036926
 30
0.0
  0
VERTEX
  5
1E1
330
1DF
100
AcDbEntity
  8
0
370
     0
100
AcDbVertex
100
AcDb2dVertex
 10
146.755737
 20
192.682877
 30
0.0
  0
VERTEX
  5
1E2
330
1DF
100
AcDbEntity
  8
0
370
     0
100
AcDbVertex
100
AcDb2dVertex
 10
147.509277
 20
190.031555
 30
0.0
  0
VERTEX
  5
1E3
330
1DF
100
AcDbEntity
  8
0
370
     0
100
AcDbVertex
100
AcDb2dVertex
 10
148.832947
 20
188.080765
 30
0.0
  0
VERTEX
  5
1E4
330
1DF
100
AcDbEntity
  8
0
370
     0
100
AcDbVertex
100
AcDb2dVertex
 10
151.10965
 20
186.227753
 30
0.0
  0
VERTEX
  5
1E5
330
1DF
100
AcDbEntity
  8
0
370
     0
100
AcDbVertex
100
AcDb2dVertex
 10
153.813995
 20
184.900116
 30
0.0
  0
VERTEX
  5
1E6
330
1DF
100
AcDbEntity
  8
0
370
     0
100
AcDbVertex
100
AcDb2dVertex
 10
156.56308
 20
184.700638
 30
0.0
  0
VERTEX
  5
1E7
330
1DF
100
AcDbEntity
  8
0
370
     0
100
AcDbVertex
100
AcDb2dVertex
 10
158.656403
 20
186.199463
 30
0.0
  0
VERTEX
  5
1E8
330
1DF
100
AcDbEntity
  8
0
370
     0
100
AcDbVertex
100
AcDb2dVertex
 10
159.796722
 20
187.600525
 30
0.0
  0
VERTEX
  5
1E9
330
1DF
100
AcDbEntity
  8
0
370
     0
100
AcDbVertex
100
AcDb2dVertex
 10
160.839264
 20
189.954575
 30
0.0
  0
VERTEX
  5
1EA
330
1DF
100
AcDbEntity
  8
0
370
     0
100
AcDbVertex
100
AcDb2dVertex
 10
160.085724
 20
192.605896
 30
0.0
  0
VERTEX
  5
1EB
330
1DF
100
AcDbEntity
  8
0
370
     0
100
AcDbVertex
100
AcDb2dVertex
 10
158.411804
 20
194.841766
 30
0.0
  0
VERTEX
  5
1EC
330
1DF
100
AcDbEntity
  8
0
370
     0
100
AcDbVertex
100
AcDb2dVertex
 10
155.959961
 20
196.837326
 30
0.0
  0
VERTEX
  5
1ED
330
1DF
100
AcDbEntity
  8
0
370
     0
100
AcDbVertex
100
AcDb2dVertex
 10
153.781006
 20
197.737335
 30
0.0
  0
VERTEX
  5
1EE
330
1DF
100
AcDbEntity
  8
0
370
     0
100
AcDbVertex
100
AcDb2dVertex
 10
151.031921
 20
197.936813
 30
0.0
  0
VERTEX
  5
1EF
330
1DF
100
AcDbEntity
  8
0
370
     0
100
AcDbVertex
100
AcDb2dVertex
 10
148.938599
 20
196.437988
 30
0.0
  0
SEQEND
  5
1F0
330
1DF
100
AcDbEntity
  8
0
 62
     7
370
    13
  0
POLYLINE
  5
1F1
330
1F
100
AcDbEntity
  8
0
 62
     7
370
    13
100
AcDb2dPolyline
 66
     1
 10
0.0
 20
0.0
 30
0.0
  0
VERTEX
  5
1F2
330
1F1
100
AcDbEntity
  8
0
370
     0
100
AcDbVertex
100
AcDb2dVertex
 10
130.005249
 20
173.175568
 30
0.0
  0
VERTEX
  5
1F3
330
1F1
100
AcDbEntity
  8
0
370
     0
100
AcDbVertex
100
AcDb2dVertex
 10
125.158905
 20
167.2211
 30
0.0
  0
SEQEND
  5
1F4
330
1F1
100
AcDbEntity
  8
0
 62
     7
370
    13
  0
POLYLINE
  5
1F5
330
1F
100
AcDbEntity
  8
0
 62
     7
370
    13
100
AcDb2dPolyline
 66
     1
 10
0.0
 20
0.0
 30
0.0
  0
VERTEX
  5
1F6
330
1F5
100
AcDbEntity
  8
0
370
     0
100
AcDbVertex
100
AcDb2dVertex
 10
130.412842
 20
162.944916
 30
0.0
  0
VERTEX
  5
1F7
330
1F5
100
AcDbEntity
  8
0
370
     0
100
AcDbVertex
100
AcDb2dVertex
 10
135.54425
 20
169.249634
 30
0.0
  0
SEQEND
  5
1F8
330
1F5
100
AcDbEntity
  8
0
 62
     7
370
    13
  0
POLYLINE
  5
1F9
330
1F
100
AcDbEntity
  8
0
 62
     7
370
    13
100
AcDb2dPolyline
 66
     1
 10
0.0
 20
0.0
 30
0.0
  0
VERTEX
  5
1FA
330
1F9
100
AcDbEntity
  8
0
370
     0
100
AcDbVertex
100
AcDb2dVertex
 10
125.158905
 20
167.2211
 30
0.0
  0
VERTEX
  5
1FB
330
1F9
100
AcDbEntity
  8
0
370
     0
100
AcDbVertex
100
AcDb2dVertex
 10
136.017029
 20
158.383636
 30
0.0
  0
SEQEND
  5
1FC
330
1F9
100
AcDbEntity
  8
0
 62
     7
370
    13
  0
POLYLINE
  5
1FD
330
1F
100
AcDbEntity
  8
0
 62
     7
370
    13
100
AcDb2dPolyline
 66
     1
 10
0.0
 20
0.0
 30
0.0
  0
VERTEX
  5
1FE
330
1FD
100
AcDbEntity
  8
0
370
     0
100
AcDbVertex
100
AcDb2dVertex
 10
130.005249
 20
173.175568
 30
0.0
  0
VERTEX
  5
1FF
330
1FD
100
AcDbEntity
  8
0
370
     0
100
AcDbVertex
100
AcDb2dVertex
 10
131.528412
 20
173.973862
 30
0.0
  0
VERTEX
  5
200
330
1FD
100
AcDbEntity
  8
0
370
     0
100
AcDbVertex
100
AcDb2dVertex
 10
133.752106
 20
174.202011
 30
0.0
  0
VERTEX
  5
201
330
1FD
100
AcDbEntity
  8
0
370
     0
100
AcDbVertex
100
AcDb2dVertex
 10
135.503418
 20
172.776611
 30
0.0
  0
VERTEX
  5
202
330
1FD
100
AcDbEntity
  8
0
370
     0
100
AcDbVertex
100
AcDb2dVertex
 10
135.841522
 20
171.045715
 30
0.0
  0
VERTEX
  5
203
330
1FD
100
AcDbEntity
  8
0
370
     0
100
AcDbVertex
100
AcDb2dVertex
 10
135.54425
 20
169.249634
 30
0.0
  0
SEQEND
  5
204
330
1FD
100
AcDbEntity
  8
0
 62
     7
370
    13
  0
POLYLINE
  5
205
330
1F
100
AcDbEntity
  8
0
 62
     7
370
    13
100
AcDb2dPolyline
 66
     1
 10
0.0
 20
0.0
 30
0.0
  0
VERTEX
  5
206
330
205
100
AcDbEntity
  8
0
370
     0
100
AcDbVertex
100
AcDb2dVertex
 10
134.403931
 20
167.848572
 30
0.0
  0
VERTEX
  5
207
330
205
100
AcDbEntity
  8
0
370
     0
100
AcDbVertex
100
AcDb2dVertex
 10
142.858917
 20
166.789932
 30
0.0
  0
SEQEND
  5
208
330
205
100
AcDbEntity
  8
0
 62
     7
370
    13
  0
POLYLINE
  5
209
330
1F
100
AcDbEntity
  8
0
 62
     7
370
    13
100
AcDb2dPolyline
 66
     1
 10
0.0
 20
0.0
 30
0.0
  0
VERTEX
  5
20A
330
209
100
AcDbEntity
  8
0
370
     0
100
AcDbVertex
100
AcDb2dVertex
 10
189.744568
 20
220.407501
 30
0.0
  0
VERTEX
  5
20B
330
209
100
AcDbEntity
  8
0
370
     0
100
AcDbVertex
100
AcDb2dVertex
 10
190.562561
 20
222.232559
 30
0.0
  0
VERTEX
  5
20C
330
209
100
AcDbEntity
  8
0
370
     0
100
AcDbVertex
100
AcDb2dVertex
 10
188.94162
 20
221.06102
 30
0.0
  0
SEQEND
  5
20D
330
209
100
AcDbEntity
  8
0
 62
     7
370
    13
  0
LINE
  5
20E
330
1F
100
AcDbEntity
  8
0
 62
     7
370
    13
100
AcDbLine
 10
209.5
 20
245.5
 30
0.0
 11
136.998016
 21
156.420593
 31
0.0
  0
ARC
  5
20F
330
1F
100
AcDbEntity
  8
0
  6
DASHSPACE
 62
     7
370
    35
100
AcDbCircle
 10
979.5
 20
595.5
 30
0.0
 40
25.0
100
AcDbArc
 50
0.0
 51
90.000003
  0
LINE
  5
210
330
1F
100
AcDbEntity
  8
0
  6
DASHSPACE
 62
     7
370
    35
100
AcDbLine
 10
979.5
 20
620.5
 30
0.0
 11
209.5
 21
620.5
 31
0.0
  0
ARC
  5
211
330
1F
100
AcDbEntity
  8
0
  6
DASHSPACE
 62
     7
370
    35
100
AcDbCircle
 10
209.5
 20
595.5
 30
0.0
 40
25.0
100
AcDbArc
 50
90.000003
 51
180.000005
  0
LINE
  5
212
330
1F
100
AcDbEntity
  8
0
  6
DASHSPACE
 62
     7
370
    35
100
AcDbLine
 10
184.5
 20
595.5
 30
0.0
 11
184.5
 21
245.5
 31
0.0
  0
ARC
  5
213
330
1F
100
AcDbEntity
  8
0
  6
DASHSPACE
 62
     7
370
    35
100
AcDbCircle
 10
209.5
 20
245.5
 30
0.0
 40
25.0
100
AcDbArc
 50
179.999995
 51
269.999997
  0
LINE
  5
214
330
1F
100
AcDbEntity
  8
0
  6
DASHSPACE
 62
     7
370
    35
100
AcDbLine
 10
209.5
 20
220.5
 30
0.0
 11
979.5
 21
220.5
 31
0.0
  0
ARC
  5
215
330
1F
100
AcDbEntity
  8
0
  6
DASHSPACE
 62
     7
370
    35
100
AcDbCircle
 10
979.5
 20
245.5
 30
0.0
 40
25.0
100
AcDbArc
 50
269.999997
 51
360.0
  0
LINE
  5
216
330
1F
100
AcDbEntity
  8
0
  6
DASHSPACE
 62
     7
370
    35
100
AcDbLine
 10
1004.5
 20
245.5
 30
0.0
 11
1004.5
 21
595.5
 31
0.0
  0
ARC
  5
217
330
1F
100
AcDbEntity
  8
0
  6
DASHSPACE
 62
     7
370
    35
100
AcDbCircle
 10
979.5
 20
595.5
 30
0.0
 40
30.0
100
AcDbArc
 50
360.0
 51
90.000003
  0
LINE
  5
218
330
1F
100
AcDbEntity
  8
0
  6
DASHSPACE
 62
     7
370
    35
100
AcDbLine
 10
979.5
 20
625.5
 30
0.0
 11
206.912415
 21
625.5
 31
0.0
  0
ARC
  5
219
330
1F
100
AcDbEntity
  8
0
  6
DASHSPACE
 62
     7
370
    35
100
AcDbCircle
 10
206.912415
 20
598.087585
 30
0.0
 40
27.41242579610389
100
AcDbArc
 50
90.000003
 51
179.999995
  0
LINE
  5
21A
330
1F
100
AcDbEntity
  8
0
  6
DASHSPACE
 62
     7
370
    35
100
AcDbLine
 10
179.5
 20
598.087585
 30
0.0
 11
179.5
 21
245.5
 31
0.0
  0
ARC
  5
21B
330
1F
100
AcDbEntity
  8
0
  6
DASHSPACE
 62
     7
370
    35
100
AcDbCircle
 10
209.5
 20
245.5
 30
0.0
 40
30.0
100
AcDbArc
 50
180.000005
 51
269.999997
  0
LINE
  5
21C
330
1F
100
AcDbEntity
  8
0
  6
DASHSPACE
 62
     7
370
    35
100
AcDbLine
 10
209.5
 20
215.5
 30
0.0
 11
979.5
 21
215.5
 31
0.0
  0
ARC
  5
21D
330
1F
100
AcDbEntity
  8
0
  6
DASHSPACE
 62
     7
370
    35
100
AcDbCircle
 10
979.5
 20
245.5
 30
0.0
 40
30.0
100
AcDbArc
 50
269.999997
 51
360.0
  0
LINE
  5
21E
330
1F
100
AcDbEntity
  8
0
  6
DASHSPACE
 62
     7
370
    35
100
AcDbLine
 10
1009.5
 20
245.5
 30
0.0
 11
1009.5
 21
595.5
 31
0.0
  0
ENDSEC
  0
SECTION
  2
OBJECTS
  0
DICTIONARY
  5
C
330
0
100
AcDbDictionary
281
     1
  3
ACAD_GROUP
350
D
  3
ACAD_LAYOUT
350
1A
  3
ACAD_MLINESTYLE
350
17
  3
ACAD_PLOTSETTINGS
350
19
  3
ACAD_PLOTSTYLENAME
350
E
  3
ACAD_SCALELIST
350
47
  0
DICTIONARY
  5
D
102
{ACAD_REACTORS
330
C
102
}
330
C
100
AcDbDictionary
281
     1
  0
DICTIONARY
  5
1A
102
{ACAD_REACTORS
330
C
102
}
330
C
100
AcDbDictionary
281
     1
  3
Layout1
350
1E
  3
Layout2
350
26
  3
Model
350
22
  0
DICTIONARY
  5
17
102
{ACAD_REACTORS
330
C
102
}
330
C
100
AcDbDictionary
281
     1
  3
Standard
350
18
  0
DICTIONARY
  5
19
102
{ACAD_REACTORS
330
C
102
}
330
C
100
AcDbDictionary
281
     1
  0
ACDBDICTIONARYWDFLT
  5
E
102
{ACAD_REACTORS
330
C
102
}
330
C
100
AcDbDictionary
281
     1
  3
Normal
350
F
100
AcDbDictionaryWithDefault
340
F
  0
DICTIONARY
  5
47
102
{ACAD_REACTORS
330
C
102
}
330
C
100
AcDbDictionary
281
     1
  3
A0
350
48
  3
A1
350
49
  3
A2
350
4A
  3
A3
350
4B
  3
A4
350
4C
  3
A5
350
4D
  3
A6
350
4E
  3
A7
350
4F
  3
A8
350
50
  3
A9
350
51
  3
B0
350
52
  3
B1
350
53
  3
B2
350
54
  3
B3
350
55
  3
B4
350
56
  3
B5
350
57
  3
B6
350
58
  3
B7
350
59
  3
B8
350
5A
  3
B9
350
5B
  3
C0
350
5C
  3
C1
350
5D
  3
C2
350
5E
  3
C3
350
5F
  3
C4
350
60
  3
C5
350
61
  3
C6
350
62
  3
C7
350
63
  3
C8
350
64
  3
C9
350
65
  3
D0
350
66
  3
D1
350
67
  3
D2
350
68
  0
LAYOUT
  5
1E
102
{ACAD_REACTORS
330
1A
102
}
330
1A
100
AcDbPlotSettings
  1

  2
none_device
  4

  6

 40
0.0
 41
0.0
 42
0.0
 43
0.0
 44
0.0
 45
0.0
 46
0.0
 47
0.0
 48
0.0
 49
0.0
140
0.0
141
0.0
142
1.0
143
1.0
 70
  4784
 72
     0
 73
     0
 74
     5
  7

 75
    16
147
1.0
148
0.0
149
0.0
100
AcDbLayout
  1
Layout1
 70
     1
 71
     1
 10
0.0
 20
0.0
 11
420.0
 21
297.0
 12
0.0
 22
0.0
 32
0.0
 14
0.0
 24
0.0
 34
0.0
 15
1011.431885
 25
720.806152
 35
2.0
146
0.0
 13
0.0
 23
0.0
 33
0.0
 16
1.0
 26
0.0
 36
0.0
 17
0.0
 27
1.0
 37
0.0
 76
     0
330
1B
  0
LAYOUT
  5
26
102
{ACAD_REACTORS
330
1A
102
}
330
1A
100
AcDbPlotSettings
  1

  2
none_device
  4

  6

 40
0.0
 41
0.0
 42
0.0
 43
0.0
 44
0.0
 45
0.0
 46
0.0
 47
0.0
 48
0.0
 49
0.0
140
0.0
141
0.0
142
1.0
143
1.0
 70
  4784
 72
     0
 73
     0
 74
     5
  7

 75
    16
147
1.0
148
0.0
149
0.0
100
AcDbLayout
  1
Layout2
 70
     1
 71
     2
 10
0.0
 20
0.0
 11
0.0
 21
0.0
 12
0.0
 22
0.0
 32
0.0
 14
0.0
 24
0.0
 34
0.0
 15
0.0
 25
0.0
 35
0.0
146
0.0
 13
0.0
 23
0.0
 33
0.0
 16
1.0
 26
0.0
 36
0.0
 17
0.0
 27
1.0
 37
0.0
 76
     0
330
23
  0
LAYOUT
  5
22
102
{ACAD_REACTORS
330
1A
102
}
330
1A
100
AcDbPlotSettings
  1

  2
none_device
  4
Letter_(8.50_x_11.00_Inches)
  6

 40
6.35
 41
6.35
 42
6.350005
 43
6.350005
 44
215.9
 45
279.4
 46
0.0
 47
0.0
 48
0.0
 49
0.0
140
0.0
141
0.0
142
1.0
143
1.0
 70
  5808
 72
     0
 73
     0
 74
     0
  7

 75
     0
147
1.0
148
0.0
149
0.0
100
AcDbLayout
  1
Model
 70
     1
 71
     0
 10
0.0
 20
0.0
 11
420.0
 21
297.0
 12
0.0
 22
0.0
 32
0.0
 14
0.0
 24
0.0
 34
0.0
 15
1011.431885
 25
720.806152
 35
2.0
146
0.0
 13
0.0
 23
0.0
 33
0.0
 16
1.0
 26
0.0
 36
0.0
 17
0.0
 27
1.0
 37
0.0
 76
     0
330
1F
331
29
  0
MLINESTYLE
  5
18
102
{ACAD_REACTORS
330
17
102
}
330
17
100
AcDbMlineStyle
  2
Standard
 70
     0
  3

 62
   256
 51
90.0
 52
90.0
 71
     2
 49
0.5
 62
   256
  6
BYLAYER
 49
-0.5
 62
   256
  6
BYLAYER
  0
ACDBPLACEHOLDER
  5
F
102
{ACAD_REACTORS
330
E
102
}
330
E
  0
SCALE
  5
48
102
{ACAD_REACTORS
330
47
102
}
330
47
100
AcDbScale
 70
     0
300
1:1
140
1.0
141
1.0
290
     1
  0
SCALE
  5
49
102
{ACAD_REACTORS
330
47
102
}
330
47
100
AcDbScale
 70
     0
300
1:2
140
1.0
141
2.0
290
     0
  0
SCALE
  5
4A
102
{ACAD_REACTORS
330
47
102
}
330
47
100
AcDbScale
 70
     0
300
1:4
140
1.0
141
4.0
290
     0
  0
SCALE
  5
4B
102
{ACAD_REACTORS
330
47
102
}
330
47
100
AcDbScale
 70
     0
300
1:5
140
1.0
141
5.0
290
     0
  0
SCALE
  5
4C
102
{ACAD_REACTORS
330
47
102
}
330
47
100
AcDbScale
 70
     0
300
1:8
140
1.0
141
8.0
290
     0
  0
SCALE
  5
4D
102
{ACAD_REACTORS
330
47
102
}
330
47
100
AcDbScale
 70
     0
300
1:10
140
1.0
141
10.0
290
     0
  0
SCALE
  5
4E
102
{ACAD_REACTORS
330
47
102
}
330
47
100
AcDbScale
 70
     0
300
1:16
140
1.0
141
16.0
290
     0
  0
SCALE
  5
4F
102
{ACAD_REACTORS
330
47
102
}
330
47
100
AcDbScale
 70
     0
300
1:20
140
1.0
141
20.0
290
     0
  0
SCALE
  5
50
102
{ACAD_REACTORS
330
47
102
}
330
47
100
AcDbScale
 70
     0
300
1:30
140
1.0
141
30.0
290
     0
  0
SCALE
  5
51
102
{ACAD_REACTORS
330
47
102
}
330
47
100
AcDbScale
 70
     0
300
1:40
140
1.0
141
40.0
290
     0
  0
SCALE
  5
52
102
{ACAD_REACTORS
330
47
102
}
330
47
100
AcDbScale
 70
     0
300
1:50
140
1.0
141
50.0
290
     0
  0
SCALE
  5
53
102
{ACAD_REACTORS
330
47
102
}
330
47
100
AcDbScale
 70
     0
300
1:100
140
1.0
141
100.0
290
     0
  0
SCALE
  5
54
102
{ACAD_REACTORS
330
47
102
}
330
47
100
AcDbScale
 70
     0
300
2:1
140
2.0
141
1.0
290
     0
  0
SCALE
  5
55
102
{ACAD_REACTORS
330
47
102
}
330
47
100
AcDbScale
 70
     0
300
4:1
140
4.0
141
1.0
290
     0
  0
SCALE
  5
56
102
{ACAD_REACTORS
330
47
102
}
330
47
100
AcDbScale
 70
     0
300
8:1
140
8.0
141
1.0
290
     0
  0
SCALE
  5
57
102
{ACAD_REACTORS
330
47
102
}
330
47
100
AcDbScale
 70
     0
300
10:1
140
10.0
141
1.0
290
     0
  0
SCALE
  5
58
102
{ACAD_REACTORS
330
47
102
}
330
47
100
AcDbScale
 70
     0
300
100:1
140
100.0
141
1.0
290
     0
  0
SCALE
  5
59
102
{ACAD_REACTORS
330
47
102
}
330
47
100
AcDbScale
 70
     0
300
1/128" = 1'-0"
140
0.007812
141
12.0
290
     0
  0
SCALE
  5
5A
102
{ACAD_REACTORS
330
47
102
}
330
47
100
AcDbScale
 70
     0
300
1/64" = 1'-0"
140
0.015625
141
12.0
290
     0
  0
SCALE
  5
5B
102
{ACAD_REACTORS
330
47
102
}
330
47
100
AcDbScale
 70
     0
300
1/32" = 1'-0"
140
0.03125
141
12.0
290
     0
  0
SCALE
  5
5C
102
{ACAD_REACTORS
330
47
102
}
330
47
100
AcDbScale
 70
     0
300
1/16" = 1'-0"
140
0.0625
141
12.0
290
     0
  0
SCALE
  5
5D
102
{ACAD_REACTORS
330
47
102
}
330
47
100
AcDbScale
 70
     0
300
3/32" = 1'-0"
140
0.09375
141
12.0
290
     0
  0
SCALE
  5
5E
102
{ACAD_REACTORS
330
47
102
}
330
47
100
AcDbScale
 70
     0
300
1/8" = 1'-0"
140
0.125
141
12.0
290
     0
  0
SCALE
  5
5F
102
{ACAD_REACTORS
330
47
102
}
330
47
100
AcDbScale
 70
     0
300
3/16" = 1'-0"
140
0.1875
141
12.0
290
     0
  0
SCALE
  5
60
102
{ACAD_REACTORS
330
47
102
}
330
47
100
AcDbScale
 70
     0
300
1/4" = 1'-0"
140
0.25
141
12.0
290
     0
  0
SCALE
  5
61
102
{ACAD_REACTORS
330
47
102
}
330
47
100
AcDbScale
 70
     0
300
3/8" = 1'-0"
140
0.375
141
12.0
290
     0
  0
SCALE
  5
62
102
{ACAD_REACTORS
330
47
102
}
330
47
100
AcDbScale
 70
     0
300
1/2" = 1'-0"
140
0.5
141
12.0
290
     0
  0
SCALE
  5
63
102
{ACAD_REACTORS
330
47
102
}
330
47
100
AcDbScale
 70
     0
300
3/4" = 1'-0"
140
0.75
141
12.0
290
     0
  0
SCALE
  5
64
102
{ACAD_REACTORS
330
47
102
}
330
47
100
AcDbScale
 70
     0
300
1" = 1'-0"
140
1.0
141
12.0
290
     0
  0
SCALE
  5
65
102
{ACAD_REACTORS
330
47
102
}
330
47
100
AcDbScale
 70
     0
300
1-1/2" = 1'-0"
140
1.5
141
12.0
290
     0
  0
SCALE
  5
66
102
{ACAD_REACTORS
330
47
102
}
330
47
100
AcDbScale
 70
     0
300
3" = 1'-0"
140
3.0
141
12.0
290
     0
  0
SCALE
  5
67
102
{ACAD_REACTORS
330
47
102
}
330
47
100
AcDbScale
 70
     0
300
6" = 1'-0"
140
6.0
141
12.0
290
     0
  0
SCALE
  5
68
102
{ACAD_REACTORS
330
47
102
}
330
47
100
AcDbScale
 70
     0
300
1'-0" = 1'-0"
140
12.0
141
12.0
290
     0
  0
ENDSEC
  0
EOF
