  0
SECTION
  2
HEADER
  9
$ACADVER
  1
AC1015
  9
$ACADMAINTVER
 70
     6
  9
$DWGCODEPAGE
  3
ANSI_1252
  9
$INSBASE
 10
0.0
 20
0.0
 30
0.0
  9
$EXTMIN
 10
0.0
 20
0.0
 30
0.0
  9
$EXTMAX
 10
766.53186
 20
738.508423
 30
2.0
  9
$LIMMIN
 10
0.0
 20
0.0
  9
$LIMMAX
 10
420.0
 20
297.0
  9
$ORTHOMODE
 70
     0
  9
$REGENMODE
 70
     1
  9
$FILLMODE
 70
     1
  9
$QTEXTMODE
 70
     0
  9
$MIRRTEXT
 70
     1
  9
$LTSCALE
 40
1.0
  9
$ATTMODE
 70
     1
  9
$TEXTSIZE
 40
2.5
  9
$TRACEWID
 40
1.0
  9
$TEXTSTYLE
  7
Standard
  9
$CLAYER
  8
0
  9
$CELTYPE
  6
ByLayer
  9
$CECOLOR
 62
   256
  9
$CELTSCALE
 40
1.0
  9
$DISPSILH
 70
     0
  9
$DIMSCALE
 40
1.0
  9
$DIMASZ
 40
2.5
  9
$DIMEXO
 40
0.625
  9
$DIMDLI
 40
3.75
  9
$DIMRND
 40
0.0
  9
$DIMDLE
 40
0.0
  9
$DIMEXE
 40
1.25
  9
$DIMTP
 40
0.0
  9
$DIMTM
 40
0.0
  9
$DIMTXT
 40
2.5
  9
$DIMCEN
 40
2.5
  9
$DIMTSZ
 40
0.0
  9
$DIMTOL
 70
     0
  9
$DIMLIM
 70
     0
  9
$DIMTIH
 70
     0
  9
$DIMTOH
 70
     0
  9
$DIMSE1
 70
     0
  9
$DIMSE2
 70
     0
  9
$DIMTAD
 70
     1
  9
$DIMZIN
 70
     8
  9
$DIMBLK
  1

  9
$DIMASO
 70
     1
  9
$DIMSHO
 70
     1
  9
$DIMPOST
  1

  9
$DIMAPOST
  1

  9
$DIMALT
 70
     0
  9
$DIMALTD
 70
     3
  9
$DIMALTF
 40
0.03937
  9
$DIMLFAC
 40
1.0
  9
$DIMTOFL
 70
     1
  9
$DIMTVP
 40
0.0
  9
$DIMTIX
 70
     0
  9
$DIMSOXD
 70
     0
  9
$DIMSAH
 70
     0
  9
$DIMBLK1
  1

  9
$DIMBLK2
  1

  9
$DIMSTYLE
  2
Standard
  9
$DIMCLRD
 70
     0
  9
$DIMCLRE
 70
     0
  9
$DIMCLRT
 70
     0
  9
$DIMTFAC
 40
1.0
  9
$DIMGAP
 40
0.625
  9
$DIMJUST
 70
     0
  9
$DIMSD1
 70
     0
  9
$DIMSD2
 70
     0
  9
$DIMTOLJ
 70
     0
  9
$DIMTZIN
 70
     8
  9
$DIMALTZ
 70
     0
  9
$DIMALTTZ
 70
     0
  9
$DIMUPT
 70
     0
  9
$DIMDEC
 70
     2
  9
$DIMTDEC
 70
     2
  9
$DIMALTU
 70
     2
  9
$DIMALTTD
 70
     3
  9
$DIMTXSTY
  7
Standard
  9
$DIMAUNIT
 70
     0
  9
$DIMADEC
 70
     0
  9
$DIMALTRND
 40
0.0
  9
$DIMAZIN
 70
     0
  9
$DIMDSEP
 70
    44
  9
$DIMATFIT
 70
     0
  9
$DIMFRAC
 70
     0
  9
$DIMLDRBLK
  1

  9
$DIMLUNIT
 70
     2
  9
$DIMLWD
 70
    -2
  9
$DIMLWE
 70
    -2
  9
$DIMTMOVE
 70
     0
  9
$LUNITS
 70
     2
  9
$LUPREC
 70
     4
  9
$SKETCHINC
 40
1.0
  9
$FILLETRAD
 40
2.5
  9
$AUNITS
 70
     0
  9
$AUPREC
 70
     0
  9
$MENU
  1
.
  9
$ELEVATION
 40
0.0
  9
$PELEVATION
 40
0.0
  9
$THICKNESS
 40
0.0
  9
$LIMCHECK
 70
     0
  9
$CHAMFERA
 40
2.5
  9
$CHAMFERB
 40
2.5
  9
$CHAMFERC
 40
0.0
  9
$CHAMFERD
 40
0.0
  9
$SKPOLY
 70
     0
  9
$TDCREATE
 40
2447893.125
  9
$TDUCREATE
 40
0.0
  9
$TDUPDATE
 40
2458855.690781586
  9
$TDUUPDATE
 40
2458855.565781586
  9
$TDINDWG
 40
0.0
  9
$TDUSRTIMER
 40
0.0
  9
$USRTIMER
 70
     1
  9
$ANGBASE
 50
0.0
  9
$ANGDIR
 70
     0
  9
$PDMODE
 70
     0
  9
$PDSIZE
 40
0.0
  9
$PLINEWID
 40
0.0
  9
$SPLFRAME
 70
     0
  9
$SPLINETYPE
 70
     6
  9
$SPLINESEGS
 70
     8
  9
$HANDSEED
  5
209
  9
$SURFTAB1
 70
     6
  9
$SURFTAB2
 70
     6
  9
$SURFTYPE
 70
     6
  9
$SURFU
 70
     6
  9
$SURFV
 70
     6
  9
$UCSBASE
  2

  9
$UCSNAME
  2

  9
$UCSORG
 10
0.0
 20
0.0
 30
0.0
  9
$UCSXDIR
 10
1.0
 20
0.0
 30
0.0
  9
$UCSYDIR
 10
0.0
 20
1.0
 30
0.0
  9
$UCSORTHOREF
  2

  9
$UCSORTHOVIEW
 70
     1
  9
$UCSORGTOP
 10
0.0
 20
0.0
 30
0.0
  9
$UCSORGBOTTOM
 10
0.0
 20
0.0
 30
0.0
  9
$UCSORGLEFT
 10
0.0
 20
0.0
 30
0.0
  9
$UCSORGRIGHT
 10
0.0
 20
0.0
 30
0.0
  9
$UCSORGFRONT
 10
0.0
 20
0.0
 30
0.0
  9
$UCSORGBACK
 10
0.0
 20
0.0
 30
0.0
  9
$PUCSBASE
  2

  9
$PUCSNAME
  2

  9
$PUCSORG
 10
0.0
 20
0.0
 30
0.0
  9
$PUCSXDIR
 10
1.0
 20
0.0
 30
0.0
  9
$PUCSYDIR
 10
0.0
 20
1.0
 30
0.0
  9
$PUCSORTHOREF
  2

  9
$PUCSORTHOVIEW
 70
     0
  9
$PUCSORGTOP
 10
0.0
 20
0.0
 30
0.0
  9
$PUCSORGBOTTOM
 10
0.0
 20
0.0
 30
0.0
  9
$PUCSORGLEFT
 10
0.0
 20
0.0
 30
0.0
  9
$PUCSORGRIGHT
 10
0.0
 20
0.0
 30
0.0
  9
$PUCSORGFRONT
 10
0.0
 20
0.0
 30
0.0
  9
$PUCSORGBACK
 10
0.0
 20
0.0
 30
0.0
  9
$USERI1
 70
     0
  9
$USERI2
 70
     0
  9
$USERI3
 70
     0
  9
$USERI4
 70
     0
  9
$USERI5
 70
     0
  9
$USERR1
 40
0.0
  9
$USERR2
 40
0.0
  9
$USERR3
 40
0.0
  9
$USERR4
 40
0.0
  9
$USERR5
 40
0.0
  9
$WORLDVIEW
 70
     1
  9
$SHADEDGE
 70
     3
  9
$SHADEDIF
 70
    70
  9
$TILEMODE
 70
     1
  9
$MAXACTVP
 70
    64
  9
$PINSBASE
 10
0.0
 20
0.0
 30
0.0
  9
$PLIMCHECK
 70
     0
  9
$PEXTMIN
 10
0.0
 20
0.0
 30
0.0
  9
$PEXTMAX
 10
766.53186
 20
738.508423
 30
2.0
  9
$PLIMMIN
 10
0.0
 20
0.0
  9
$PLIMMAX
 10
420.0
 20
297.0
  9
$UNITMODE
 70
     0
  9
$VISRETAIN
 70
     0
  9
$PLINEGEN
 70
     0
  9
$PSLTSCALE
 70
     1
  9
$TREEDEPTH
 70
  3020
  9
$CMLSTYLE
  2
Standard
  9
$CMLJUST
 70
     0
  9
$CMLSCALE
 40
20.0
  9
$PROXYGRAPHICS
 70
     1
  9
$MEASUREMENT
 70
     1
  9
$CELWEIGHT
370
    -1
  9
$ENDCAPS
280
     0
  9
$JOINSTYLE
280
     0
  9
$LWDISPLAY
290
     0
  9
$INSUNITS
 70
     0
  9
$HYPERLINKBASE
  1

  9
$STYLESHEET
  1

  9
$XEDIT
290
     1
  9
$CEPSNTYPE
380
     0
  9
$PSTYLEMODE
290
     0
  9
$FINGERPRINTGUID
  2
{1203C096-0137-404E-A1AB-4656129ADEA2}
  9
$VERSIONGUID
  2
{FAEB1C32-E019-11D5-929B-00C0DF256EC4}
  9
$EXTNAMES
290
     1
  9
$PSVPSCALE
 40
0.0
  9
$OLESTARTUP
290
     0
  0
ENDSEC
  0
SECTION
  2
CLASSES
  0
CLASS
  1
ACDBDICTIONARYWDFLT
  2
AcDbDictionaryWithDefault
  3
ObjectDBX Classes
 90
        0
280
     0
281
     0
  0
CLASS
  1
VISUALSTYLE
  2
AcDbVisualStyle
  3
ObjectDBX Classes
 90
     4095
280
     0
281
     0
  0
CLASS
  1
MATERIAL
  2
AcDbMaterial
  3
ObjectDBX Classes
 90
     1153
280
     0
281
     0
  0
CLASS
  1
SCALE
  2
AcDbScale
  3
ObjectDBX Classes
 90
     1153
280
     0
281
     0
  0
CLASS
  1
SUN
  2
AcDbSun
  3
SCENEOE
 90
     1153
280
     0
281
     0
  0
CLASS
  1
ACDBPLACEHOLDER
  2
AcDbPlaceHolder
  3
ObjectDBX Classes
 90
        0
280
     0
281
     0
  0
CLASS
  1
LAYOUT
  2
AcDbLayout
  3
ObjectDBX Classes
 90
        0
280
     0
281
     0
  0
ENDSEC
  0
SECTION
  2
TABLES
  0
TABLE
  2
VPORT
  5
8
330
0
100
AcDbSymbolTable
 70
     1
  0
VPORT
  5
29
330
8
100
AcDbSymbolTableRecord
100
AcDbViewportTableRecord
  2
*Active
 70
     0
 10
0.0
 20
0.0
 11
1.0
 21
1.0
 12
10.429907
 22
4.5
 13
0.0
 23
0.0
 14
0.5
 24
0.5
 15
0.5
 25
0.5
 16
0.0
 26
0.0
 36
1.0
 17
0.0
 27
0.0
 37
0.0
 40
9.0
 41
1.972973
 42
50.0
 43
0.0
 44
0.0
 50
0.0
 51
0.0
 71
     0
 72
   100
 73
     1
 74
     3
 75
     0
 76
     0
 77
     0
 78
     0
281
     0
 65
     1
110
0.0
120
0.0
130
0.0
111
1.0
121
0.0
131
0.0
112
0.0
122
1.0
132
0.0
 79
     0
146
0.0
  0
ENDTAB
  0
TABLE
  2
LTYPE
  5
5
330
0
100
AcDbSymbolTable
 70
     2
  0
LTYPE
  5
14
330
5
100
AcDbSymbolTableRecord
100
AcDbLinetypeTableRecord
  2
ByBlock
 70
     0
  3

 72
    65
 73
     0
 40
0.0
  0
LTYPE
  5
15
330
5
100
AcDbSymbolTableRecord
100
AcDbLinetypeTableRecord
  2
ByLayer
 70
     0
  3

 72
    65
 73
     0
 40
0.0
  0
LTYPE
  5
16
330
5
100
AcDbSymbolTableRecord
100
AcDbLinetypeTableRecord
  2
Continuous
 70
     0
  3
Solid line
 72
    65
 73
     0
 40
0.0
  0
LTYPE
  5
6A
330
5
100
AcDbSymbolTableRecord
100
AcDbLinetypeTableRecord
  2
DASHSPACE
 70
     0
  3
__    __    __    __    __   
 72
    65
 73
     2
 40
30.0
 49
12.0
 74
     0
 49
-18.0
 74
     0
  0
ENDTAB
  0
TABLE
  2
LAYER
  5
2
330
0
100
AcDbSymbolTable
 70
     1
  0
LAYER
  5
10
330
2
100
AcDbSymbolTableRecord
100
AcDbLayerTableRecord
  2
0
 70
     0
 62
     7
  6
Continuous
370
    -3
390
F
  0
ENDTAB
  0
TABLE
  2
STYLE
  5
3
330
0
100
AcDbSymbolTable
 70
     1
  0
STYLE
  5
11
330
3
100
AcDbSymbolTableRecord
100
AcDbTextStyleTableRecord
  2
Standard
 70
     0
 40
0.0
 41
1.0
 50
0.0
 71
     0
 42
2.5
  3
txt
  4

  0
ENDTAB
  0
TABLE
  2
VIEW
  5
6
330
0
100
AcDbSymbolTable
 70
     0
  0
ENDTAB
  0
TABLE
  2
UCS
  5
7
330
0
100
AcDbSymbolTable
 70
     0
  0
ENDTAB
  0
TABLE
  2
APPID
  5
9
330
0
100
AcDbSymbolTable
 70
     1
  0
APPID
  5
12
330
9
100
AcDbSymbolTableRecord
100
AcDbRegAppTableRecord
  2
ACAD
 70
     0
  0
ENDTAB
  0
TABLE
  2
DIMSTYLE
  5
A
330
0
100
AcDbSymbolTable
 70
     1
100
AcDbDimStyleTable
  0
DIMSTYLE
105
27
330
A
100
AcDbSymbolTableRecord
100
AcDbDimStyleTableRecord
  2
Standard
 70
     0
178
     0
340
11
  0
ENDTAB
  0
TABLE
  2
BLOCK_RECORD
  5
1
330
0
100
AcDbSymbolTable
 70
     1
  0
BLOCK_RECORD
  5
1F
330
1
100
AcDbSymbolTableRecord
100
AcDbBlockTableRecord
  2
*Model_Space
340
22
  0
BLOCK_RECORD
  5
1B
330
1
100
AcDbSymbolTableRecord
100
AcDbBlockTableRecord
  2
*Paper_Space
340
1E
  0
BLOCK_RECORD
  5
23
330
1
100
AcDbSymbolTableRecord
100
AcDbBlockTableRecord
  2
*Paper_Space0
340
26
  0
ENDTAB
  0
ENDSEC
  0
SECTION
  2
BLOCKS
  0
BLOCK
  5
20
330
1F
100
AcDbEntity
  8
0
100
AcDbBlockBegin
  2
*Model_Space
 70
     0
 10
0.0
 20
0.0
 30
0.0
  3
*Model_Space
  1
*Model_Space
  0
ENDBLK
  5
21
330
1F
100
AcDbEntity
  8
0
100
AcDbBlockEnd
  0
BLOCK
  5
1C
330
1B
100
AcDbEntity
 67
     1
  8
0
100
AcDbBlockBegin
  2
*Paper_Space
 70
     0
 10
0.0
 20
0.0
 30
0.0
  3
*Paper_Space
  1
*Paper_Space
  0
ENDBLK
  5
1D
330
1B
100
AcDbEntity
 67
     1
  8
0
100
AcDbBlockEnd
  0
BLOCK
  5
24
330
23
100
AcDbEntity
  8
0
100
AcDbBlockBegin
  2
*Paper_Space0
 70
     0
 10
0.0
 20
0.0
 30
0.0
  3
*Paper_Space0
  1
*Paper_Space0
  0
ENDBLK
  5
25
330
23
100
AcDbEntity
  8
0
100
AcDbBlockEnd
  0
ENDSEC
  0
SECTION
  2
ENTITIES
  0
POLYLINE
  5
6B
330
1F
100
AcDbEntity
  8
0
 62
     7
370
    13
100
AcDb2dPolyline
 66
     1
 10
0.0
 20
0.0
 30
0.0
  0
VERTEX
  5
6C
330
6B
100
AcDbEntity
  8
0
370
     0
100
AcDbVertex
100
AcDb2dVertex
 10
556.38385
 20
691.01416
 30
0.0
  0
VERTEX
  5
6D
330
6B
100
AcDbEntity
  8
0
370
     0
100
AcDbVertex
100
AcDb2dVertex
 10
557.061279
 20
689.885132
 30
0.0
  0
VERTEX
  5
6E
330
6B
100
AcDbEntity
  8
0
370
     0
100
AcDbVertex
100
AcDb2dVertex
 10
557.738708
 20
689.207703
 30
0.0
  0
VERTEX
  5
6F
330
6B
100
AcDbEntity
  8
0
370
     0
100
AcDbVertex
100
AcDb2dVertex
 10
560.222595
 20
688.530273
 30
0.0
  0
VERTEX
  5
70
330
6B
100
AcDbEntity
  8
0
370
     0
100
AcDbVertex
100
AcDb2dVertex
 10
562.706421
 20
688.530273
 30
0.0
  0
VERTEX
  5
71
330
6B
100
AcDbEntity
  8
0
370
     0
100
AcDbVertex
100
AcDb2dVertex
 10
565.416138
 20
689.207703
 30
0.0
  0
VERTEX
  5
72
330
6B
100
AcDbEntity
  8
0
370
     0
100
AcDbVertex
100
AcDb2dVertex
 10
566.770996
 20
690.5625
 30
0.0
  0
VERTEX
  5
73
330
6B
100
AcDbEntity
  8
0
370
     0
100
AcDbVertex
100
AcDb2dVertex
 10
567.448364
 20
692.594788
 30
0.0
  0
VERTEX
  5
74
330
6B
100
AcDbEntity
  8
0
370
     0
100
AcDbVertex
100
AcDb2dVertex
 10
567.448364
 20
693.949585
 30
0.0
  0
VERTEX
  5
75
330
6B
100
AcDbEntity
  8
0
370
     0
100
AcDbVertex
100
AcDb2dVertex
 10
566.770996
 20
695.981873
 30
0.0
  0
VERTEX
  5
76
330
6B
100
AcDbEntity
  8
0
370
     0
100
AcDbVertex
100
AcDb2dVertex
 10
566.093567
 20
696.659302
 30
0.0
  0
VERTEX
  5
77
330
6B
100
AcDbEntity
  8
0
370
     0
100
AcDbVertex
100
AcDb2dVertex
 10
564.738708
 20
697.336731
 30
0.0
  0
VERTEX
  5
78
330
6B
100
AcDbEntity
  8
0
370
     0
100
AcDbVertex
100
AcDb2dVertex
 10
561.577393
 20
697.336731
 30
0.0
  0
VERTEX
  5
79
330
6B
100
AcDbEntity
  8
0
370
     0
100
AcDbVertex
100
AcDb2dVertex
 10
566.319336
 20
702.530273
 30
0.0
  0
VERTEX
  5
7A
330
6B
100
AcDbEntity
  8
0
370
     0
100
AcDbVertex
100
AcDb2dVertex
 10
557.964539
 20
702.530273
 30
0.0
  0
SEQEND
  5
7B
330
6B
100
AcDbEntity
  8
0
 62
     7
370
    13
  0
POLYLINE
  5
7C
330
1F
100
AcDbEntity
  8
0
 62
     7
370
    13
100
AcDb2dPolyline
 66
     1
 10
0.0
 20
0.0
 30
0.0
  0
VERTEX
  5
7D
330
7C
100
AcDbEntity
  8
0
370
     0
100
AcDbVertex
100
AcDb2dVertex
 10
572.732239
 20
691.01416
 30
0.0
  0
VERTEX
  5
7E
330
7C
100
AcDbEntity
  8
0
370
     0
100
AcDbVertex
100
AcDb2dVertex
 10
573.409668
 20
689.885132
 30
0.0
  0
VERTEX
  5
7F
330
7C
100
AcDbEntity
  8
0
370
     0
100
AcDbVertex
100
AcDb2dVertex
 10
574.087097
 20
689.207703
 30
0.0
  0
VERTEX
  5
80
330
7C
100
AcDbEntity
  8
0
370
     0
100
AcDbVertex
100
AcDb2dVertex
 10
576.570984
 20
688.530273
 30
0.0
  0
VERTEX
  5
81
330
7C
100
AcDbEntity
  8
0
370
     0
100
AcDbVertex
100
AcDb2dVertex
 10
579.05481
 20
688.530273
 30
0.0
  0
VERTEX
  5
82
330
7C
100
AcDbEntity
  8
0
370
     0
100
AcDbVertex
100
AcDb2dVertex
 10
581.764526
 20
689.207703
 30
0.0
  0
VERTEX
  5
83
330
7C
100
AcDbEntity
  8
0
370
     0
100
AcDbVertex
100
AcDb2dVertex
 10
583.119324
 20
690.5625
 30
0.0
  0
VERTEX
  5
84
330
7C
100
AcDbEntity
  8
0
370
     0
100
AcDbVertex
100
AcDb2dVertex
 10
583.796753
 20
692.594788
 30
0.0
  0
VERTEX
  5
85
330
7C
100
AcDbEntity
  8
0
370
     0
100
AcDbVertex
100
AcDb2dVertex
 10
583.796753
 20
693.949585
 30
0.0
  0
VERTEX
  5
86
330
7C
100
AcDbEntity
  8
0
370
     0
100
AcDbVertex
100
AcDb2dVertex
 10
583.119324
 20
695.981873
 30
0.0
  0
VERTEX
  5
87
330
7C
100
AcDbEntity
  8
0
370
     0
100
AcDbVertex
100
AcDb2dVertex
 10
582.441956
 20
696.659302
 30
0.0
  0
VERTEX
  5
88
330
7C
100
AcDbEntity
  8
0
370
     0
100
AcDbVertex
100
AcDb2dVertex
 10
581.087097
 20
697.336731
 30
0.0
  0
VERTEX
  5
89
330
7C
100
AcDbEntity
  8
0
370
     0
100
AcDbVertex
100
AcDb2dVertex
 10
577.925781
 20
697.336731
 30
0.0
  0
VERTEX
  5
8A
330
7C
100
AcDbEntity
  8
0
370
     0
100
AcDbVertex
100
AcDb2dVertex
 10
582.667725
 20
702.530273
 30
0.0
  0
VERTEX
  5
8B
330
7C
100
AcDbEntity
  8
0
370
     0
100
AcDbVertex
100
AcDb2dVertex
 10
574.312927
 20
702.530273
 30
0.0
  0
SEQEND
  5
8C
330
7C
100
AcDbEntity
  8
0
 62
     7
370
    13
  0
POLYLINE
  5
8D
330
1F
100
AcDbEntity
  8
0
 62
     7
370
    13
100
AcDb2dPolyline
 66
     1
 10
0.0
 20
0.0
 30
0.0
 70
     1
  0
VERTEX
  5
8E
330
8D
100
AcDbEntity
  8
0
370
     0
100
AcDbVertex
100
AcDb2dVertex
 10
593.596741
 20
702.530273
 30
0.0
  0
VERTEX
  5
8F
330
8D
100
AcDbEntity
  8
0
370
     0
100
AcDbVertex
100
AcDb2dVertex
 10
591.112915
 20
701.852844
 30
0.0
  0
VERTEX
  5
90
330
8D
100
AcDbEntity
  8
0
370
     0
100
AcDbVertex
100
AcDb2dVertex
 10
589.532227
 20
699.594788
 30
0.0
  0
VERTEX
  5
91
330
8D
100
AcDbEntity
  8
0
370
     0
100
AcDbVertex
100
AcDb2dVertex
 10
588.854858
 20
697.336731
 30
0.0
  0
VERTEX
  5
92
330
8D
100
AcDbEntity
  8
0
370
     0
100
AcDbVertex
100
AcDb2dVertex
 10
588.854858
 20
694.401245
 30
0.0
  0
VERTEX
  5
93
330
8D
100
AcDbEntity
  8
0
370
     0
100
AcDbVertex
100
AcDb2dVertex
 10
589.532227
 20
691.465759
 30
0.0
  0
VERTEX
  5
94
330
8D
100
AcDbEntity
  8
0
370
     0
100
AcDbVertex
100
AcDb2dVertex
 10
591.112915
 20
689.207703
 30
0.0
  0
VERTEX
  5
95
330
8D
100
AcDbEntity
  8
0
370
     0
100
AcDbVertex
100
AcDb2dVertex
 10
593.596741
 20
688.530273
 30
0.0
  0
VERTEX
  5
96
330
8D
100
AcDbEntity
  8
0
370
     0
100
AcDbVertex
100
AcDb2dVertex
 10
595.403198
 20
688.530273
 30
0.0
  0
VERTEX
  5
97
330
8D
100
AcDbEntity
  8
0
370
     0
100
AcDbVertex
100
AcDb2dVertex
 10
597.887085
 20
689.207703
 30
0.0
  0
VERTEX
  5
98
330
8D
100
AcDbEntity
  8
0
370
     0
100
AcDbVertex
100
AcDb2dVertex
 10
599.467712
 20
691.465759
 30
0.0
  0
VERTEX
  5
99
330
8D
100
AcDbEntity
  8
0
370
     0
100
AcDbVertex
100
AcDb2dVertex
 10
600.145142
 20
694.175415
 30
0.0
  0
VERTEX
  5
9A
330
8D
100
AcDbEntity
  8
0
370
     0
100
AcDbVertex
100
AcDb2dVertex
 10
600.145142
 20
697.336731
 30
0.0
  0
VERTEX
  5
9B
330
8D
100
AcDbEntity
  8
0
370
     0
100
AcDbVertex
100
AcDb2dVertex
 10
599.467712
 20
699.594788
 30
0.0
  0
VERTEX
  5
9C
330
8D
100
AcDbEntity
  8
0
370
     0
100
AcDbVertex
100
AcDb2dVertex
 10
597.887085
 20
701.852844
 30
0.0
  0
VERTEX
  5
9D
330
8D
100
AcDbEntity
  8
0
370
     0
100
AcDbVertex
100
AcDb2dVertex
 10
595.403198
 20
702.530273
 30
0.0
  0
SEQEND
  5
9E
330
8D
100
AcDbEntity
  8
0
 62
     7
370
    13
  0
POLYLINE
  5
9F
330
1F
100
AcDbEntity
  8
0
 62
     7
370
    13
100
AcDb2dPolyline
 66
     1
 10
0.0
 20
0.0
 30
0.0
  0
VERTEX
  5
A0
330
9F
100
AcDbEntity
  8
0
370
     0
100
AcDbVertex
100
AcDb2dVertex
 10
610.848389
 20
688.530273
 30
0.0
  0
VERTEX
  5
A1
330
9F
100
AcDbEntity
  8
0
370
     0
100
AcDbVertex
100
AcDb2dVertex
 10
611.299988
 20
688.530273
 30
0.0
  0
SEQEND
  5
A2
330
9F
100
AcDbEntity
  8
0
 62
     7
370
    13
  0
POLYLINE
  5
A3
330
1F
100
AcDbEntity
  8
0
 62
     7
370
    13
100
AcDb2dPolyline
 66
     1
 10
0.0
 20
0.0
 30
0.0
  0
VERTEX
  5
A4
330
A3
100
AcDbEntity
  8
0
370
     0
100
AcDbVertex
100
AcDb2dVertex
 10
611.977417
 20
689.659302
 30
0.0
  0
VERTEX
  5
A5
330
A3
100
AcDbEntity
  8
0
370
     0
100
AcDbVertex
100
AcDb2dVertex
 10
611.299988
 20
690.336731
 30
0.0
  0
SEQEND
  5
A6
330
A3
100
AcDbEntity
  8
0
 62
     7
370
    13
  0
POLYLINE
  5
A7
330
1F
100
AcDbEntity
  8
0
 62
     7
370
    13
100
AcDb2dPolyline
 66
     1
 10
0.0
 20
0.0
 30
0.0
  0
VERTEX
  5
A8
330
A7
100
AcDbEntity
  8
0
370
     0
100
AcDbVertex
100
AcDb2dVertex
 10
610.848389
 20
690.336731
 30
0.0
  0
VERTEX
  5
A9
330
A7
100
AcDbEntity
  8
0
370
     0
100
AcDbVertex
100
AcDb2dVertex
 10
610.170959
 20
689.659302
 30
0.0
  0
SEQEND
  5
AA
330
A7
100
AcDbEntity
  8
0
 62
     7
370
    13
  0
POLYLINE
  5
AB
330
1F
100
AcDbEntity
  8
0
 62
     7
370
    13
100
AcDb2dPolyline
 66
     1
 10
0.0
 20
0.0
 30
0.0
  0
VERTEX
  5
AC
330
AB
100
AcDbEntity
  8
0
370
     0
100
AcDbVertex
100
AcDb2dVertex
 10
610.170959
 20
689.207703
 30
0.0
  0
VERTEX
  5
AD
330
AB
100
AcDbEntity
  8
0
370
     0
100
AcDbVertex
100
AcDb2dVertex
 10
610.848389
 20
688.530273
 30
0.0
  0
SEQEND
  5
AE
330
AB
100
AcDbEntity
  8
0
 62
     7
370
    13
  0
POLYLINE
  5
AF
330
1F
100
AcDbEntity
  8
0
 62
     7
370
    13
100
AcDb2dPolyline
 66
     1
 10
0.0
 20
0.0
 30
0.0
  0
VERTEX
  5
B0
330
AF
100
AcDbEntity
  8
0
370
     0
100
AcDbVertex
100
AcDb2dVertex
 10
611.299988
 20
688.530273
 30
0.0
  0
VERTEX
  5
B1
330
AF
100
AcDbEntity
  8
0
370
     0
100
AcDbVertex
100
AcDb2dVertex
 10
611.977417
 20
689.207703
 30
0.0
  0
SEQEND
  5
B2
330
AF
100
AcDbEntity
  8
0
 62
     7
370
    13
  0
POLYLINE
  5
B3
330
1F
100
AcDbEntity
  8
0
 62
     7
370
    13
100
AcDb2dPolyline
 66
     1
 10
0.0
 20
0.0
 30
0.0
  0
VERTEX
  5
B4
330
B3
100
AcDbEntity
  8
0
370
     0
100
AcDbVertex
100
AcDb2dVertex
 10
610.170959
 20
689.659302
 30
0.0
  0
VERTEX
  5
B5
330
B3
100
AcDbEntity
  8
0
370
     0
100
AcDbVertex
100
AcDb2dVertex
 10
610.170959
 20
689.207703
 30
0.0
  0
SEQEND
  5
B6
330
B3
100
AcDbEntity
  8
0
 62
     7
370
    13
  0
POLYLINE
  5
B7
330
1F
100
AcDbEntity
  8
0
 62
     7
370
    13
100
AcDb2dPolyline
 66
     1
 10
0.0
 20
0.0
 30
0.0
  0
VERTEX
  5
B8
330
B7
100
AcDbEntity
  8
0
370
     0
100
AcDbVertex
100
AcDb2dVertex
 10
610.848389
 20
690.336731
 30
0.0
  0
VERTEX
  5
B9
330
B7
100
AcDbEntity
  8
0
370
     0
100
AcDbVertex
100
AcDb2dVertex
 10
611.299988
 20
690.336731
 30
0.0
  0
SEQEND
  5
BA
330
B7
100
AcDbEntity
  8
0
 62
     7
370
    13
  0
POLYLINE
  5
BB
330
1F
100
AcDbEntity
  8
0
 62
     7
370
    13
100
AcDb2dPolyline
 66
     1
 10
0.0
 20
0.0
 30
0.0
  0
VERTEX
  5
BC
330
BB
100
AcDbEntity
  8
0
370
     0
100
AcDbVertex
100
AcDb2dVertex
 10
611.977417
 20
689.659302
 30
0.0
  0
VERTEX
  5
BD
330
BB
100
AcDbEntity
  8
0
370
     0
100
AcDbVertex
100
AcDb2dVertex
 10
611.977417
 20
689.207703
 30
0.0
  0
SEQEND
  5
BE
330
BB
100
AcDbEntity
  8
0
 62
     7
370
    13
  0
POLYLINE
  5
BF
330
1F
100
AcDbEntity
  8
0
 62
     7
370
    13
100
AcDb2dPolyline
 66
     1
 10
0.0
 20
0.0
 30
0.0
  0
VERTEX
  5
C0
330
BF
100
AcDbEntity
  8
0
370
     0
100
AcDbVertex
100
AcDb2dVertex
 10
632.61615
 20
688.530273
 30
0.0
  0
VERTEX
  5
C1
330
BF
100
AcDbEntity
  8
0
370
     0
100
AcDbVertex
100
AcDb2dVertex
 10
621.777405
 20
688.530273
 30
0.0
  0
VERTEX
  5
C2
330
BF
100
AcDbEntity
  8
0
370
     0
100
AcDbVertex
100
AcDb2dVertex
 10
629.454834
 20
694.852844
 30
0.0
  0
VERTEX
  5
C3
330
BF
100
AcDbEntity
  8
0
370
     0
100
AcDbVertex
100
AcDb2dVertex
 10
631.035461
 20
696.659302
 30
0.0
  0
VERTEX
  5
C4
330
BF
100
AcDbEntity
  8
0
370
     0
100
AcDbVertex
100
AcDb2dVertex
 10
631.712891
 20
698.01416
 30
0.0
  0
VERTEX
  5
C5
330
BF
100
AcDbEntity
  8
0
370
     0
100
AcDbVertex
100
AcDb2dVertex
 10
631.712891
 20
699.369019
 30
0.0
  0
VERTEX
  5
C6
330
BF
100
AcDbEntity
  8
0
370
     0
100
AcDbVertex
100
AcDb2dVertex
 10
631.035461
 20
700.949585
 30
0.0
  0
VERTEX
  5
C7
330
BF
100
AcDbEntity
  8
0
370
     0
100
AcDbVertex
100
AcDb2dVertex
 10
630.358032
 20
701.852844
 30
0.0
  0
VERTEX
  5
C8
330
BF
100
AcDbEntity
  8
0
370
     0
100
AcDbVertex
100
AcDb2dVertex
 10
628.777405
 20
702.530273
 30
0.0
  0
VERTEX
  5
C9
330
BF
100
AcDbEntity
  8
0
370
     0
100
AcDbVertex
100
AcDb2dVertex
 10
626.067749
 20
702.530273
 30
0.0
  0
VERTEX
  5
CA
330
BF
100
AcDbEntity
  8
0
370
     0
100
AcDbVertex
100
AcDb2dVertex
 10
624.487122
 20
701.852844
 30
0.0
  0
VERTEX
  5
CB
330
BF
100
AcDbEntity
  8
0
370
     0
100
AcDbVertex
100
AcDb2dVertex
 10
623.809692
 20
701.175415
 30
0.0
  0
VERTEX
  5
CC
330
BF
100
AcDbEntity
  8
0
370
     0
100
AcDbVertex
100
AcDb2dVertex
 10
622.906433
 20
699.820557
 30
0.0
  0
VERTEX
  5
CD
330
BF
100
AcDbEntity
  8
0
370
     0
100
AcDbVertex
100
AcDb2dVertex
 10
622.906433
 20
699.143188
 30
0.0
  0
SEQEND
  5
CE
330
BF
100
AcDbEntity
  8
0
 62
     7
370
    13
  0
LINE
  5
CF
330
1F
100
AcDbEntity
  8
0
 62
     7
370
    13
100
AcDbLine
 10
429.399994
 20
651.099976
 30
0.0
 11
429.399994
 21
688.530273
 31
0.0
  0
LINE
  5
D0
330
1F
100
AcDbEntity
  8
0
 62
     7
370
    13
100
AcDbLine
 10
759.599976
 20
651.099976
 30
0.0
 11
759.599976
 21
688.530273
 31
0.0
  0
POLYLINE
  5
D1
330
1F
100
AcDbEntity
  8
0
 62
     7
370
    13
100
AcDb2dPolyline
 66
     1
 10
0.0
 20
0.0
 30
0.0
  0
VERTEX
  5
D2
330
D1
100
AcDbEntity
  8
0
370
     0
100
AcDbVertex
100
AcDb2dVertex
 10
757.668152
 20
686.012634
 30
0.0
  0
VERTEX
  5
D3
330
D1
100
AcDbEntity
  8
0
370
     0
100
AcDbVertex
100
AcDb2dVertex
 10
759.599976
 20
686.530273
 30
0.0
  0
VERTEX
  5
D4
330
D1
100
AcDbEntity
  8
0
370
     0
100
AcDbVertex
100
AcDb2dVertex
 10
757.668152
 20
687.047913
 30
0.0
  0
SEQEND
  5
D5
330
D1
100
AcDbEntity
  8
0
 62
     7
370
    13
  0
POLYLINE
  5
D6
330
1F
100
AcDbEntity
  8
0
 62
     7
370
    13
100
AcDb2dPolyline
 66
     1
 10
0.0
 20
0.0
 30
0.0
  0
VERTEX
  5
D7
330
D6
100
AcDbEntity
  8
0
370
     0
100
AcDbVertex
100
AcDb2dVertex
 10
431.331848
 20
687.047913
 30
0.0
  0
VERTEX
  5
D8
330
D6
100
AcDbEntity
  8
0
370
     0
100
AcDbVertex
100
AcDb2dVertex
 10
429.399994
 20
686.530273
 30
0.0
  0
VERTEX
  5
D9
330
D6
100
AcDbEntity
  8
0
370
     0
100
AcDbVertex
100
AcDb2dVertex
 10
431.331848
 20
686.012634
 30
0.0
  0
SEQEND
  5
DA
330
D6
100
AcDbEntity
  8
0
 62
     7
370
    13
  0
LINE
  5
DB
330
1F
100
AcDbEntity
  8
0
 62
     7
370
    13
100
AcDbLine
 10
429.399994
 20
686.530273
 30
0.0
 11
759.599976
 21
686.530273
 31
0.0
  0
POLYLINE
  5
DC
330
1F
100
AcDbEntity
  8
0
 62
     7
370
    13
100
AcDb2dPolyline
 66
     1
 10
0.0
 20
0.0
 30
0.0
  0
VERTEX
  5
DD
330
DC
100
AcDbEntity
  8
0
370
     0
100
AcDbVertex
100
AcDb2dVertex
 10
556.38385
 20
725.99231
 30
0.0
  0
VERTEX
  5
DE
330
DC
100
AcDbEntity
  8
0
370
     0
100
AcDbVertex
100
AcDb2dVertex
 10
557.061279
 20
724.863281
 30
0.0
  0
VERTEX
  5
DF
330
DC
100
AcDbEntity
  8
0
370
     0
100
AcDbVertex
100
AcDb2dVertex
 10
557.738708
 20
724.185852
 30
0.0
  0
VERTEX
  5
E0
330
DC
100
AcDbEntity
  8
0
370
     0
100
AcDbVertex
100
AcDb2dVertex
 10
560.222595
 20
723.508423
 30
0.0
  0
VERTEX
  5
E1
330
DC
100
AcDbEntity
  8
0
370
     0
100
AcDbVertex
100
AcDb2dVertex
 10
562.706421
 20
723.508423
 30
0.0
  0
VERTEX
  5
E2
330
DC
100
AcDbEntity
  8
0
370
     0
100
AcDbVertex
100
AcDb2dVertex
 10
565.416138
 20
724.185852
 30
0.0
  0
VERTEX
  5
E3
330
DC
100
AcDbEntity
  8
0
370
     0
100
AcDbVertex
100
AcDb2dVertex
 10
566.770996
 20
725.540649
 30
0.0
  0
VERTEX
  5
E4
330
DC
100
AcDbEntity
  8
0
370
     0
100
AcDbVertex
100
AcDb2dVertex
 10
567.448364
 20
727.572937
 30
0.0
  0
VERTEX
  5
E5
330
DC
100
AcDbEntity
  8
0
370
     0
100
AcDbVertex
100
AcDb2dVertex
 10
567.448364
 20
728.927734
 30
0.0
  0
VERTEX
  5
E6
330
DC
100
AcDbEntity
  8
0
370
     0
100
AcDbVertex
100
AcDb2dVertex
 10
566.770996
 20
730.960022
 30
0.0
  0
VERTEX
  5
E7
330
DC
100
AcDbEntity
  8
0
370
     0
100
AcDbVertex
100
AcDb2dVertex
 10
566.093567
 20
731.637451
 30
0.0
  0
VERTEX
  5
E8
330
DC
100
AcDbEntity
  8
0
370
     0
100
AcDbVertex
100
AcDb2dVertex
 10
564.738708
 20
732.31488
 30
0.0
  0
VERTEX
  5
E9
330
DC
100
AcDbEntity
  8
0
370
     0
100
AcDbVertex
100
AcDb2dVertex
 10
561.577393
 20
732.31488
 30
0.0
  0
VERTEX
  5
EA
330
DC
100
AcDbEntity
  8
0
370
     0
100
AcDbVertex
100
AcDb2dVertex
 10
566.319336
 20
737.508423
 30
0.0
  0
VERTEX
  5
EB
330
DC
100
AcDbEntity
  8
0
370
     0
100
AcDbVertex
100
AcDb2dVertex
 10
557.964539
 20
737.508423
 30
0.0
  0
SEQEND
  5
EC
330
DC
100
AcDbEntity
  8
0
 62
     7
370
    13
  0
POLYLINE
  5
ED
330
1F
100
AcDbEntity
  8
0
 62
     7
370
    13
100
AcDb2dPolyline
 66
     1
 10
0.0
 20
0.0
 30
0.0
  0
VERTEX
  5
EE
330
ED
100
AcDbEntity
  8
0
370
     0
100
AcDbVertex
100
AcDb2dVertex
 10
583.119324
 20
728.476196
 30
0.0
  0
VERTEX
  5
EF
330
ED
100
AcDbEntity
  8
0
370
     0
100
AcDbVertex
100
AcDb2dVertex
 10
572.732239
 20
728.476196
 30
0.0
  0
VERTEX
  5
F0
330
ED
100
AcDbEntity
  8
0
370
     0
100
AcDbVertex
100
AcDb2dVertex
 10
580.409668
 20
737.508423
 30
0.0
  0
VERTEX
  5
F1
330
ED
100
AcDbEntity
  8
0
370
     0
100
AcDbVertex
100
AcDb2dVertex
 10
580.409668
 20
730.734253
 30
0.0
  0
VERTEX
  5
F2
330
ED
100
AcDbEntity
  8
0
370
     0
100
AcDbVertex
100
AcDb2dVertex
 10
580.409668
 20
723.508423
 30
0.0
  0
SEQEND
  5
F3
330
ED
100
AcDbEntity
  8
0
 62
     7
370
    13
  0
POLYLINE
  5
F4
330
1F
100
AcDbEntity
  8
0
 62
     7
370
    13
100
AcDb2dPolyline
 66
     1
 10
0.0
 20
0.0
 30
0.0
 70
     1
  0
VERTEX
  5
F5
330
F4
100
AcDbEntity
  8
0
370
     0
100
AcDbVertex
100
AcDb2dVertex
 10
593.596741
 20
737.508423
 30
0.0
  0
VERTEX
  5
F6
330
F4
100
AcDbEntity
  8
0
370
     0
100
AcDbVertex
100
AcDb2dVertex
 10
591.112915
 20
736.830994
 30
0.0
  0
VERTEX
  5
F7
330
F4
100
AcDbEntity
  8
0
370
     0
100
AcDbVertex
100
AcDb2dVertex
 10
589.532227
 20
734.572937
 30
0.0
  0
VERTEX
  5
F8
330
F4
100
AcDbEntity
  8
0
370
     0
100
AcDbVertex
100
AcDb2dVertex
 10
588.854858
 20
732.31488
 30
0.0
  0
VERTEX
  5
F9
330
F4
100
AcDbEntity
  8
0
370
     0
100
AcDbVertex
100
AcDb2dVertex
 10
588.854858
 20
729.379395
 30
0.0
  0
VERTEX
  5
FA
330
F4
100
AcDbEntity
  8
0
370
     0
100
AcDbVertex
100
AcDb2dVertex
 10
589.532227
 20
726.443909
 30
0.0
  0
VERTEX
  5
FB
330
F4
100
AcDbEntity
  8
0
370
     0
100
AcDbVertex
100
AcDb2dVertex
 10
591.112915
 20
724.185852
 30
0.0
  0
VERTEX
  5
FC
330
F4
100
AcDbEntity
  8
0
370
     0
100
AcDbVertex
100
AcDb2dVertex
 10
593.596741
 20
723.508423
 30
0.0
  0
VERTEX
  5
FD
330
F4
100
AcDbEntity
  8
0
370
     0
100
AcDbVertex
100
AcDb2dVertex
 10
595.403198
 20
723.508423
 30
0.0
  0
VERTEX
  5
FE
330
F4
100
AcDbEntity
  8
0
370
     0
100
AcDbVertex
100
AcDb2dVertex
 10
597.887085
 20
724.185852
 30
0.0
  0
VERTEX
  5
FF
330
F4
100
AcDbEntity
  8
0
370
     0
100
AcDbVertex
100
AcDb2dVertex
 10
599.467712
 20
726.443909
 30
0.0
  0
VERTEX
  5
100
330
F4
100
AcDbEntity
  8
0
370
     0
100
AcDbVertex
100
AcDb2dVertex
 10
600.145142
 20
729.153564
 30
0.0
  0
VERTEX
  5
101
330
F4
100
AcDbEntity
  8
0
370
     0
100
AcDbVertex
100
AcDb2dVertex
 10
600.145142
 20
732.31488
 30
0.0
  0
VERTEX
  5
102
330
F4
100
AcDbEntity
  8
0
370
     0
100
AcDbVertex
100
AcDb2dVertex
 10
599.467712
 20
734.572937
 30
0.0
  0
VERTEX
  5
103
330
F4
100
AcDbEntity
  8
0
370
     0
100
AcDbVertex
100
AcDb2dVertex
 10
597.887085
 20
736.830994
 30
0.0
  0
VERTEX
  5
104
330
F4
100
AcDbEntity
  8
0
370
     0
100
AcDbVertex
100
AcDb2dVertex
 10
595.403198
 20
737.508423
 30
0.0
  0
SEQEND
  5
105
330
F4
100
AcDbEntity
  8
0
 62
     7
370
    13
  0
POLYLINE
  5
106
330
1F
100
AcDbEntity
  8
0
 62
     7
370
    13
100
AcDb2dPolyline
 66
     1
 10
0.0
 20
0.0
 30
0.0
  0
VERTEX
  5
107
330
106
100
AcDbEntity
  8
0
370
     0
100
AcDbVertex
100
AcDb2dVertex
 10
610.848389
 20
723.508423
 30
0.0
  0
VERTEX
  5
108
330
106
100
AcDbEntity
  8
0
370
     0
100
AcDbVertex
100
AcDb2dVertex
 10
611.299988
 20
723.508423
 30
0.0
  0
SEQEND
  5
109
330
106
100
AcDbEntity
  8
0
 62
     7
370
    13
  0
POLYLINE
  5
10A
330
1F
100
AcDbEntity
  8
0
 62
     7
370
    13
100
AcDb2dPolyline
 66
     1
 10
0.0
 20
0.0
 30
0.0
  0
VERTEX
  5
10B
330
10A
100
AcDbEntity
  8
0
370
     0
100
AcDbVertex
100
AcDb2dVertex
 10
611.977417
 20
724.637451
 30
0.0
  0
VERTEX
  5
10C
330
10A
100
AcDbEntity
  8
0
370
     0
100
AcDbVertex
100
AcDb2dVertex
 10
611.299988
 20
725.31488
 30
0.0
  0
SEQEND
  5
10D
330
10A
100
AcDbEntity
  8
0
 62
     7
370
    13
  0
POLYLINE
  5
10E
330
1F
100
AcDbEntity
  8
0
 62
     7
370
    13
100
AcDb2dPolyline
 66
     1
 10
0.0
 20
0.0
 30
0.0
  0
VERTEX
  5
10F
330
10E
100
AcDbEntity
  8
0
370
     0
100
AcDbVertex
100
AcDb2dVertex
 10
610.848389
 20
725.31488
 30
0.0
  0
VERTEX
  5
110
330
10E
100
AcDbEntity
  8
0
370
     0
100
AcDbVertex
100
AcDb2dVertex
 10
610.170959
 20
724.637451
 30
0.0
  0
SEQEND
  5
111
330
10E
100
AcDbEntity
  8
0
 62
     7
370
    13
  0
POLYLINE
  5
112
330
1F
100
AcDbEntity
  8
0
 62
     7
370
    13
100
AcDb2dPolyline
 66
     1
 10
0.0
 20
0.0
 30
0.0
  0
VERTEX
  5
113
330
112
100
AcDbEntity
  8
0
370
     0
100
AcDbVertex
100
AcDb2dVertex
 10
610.170959
 20
724.185852
 30
0.0
  0
VERTEX
  5
114
330
112
100
AcDbEntity
  8
0
370
     0
100
AcDbVertex
100
AcDb2dVertex
 10
610.848389
 20
723.508423
 30
0.0
  0
SEQEND
  5
115
330
112
100
AcDbEntity
  8
0
 62
     7
370
    13
  0
POLYLINE
  5
116
330
1F
100
AcDbEntity
  8
0
 62
     7
370
    13
100
AcDb2dPolyline
 66
     1
 10
0.0
 20
0.0
 30
0.0
  0
VERTEX
  5
117
330
116
100
AcDbEntity
  8
0
370
     0
100
AcDbVertex
100
AcDb2dVertex
 10
611.299988
 20
723.508423
 30
0.0
  0
VERTEX
  5
118
330
116
100
AcDbEntity
  8
0
370
     0
100
AcDbVertex
100
AcDb2dVertex
 10
611.977417
 20
724.185852
 30
0.0
  0
SEQEND
  5
119
330
116
100
AcDbEntity
  8
0
 62
     7
370
    13
  0
POLYLINE
  5
11A
330
1F
100
AcDbEntity
  8
0
 62
     7
370
    13
100
AcDb2dPolyline
 66
     1
 10
0.0
 20
0.0
 30
0.0
  0
VERTEX
  5
11B
330
11A
100
AcDbEntity
  8
0
370
     0
100
AcDbVertex
100
AcDb2dVertex
 10
610.170959
 20
724.637451
 30
0.0
  0
VERTEX
  5
11C
330
11A
100
AcDbEntity
  8
0
370
     0
100
AcDbVertex
100
AcDb2dVertex
 10
610.170959
 20
724.185852
 30
0.0
  0
SEQEND
  5
11D
330
11A
100
AcDbEntity
  8
0
 62
     7
370
    13
  0
POLYLINE
  5
11E
330
1F
100
AcDbEntity
  8
0
 62
     7
370
    13
100
AcDb2dPolyline
 66
     1
 10
0.0
 20
0.0
 30
0.0
  0
VERTEX
  5
11F
330
11E
100
AcDbEntity
  8
0
370
     0
100
AcDbVertex
100
AcDb2dVertex
 10
610.848389
 20
725.31488
 30
0.0
  0
VERTEX
  5
120
330
11E
100
AcDbEntity
  8
0
370
     0
100
AcDbVertex
100
AcDb2dVertex
 10
611.299988
 20
725.31488
 30
0.0
  0
SEQEND
  5
121
330
11E
100
AcDbEntity
  8
0
 62
     7
370
    13
  0
POLYLINE
  5
122
330
1F
100
AcDbEntity
  8
0
 62
     7
370
    13
100
AcDb2dPolyline
 66
     1
 10
0.0
 20
0.0
 30
0.0
  0
VERTEX
  5
123
330
122
100
AcDbEntity
  8
0
370
     0
100
AcDbVertex
100
AcDb2dVertex
 10
611.977417
 20
724.637451
 30
0.0
  0
VERTEX
  5
124
330
122
100
AcDbEntity
  8
0
370
     0
100
AcDbVertex
100
AcDb2dVertex
 10
611.977417
 20
724.185852
 30
0.0
  0
SEQEND
  5
125
330
122
100
AcDbEntity
  8
0
 62
     7
370
    13
  0
POLYLINE
  5
126
330
1F
100
AcDbEntity
  8
0
 62
     7
370
    13
100
AcDb2dPolyline
 66
     1
 10
0.0
 20
0.0
 30
0.0
  0
VERTEX
  5
127
330
126
100
AcDbEntity
  8
0
370
     0
100
AcDbVertex
100
AcDb2dVertex
 10
632.61615
 20
723.508423
 30
0.0
  0
VERTEX
  5
128
330
126
100
AcDbEntity
  8
0
370
     0
100
AcDbVertex
100
AcDb2dVertex
 10
621.777405
 20
723.508423
 30
0.0
  0
VERTEX
  5
129
330
126
100
AcDbEntity
  8
0
370
     0
100
AcDbVertex
100
AcDb2dVertex
 10
629.454834
 20
729.830994
 30
0.0
  0
VERTEX
  5
12A
330
126
100
AcDbEntity
  8
0
370
     0
100
AcDbVertex
100
AcDb2dVertex
 10
631.035461
 20
731.637451
 30
0.0
  0
VERTEX
  5
12B
330
126
100
AcDbEntity
  8
0
370
     0
100
AcDbVertex
100
AcDb2dVertex
 10
631.712891
 20
732.99231
 30
0.0
  0
VERTEX
  5
12C
330
126
100
AcDbEntity
  8
0
370
     0
100
AcDbVertex
100
AcDb2dVertex
 10
631.712891
 20
734.347168
 30
0.0
  0
VERTEX
  5
12D
330
126
100
AcDbEntity
  8
0
370
     0
100
AcDbVertex
100
AcDb2dVertex
 10
631.035461
 20
735.927734
 30
0.0
  0
VERTEX
  5
12E
330
126
100
AcDbEntity
  8
0
370
     0
100
AcDbVertex
100
AcDb2dVertex
 10
630.358032
 20
736.830994
 30
0.0
  0
VERTEX
  5
12F
330
126
100
AcDbEntity
  8
0
370
     0
100
AcDbVertex
100
AcDb2dVertex
 10
628.777405
 20
737.508423
 30
0.0
  0
VERTEX
  5
130
330
126
100
AcDbEntity
  8
0
370
     0
100
AcDbVertex
100
AcDb2dVertex
 10
626.067749
 20
737.508423
 30
0.0
  0
VERTEX
  5
131
330
126
100
AcDbEntity
  8
0
370
     0
100
AcDbVertex
100
AcDb2dVertex
 10
624.487122
 20
736.830994
 30
0.0
  0
VERTEX
  5
132
330
126
100
AcDbEntity
  8
0
370
     0
100
AcDbVertex
100
AcDb2dVertex
 10
623.809692
 20
736.153564
 30
0.0
  0
VERTEX
  5
133
330
126
100
AcDbEntity
  8
0
370
     0
100
AcDbVertex
100
AcDb2dVertex
 10
622.906433
 20
734.798706
 30
0.0
  0
VERTEX
  5
134
330
126
100
AcDbEntity
  8
0
370
     0
100
AcDbVertex
100
AcDb2dVertex
 10
622.906433
 20
734.121338
 30
0.0
  0
SEQEND
  5
135
330
126
100
AcDbEntity
  8
0
 62
     7
370
    13
  0
LINE
  5
136
330
1F
100
AcDbEntity
  8
0
 62
     7
370
    13
100
AcDbLine
 10
424.399994
 20
656.099976
 30
0.0
 11
424.399994
 21
723.508423
 31
0.0
  0
LINE
  5
137
330
1F
100
AcDbEntity
  8
0
 62
     7
370
    13
100
AcDbLine
 10
764.599976
 20
656.099976
 30
0.0
 11
764.599976
 21
723.508423
 31
0.0
  0
POLYLINE
  5
138
330
1F
100
AcDbEntity
  8
0
 62
     7
370
    13
100
AcDb2dPolyline
 66
     1
 10
0.0
 20
0.0
 30
0.0
  0
VERTEX
  5
139
330
138
100
AcDbEntity
  8
0
370
     0
100
AcDbVertex
100
AcDb2dVertex
 10
426.331848
 20
722.026062
 30
0.0
  0
VERTEX
  5
13A
330
138
100
AcDbEntity
  8
0
370
     0
100
AcDbVertex
100
AcDb2dVertex
 10
424.399994
 20
721.508423
 30
0.0
  0
VERTEX
  5
13B
330
138
100
AcDbEntity
  8
0
370
     0
100
AcDbVertex
100
AcDb2dVertex
 10
426.331848
 20
720.990784
 30
0.0
  0
SEQEND
  5
13C
330
138
100
AcDbEntity
  8
0
 62
     7
370
    13
  0
POLYLINE
  5
13D
330
1F
100
AcDbEntity
  8
0
 62
     7
370
    13
100
AcDb2dPolyline
 66
     1
 10
0.0
 20
0.0
 30
0.0
  0
VERTEX
  5
13E
330
13D
100
AcDbEntity
  8
0
370
     0
100
AcDbVertex
100
AcDb2dVertex
 10
762.668152
 20
720.990784
 30
0.0
  0
VERTEX
  5
13F
330
13D
100
AcDbEntity
  8
0
370
     0
100
AcDbVertex
100
AcDb2dVertex
 10
764.599976
 20
721.508423
 30
0.0
  0
VERTEX
  5
140
330
13D
100
AcDbEntity
  8
0
370
     0
100
AcDbVertex
100
AcDb2dVertex
 10
762.668152
 20
722.026062
 30
0.0
  0
SEQEND
  5
141
330
13D
100
AcDbEntity
  8
0
 62
     7
370
    13
  0
LINE
  5
142
330
1F
100
AcDbEntity
  8
0
 62
     7
370
    13
100
AcDbLine
 10
424.399994
 20
721.508423
 30
0.0
 11
764.599976
 21
721.508423
 31
0.0
  0
POLYLINE
  5
143
330
1F
100
AcDbEntity
  8
0
 62
     7
370
    13
100
AcDb2dPolyline
 66
     1
 10
0.0
 20
0.0
 30
0.0
  0
VERTEX
  5
144
330
143
100
AcDbEntity
  8
0
370
     0
100
AcDbVertex
100
AcDb2dVertex
 10
351.810028
 20
392.770966
 30
0.0
  0
VERTEX
  5
145
330
143
100
AcDbEntity
  8
0
370
     0
100
AcDbVertex
100
AcDb2dVertex
 10
351.810028
 20
382.383881
 30
0.0
  0
VERTEX
  5
146
330
143
100
AcDbEntity
  8
0
370
     0
100
AcDbVertex
100
AcDb2dVertex
 10
342.777771
 20
390.061279
 30
0.0
  0
VERTEX
  5
147
330
143
100
AcDbEntity
  8
0
370
     0
100
AcDbVertex
100
AcDb2dVertex
 10
349.551971
 20
390.061279
 30
0.0
  0
VERTEX
  5
148
330
143
100
AcDbEntity
  8
0
370
     0
100
AcDbVertex
100
AcDb2dVertex
 10
356.777771
 20
390.061279
 30
0.0
  0
SEQEND
  5
149
330
143
100
AcDbEntity
  8
0
 62
     7
370
    13
  0
POLYLINE
  5
14A
330
1F
100
AcDbEntity
  8
0
 62
     7
370
    13
100
AcDb2dPolyline
 66
     1
 10
0.0
 20
0.0
 30
0.0
  0
VERTEX
  5
14B
330
14A
100
AcDbEntity
  8
0
370
     0
100
AcDbVertex
100
AcDb2dVertex
 10
344.584229
 20
408.667725
 30
0.0
  0
VERTEX
  5
14C
330
14A
100
AcDbEntity
  8
0
370
     0
100
AcDbVertex
100
AcDb2dVertex
 10
343.4552
 20
407.990326
 30
0.0
  0
VERTEX
  5
14D
330
14A
100
AcDbEntity
  8
0
370
     0
100
AcDbVertex
100
AcDb2dVertex
 10
342.777771
 20
405.506439
 30
0.0
  0
VERTEX
  5
14E
330
14A
100
AcDbEntity
  8
0
370
     0
100
AcDbVertex
100
AcDb2dVertex
 10
342.777771
 20
404.151611
 30
0.0
  0
VERTEX
  5
14F
330
14A
100
AcDbEntity
  8
0
370
     0
100
AcDbVertex
100
AcDb2dVertex
 10
343.4552
 20
401.667725
 30
0.0
  0
VERTEX
  5
150
330
14A
100
AcDbEntity
  8
0
370
     0
100
AcDbVertex
100
AcDb2dVertex
 10
345.261658
 20
400.087097
 30
0.0
  0
VERTEX
  5
151
330
14A
100
AcDbEntity
  8
0
370
     0
100
AcDbVertex
100
AcDb2dVertex
 10
348.422913
 20
399.409668
 30
0.0
  0
VERTEX
  5
152
330
14A
100
AcDbEntity
  8
0
370
     0
100
AcDbVertex
100
AcDb2dVertex
 10
351.584229
 20
399.409668
 30
0.0
  0
VERTEX
  5
153
330
14A
100
AcDbEntity
  8
0
370
     0
100
AcDbVertex
100
AcDb2dVertex
 10
354.068115
 20
400.087097
 30
0.0
  0
VERTEX
  5
154
330
14A
100
AcDbEntity
  8
0
370
     0
100
AcDbVertex
100
AcDb2dVertex
 10
355.648743
 20
401.441925
 30
0.0
  0
VERTEX
  5
155
330
14A
100
AcDbEntity
  8
0
370
     0
100
AcDbVertex
100
AcDb2dVertex
 10
356.777771
 20
403.925812
 30
0.0
  0
VERTEX
  5
156
330
14A
100
AcDbEntity
  8
0
370
     0
100
AcDbVertex
100
AcDb2dVertex
 10
356.777771
 20
404.829041
 30
0.0
  0
VERTEX
  5
157
330
14A
100
AcDbEntity
  8
0
370
     0
100
AcDbVertex
100
AcDb2dVertex
 10
356.100342
 20
407.312897
 30
0.0
  0
VERTEX
  5
158
330
14A
100
AcDbEntity
  8
0
370
     0
100
AcDbVertex
100
AcDb2dVertex
 10
354.745514
 20
408.667725
 30
0.0
  0
VERTEX
  5
159
330
14A
100
AcDbEntity
  8
0
370
     0
100
AcDbVertex
100
AcDb2dVertex
 10
352.939056
 20
409.345154
 30
0.0
  0
VERTEX
  5
15A
330
14A
100
AcDbEntity
  8
0
370
     0
100
AcDbVertex
100
AcDb2dVertex
 10
352.261658
 20
409.345154
 30
0.0
  0
VERTEX
  5
15B
330
14A
100
AcDbEntity
  8
0
370
     0
100
AcDbVertex
100
AcDb2dVertex
 10
350.4552
 20
408.667725
 30
0.0
  0
VERTEX
  5
15C
330
14A
100
AcDbEntity
  8
0
370
     0
100
AcDbVertex
100
AcDb2dVertex
 10
349.100342
 20
407.312897
 30
0.0
  0
VERTEX
  5
15D
330
14A
100
AcDbEntity
  8
0
370
     0
100
AcDbVertex
100
AcDb2dVertex
 10
348.422913
 20
404.829041
 30
0.0
  0
VERTEX
  5
15E
330
14A
100
AcDbEntity
  8
0
370
     0
100
AcDbVertex
100
AcDb2dVertex
 10
348.422913
 20
403.925812
 30
0.0
  0
VERTEX
  5
15F
330
14A
100
AcDbEntity
  8
0
370
     0
100
AcDbVertex
100
AcDb2dVertex
 10
349.100342
 20
401.441925
 30
0.0
  0
VERTEX
  5
160
330
14A
100
AcDbEntity
  8
0
370
     0
100
AcDbVertex
100
AcDb2dVertex
 10
350.22937
 20
400.087097
 30
0.0
  0
VERTEX
  5
161
330
14A
100
AcDbEntity
  8
0
370
     0
100
AcDbVertex
100
AcDb2dVertex
 10
351.810028
 20
399.409668
 30
0.0
  0
SEQEND
  5
162
330
14A
100
AcDbEntity
  8
0
 62
     7
370
    13
  0
POLYLINE
  5
163
330
1F
100
AcDbEntity
  8
0
 62
     7
370
    13
100
AcDb2dPolyline
 66
     1
 10
0.0
 20
0.0
 30
0.0
  0
VERTEX
  5
164
330
163
100
AcDbEntity
  8
0
370
     0
100
AcDbVertex
100
AcDb2dVertex
 10
342.777771
 20
415.080627
 30
0.0
  0
VERTEX
  5
165
330
163
100
AcDbEntity
  8
0
370
     0
100
AcDbVertex
100
AcDb2dVertex
 10
342.777771
 20
425.919342
 30
0.0
  0
VERTEX
  5
166
330
163
100
AcDbEntity
  8
0
370
     0
100
AcDbVertex
100
AcDb2dVertex
 10
356.777771
 20
417.790314
 30
0.0
  0
SEQEND
  5
167
330
163
100
AcDbEntity
  8
0
 62
     7
370
    13
  0
POLYLINE
  5
168
330
1F
100
AcDbEntity
  8
0
 62
     7
370
    13
100
AcDb2dPolyline
 66
     1
 10
0.0
 20
0.0
 30
0.0
  0
VERTEX
  5
169
330
168
100
AcDbEntity
  8
0
370
     0
100
AcDbVertex
100
AcDb2dVertex
 10
356.777771
 20
436.848389
 30
0.0
  0
VERTEX
  5
16A
330
168
100
AcDbEntity
  8
0
370
     0
100
AcDbVertex
100
AcDb2dVertex
 10
356.777771
 20
437.299988
 30
0.0
  0
SEQEND
  5
16B
330
168
100
AcDbEntity
  8
0
 62
     7
370
    13
  0
POLYLINE
  5
16C
330
1F
100
AcDbEntity
  8
0
 62
     7
370
    13
100
AcDb2dPolyline
 66
     1
 10
0.0
 20
0.0
 30
0.0
  0
VERTEX
  5
16D
330
16C
100
AcDbEntity
  8
0
370
     0
100
AcDbVertex
100
AcDb2dVertex
 10
355.648743
 20
437.977417
 30
0.0
  0
VERTEX
  5
16E
330
16C
100
AcDbEntity
  8
0
370
     0
100
AcDbVertex
100
AcDb2dVertex
 10
354.971313
 20
437.299988
 30
0.0
  0
SEQEND
  5
16F
330
16C
100
AcDbEntity
  8
0
 62
     7
370
    13
  0
POLYLINE
  5
170
330
1F
100
AcDbEntity
  8
0
 62
     7
370
    13
100
AcDb2dPolyline
 66
     1
 10
0.0
 20
0.0
 30
0.0
  0
VERTEX
  5
171
330
170
100
AcDbEntity
  8
0
370
     0
100
AcDbVertex
100
AcDb2dVertex
 10
354.971313
 20
436.848389
 30
0.0
  0
VERTEX
  5
172
330
170
100
AcDbEntity
  8
0
370
     0
100
AcDbVertex
100
AcDb2dVertex
 10
355.648743
 20
436.170959
 30
0.0
  0
SEQEND
  5
173
330
170
100
AcDbEntity
  8
0
 62
     7
370
    13
  0
POLYLINE
  5
174
330
1F
100
AcDbEntity
  8
0
 62
     7
370
    13
100
AcDb2dPolyline
 66
     1
 10
0.0
 20
0.0
 30
0.0
  0
VERTEX
  5
175
330
174
100
AcDbEntity
  8
0
370
     0
100
AcDbVertex
100
AcDb2dVertex
 10
356.100342
 20
436.170959
 30
0.0
  0
VERTEX
  5
176
330
174
100
AcDbEntity
  8
0
370
     0
100
AcDbVertex
100
AcDb2dVertex
 10
356.777771
 20
436.848389
 30
0.0
  0
SEQEND
  5
177
330
174
100
AcDbEntity
  8
0
 62
     7
370
    13
  0
POLYLINE
  5
178
330
1F
100
AcDbEntity
  8
0
 62
     7
370
    13
100
AcDb2dPolyline
 66
     1
 10
0.0
 20
0.0
 30
0.0
  0
VERTEX
  5
179
330
178
100
AcDbEntity
  8
0
370
     0
100
AcDbVertex
100
AcDb2dVertex
 10
356.777771
 20
437.299988
 30
0.0
  0
VERTEX
  5
17A
330
178
100
AcDbEntity
  8
0
370
     0
100
AcDbVertex
100
AcDb2dVertex
 10
356.100342
 20
437.977417
 30
0.0
  0
SEQEND
  5
17B
330
178
100
AcDbEntity
  8
0
 62
     7
370
    13
  0
POLYLINE
  5
17C
330
1F
100
AcDbEntity
  8
0
 62
     7
370
    13
100
AcDb2dPolyline
 66
     1
 10
0.0
 20
0.0
 30
0.0
  0
VERTEX
  5
17D
330
17C
100
AcDbEntity
  8
0
370
     0
100
AcDbVertex
100
AcDb2dVertex
 10
355.648743
 20
436.170959
 30
0.0
  0
VERTEX
  5
17E
330
17C
100
AcDbEntity
  8
0
370
     0
100
AcDbVertex
100
AcDb2dVertex
 10
356.100342
 20
436.170959
 30
0.0
  0
SEQEND
  5
17F
330
17C
100
AcDbEntity
  8
0
 62
     7
370
    13
  0
POLYLINE
  5
180
330
1F
100
AcDbEntity
  8
0
 62
     7
370
    13
100
AcDb2dPolyline
 66
     1
 10
0.0
 20
0.0
 30
0.0
  0
VERTEX
  5
181
330
180
100
AcDbEntity
  8
0
370
     0
100
AcDbVertex
100
AcDb2dVertex
 10
354.971313
 20
436.848389
 30
0.0
  0
VERTEX
  5
182
330
180
100
AcDbEntity
  8
0
370
     0
100
AcDbVertex
100
AcDb2dVertex
 10
354.971313
 20
437.299988
 30
0.0
  0
SEQEND
  5
183
330
180
100
AcDbEntity
  8
0
 62
     7
370
    13
  0
POLYLINE
  5
184
330
1F
100
AcDbEntity
  8
0
 62
     7
370
    13
100
AcDb2dPolyline
 66
     1
 10
0.0
 20
0.0
 30
0.0
  0
VERTEX
  5
185
330
184
100
AcDbEntity
  8
0
370
     0
100
AcDbVertex
100
AcDb2dVertex
 10
355.648743
 20
437.977417
 30
0.0
  0
VERTEX
  5
186
330
184
100
AcDbEntity
  8
0
370
     0
100
AcDbVertex
100
AcDb2dVertex
 10
356.100342
 20
437.977417
 30
0.0
  0
SEQEND
  5
187
330
184
100
AcDbEntity
  8
0
 62
     7
370
    13
  0
POLYLINE
  5
188
330
1F
100
AcDbEntity
  8
0
 62
     7
370
    13
100
AcDb2dPolyline
 66
     1
 10
0.0
 20
0.0
 30
0.0
  0
VERTEX
  5
189
330
188
100
AcDbEntity
  8
0
370
     0
100
AcDbVertex
100
AcDb2dVertex
 10
356.777771
 20
458.616119
 30
0.0
  0
VERTEX
  5
18A
330
188
100
AcDbEntity
  8
0
370
     0
100
AcDbVertex
100
AcDb2dVertex
 10
356.777771
 20
447.777405
 30
0.0
  0
VERTEX
  5
18B
330
188
100
AcDbEntity
  8
0
370
     0
100
AcDbVertex
100
AcDb2dVertex
 10
350.4552
 20
455.454834
 30
0.0
  0
VERTEX
  5
18C
330
188
100
AcDbEntity
  8
0
370
     0
100
AcDbVertex
100
AcDb2dVertex
 10
348.648743
 20
457.035492
 30
0.0
  0
VERTEX
  5
18D
330
188
100
AcDbEntity
  8
0
370
     0
100
AcDbVertex
100
AcDb2dVertex
 10
347.293884
 20
457.712891
 30
0.0
  0
VERTEX
  5
18E
330
188
100
AcDbEntity
  8
0
370
     0
100
AcDbVertex
100
AcDb2dVertex
 10
345.939056
 20
457.712891
 30
0.0
  0
VERTEX
  5
18F
330
188
100
AcDbEntity
  8
0
370
     0
100
AcDbVertex
100
AcDb2dVertex
 10
344.358398
 20
457.035492
 30
0.0
  0
VERTEX
  5
190
330
188
100
AcDbEntity
  8
0
370
     0
100
AcDbVertex
100
AcDb2dVertex
 10
343.4552
 20
456.358063
 30
0.0
  0
VERTEX
  5
191
330
188
100
AcDbEntity
  8
0
370
     0
100
AcDbVertex
100
AcDb2dVertex
 10
342.777771
 20
454.777405
 30
0.0
  0
VERTEX
  5
192
330
188
100
AcDbEntity
  8
0
370
     0
100
AcDbVertex
100
AcDb2dVertex
 10
342.777771
 20
452.067749
 30
0.0
  0
VERTEX
  5
193
330
188
100
AcDbEntity
  8
0
370
     0
100
AcDbVertex
100
AcDb2dVertex
 10
343.4552
 20
450.487091
 30
0.0
  0
VERTEX
  5
194
330
188
100
AcDbEntity
  8
0
370
     0
100
AcDbVertex
100
AcDb2dVertex
 10
344.132629
 20
449.809662
 30
0.0
  0
VERTEX
  5
195
330
188
100
AcDbEntity
  8
0
370
     0
100
AcDbVertex
100
AcDb2dVertex
 10
345.487427
 20
448.906433
 30
0.0
  0
VERTEX
  5
196
330
188
100
AcDbEntity
  8
0
370
     0
100
AcDbVertex
100
AcDb2dVertex
 10
346.164856
 20
448.906433
 30
0.0
  0
SEQEND
  5
197
330
188
100
AcDbEntity
  8
0
 62
     7
370
    13
  0
LINE
  5
198
330
1F
100
AcDbEntity
  8
0
 62
     7
370
    13
100
AcDbLine
 10
422.399994
 20
186.899994
 30
0.0
 11
356.777771
 21
186.899994
 31
0.0
  0
LINE
  5
199
330
1F
100
AcDbEntity
  8
0
 62
     7
370
    13
100
AcDbLine
 10
422.399994
 20
654.099976
 30
0.0
 11
356.777771
 21
654.099976
 31
0.0
  0
POLYLINE
  5
19A
330
1F
100
AcDbEntity
  8
0
 62
     7
370
    13
100
AcDb2dPolyline
 66
     1
 10
0.0
 20
0.0
 30
0.0
  0
VERTEX
  5
19B
330
19A
100
AcDbEntity
  8
0
370
     0
100
AcDbVertex
100
AcDb2dVertex
 10
359.29541
 20
652.168152
 30
0.0
  0
VERTEX
  5
19C
330
19A
100
AcDbEntity
  8
0
370
     0
100
AcDbVertex
100
AcDb2dVertex
 10
358.777771
 20
654.099976
 30
0.0
  0
VERTEX
  5
19D
330
19A
100
AcDbEntity
  8
0
370
     0
100
AcDbVertex
100
AcDb2dVertex
 10
358.260132
 20
652.168152
 30
0.0
  0
SEQEND
  5
19E
330
19A
100
AcDbEntity
  8
0
 62
     7
370
    13
  0
POLYLINE
  5
19F
330
1F
100
AcDbEntity
  8
0
 62
     7
370
    13
100
AcDb2dPolyline
 66
     1
 10
0.0
 20
0.0
 30
0.0
  0
VERTEX
  5
1A0
330
19F
100
AcDbEntity
  8
0
370
     0
100
AcDbVertex
100
AcDb2dVertex
 10
358.260132
 20
188.831848
 30
0.0
  0
VERTEX
  5
1A1
330
19F
100
AcDbEntity
  8
0
370
     0
100
AcDbVertex
100
AcDb2dVertex
 10
358.777771
 20
186.899994
 30
0.0
  0
VERTEX
  5
1A2
330
19F
100
AcDbEntity
  8
0
370
     0
100
AcDbVertex
100
AcDb2dVertex
 10
359.29541
 20
188.831848
 30
0.0
  0
SEQEND
  5
1A3
330
19F
100
AcDbEntity
  8
0
 62
     7
370
    13
  0
LINE
  5
1A4
330
1F
100
AcDbEntity
  8
0
 62
     7
370
    13
100
AcDbLine
 10
358.777771
 20
186.899994
 30
0.0
 11
358.777771
 21
654.099976
 31
0.0
  0
POLYLINE
  5
1A5
330
1F
100
AcDbEntity
  8
0
 62
     7
370
    13
100
AcDb2dPolyline
 66
     1
 10
0.0
 20
0.0
 30
0.0
  0
VERTEX
  5
1A6
330
1A5
100
AcDbEntity
  8
0
370
     0
100
AcDbVertex
100
AcDb2dVertex
 10
391.017853
 20
392.770966
 30
0.0
  0
VERTEX
  5
1A7
330
1A5
100
AcDbEntity
  8
0
370
     0
100
AcDbVertex
100
AcDb2dVertex
 10
391.017853
 20
382.383881
 30
0.0
  0
VERTEX
  5
1A8
330
1A5
100
AcDbEntity
  8
0
370
     0
100
AcDbVertex
100
AcDb2dVertex
 10
381.985596
 20
390.061279
 30
0.0
  0
VERTEX
  5
1A9
330
1A5
100
AcDbEntity
  8
0
370
     0
100
AcDbVertex
100
AcDb2dVertex
 10
388.759796
 20
390.061279
 30
0.0
  0
VERTEX
  5
1AA
330
1A5
100
AcDbEntity
  8
0
370
     0
100
AcDbVertex
100
AcDb2dVertex
 10
395.985596
 20
390.061279
 30
0.0
  0
SEQEND
  5
1AB
330
1A5
100
AcDbEntity
  8
0
 62
     7
370
    13
  0
POLYLINE
  5
1AC
330
1F
100
AcDbEntity
  8
0
 62
     7
370
    13
100
AcDb2dPolyline
 66
     1
 10
0.0
 20
0.0
 30
0.0
  0
VERTEX
  5
1AD
330
1AC
100
AcDbEntity
  8
0
370
     0
100
AcDbVertex
100
AcDb2dVertex
 10
393.501709
 20
398.732239
 30
0.0
  0
VERTEX
  5
1AE
330
1AC
100
AcDbEntity
  8
0
370
     0
100
AcDbVertex
100
AcDb2dVertex
 10
394.630737
 20
399.409668
 30
0.0
  0
VERTEX
  5
1AF
330
1AC
100
AcDbEntity
  8
0
370
     0
100
AcDbVertex
100
AcDb2dVertex
 10
395.308167
 20
400.087097
 30
0.0
  0
VERTEX
  5
1B0
330
1AC
100
AcDbEntity
  8
0
370
     0
100
AcDbVertex
100
AcDb2dVertex
 10
395.985596
 20
402.570953
 30
0.0
  0
VERTEX
  5
1B1
330
1AC
100
AcDbEntity
  8
0
370
     0
100
AcDbVertex
100
AcDb2dVertex
 10
395.985596
 20
405.05484
 30
0.0
  0
VERTEX
  5
1B2
330
1AC
100
AcDbEntity
  8
0
370
     0
100
AcDbVertex
100
AcDb2dVertex
 10
395.308167
 20
407.764526
 30
0.0
  0
VERTEX
  5
1B3
330
1AC
100
AcDbEntity
  8
0
370
     0
100
AcDbVertex
100
AcDb2dVertex
 10
393.953339
 20
409.119354
 30
0.0
  0
VERTEX
  5
1B4
330
1AC
100
AcDbEntity
  8
0
370
     0
100
AcDbVertex
100
AcDb2dVertex
 10
391.921082
 20
409.796783
 30
0.0
  0
VERTEX
  5
1B5
330
1AC
100
AcDbEntity
  8
0
370
     0
100
AcDbVertex
100
AcDb2dVertex
 10
390.566223
 20
409.796783
 30
0.0
  0
VERTEX
  5
1B6
330
1AC
100
AcDbEntity
  8
0
370
     0
100
AcDbVertex
100
AcDb2dVertex
 10
388.533997
 20
409.119354
 30
0.0
  0
VERTEX
  5
1B7
330
1AC
100
AcDbEntity
  8
0
370
     0
100
AcDbVertex
100
AcDb2dVertex
 10
387.404968
 20
407.764526
 30
0.0
  0
VERTEX
  5
1B8
330
1AC
100
AcDbEntity
  8
0
370
     0
100
AcDbVertex
100
AcDb2dVertex
 10
386.727539
 20
405.05484
 30
0.0
  0
VERTEX
  5
1B9
330
1AC
100
AcDbEntity
  8
0
370
     0
100
AcDbVertex
100
AcDb2dVertex
 10
386.727539
 20
402.570953
 30
0.0
  0
VERTEX
  5
1BA
330
1AC
100
AcDbEntity
  8
0
370
     0
100
AcDbVertex
100
AcDb2dVertex
 10
387.404968
 20
400.538696
 30
0.0
  0
VERTEX
  5
1BB
330
1AC
100
AcDbEntity
  8
0
370
     0
100
AcDbVertex
100
AcDb2dVertex
 10
388.082367
 20
399.861298
 30
0.0
  0
VERTEX
  5
1BC
330
1AC
100
AcDbEntity
  8
0
370
     0
100
AcDbVertex
100
AcDb2dVertex
 10
381.985596
 20
400.538696
 30
0.0
  0
VERTEX
  5
1BD
330
1AC
100
AcDbEntity
  8
0
370
     0
100
AcDbVertex
100
AcDb2dVertex
 10
381.985596
 20
408.893555
 30
0.0
  0
SEQEND
  5
1BE
330
1AC
100
AcDbEntity
  8
0
 62
     7
370
    13
  0
POLYLINE
  5
1BF
330
1F
100
AcDbEntity
  8
0
 62
     7
370
    13
100
AcDb2dPolyline
 66
     1
 10
0.0
 20
0.0
 30
0.0
  0
VERTEX
  5
1C0
330
1BF
100
AcDbEntity
  8
0
370
     0
100
AcDbVertex
100
AcDb2dVertex
 10
381.985596
 20
415.080627
 30
0.0
  0
VERTEX
  5
1C1
330
1BF
100
AcDbEntity
  8
0
370
     0
100
AcDbVertex
100
AcDb2dVertex
 10
381.985596
 20
425.919342
 30
0.0
  0
VERTEX
  5
1C2
330
1BF
100
AcDbEntity
  8
0
370
     0
100
AcDbVertex
100
AcDb2dVertex
 10
395.985596
 20
417.790314
 30
0.0
  0
SEQEND
  5
1C3
330
1BF
100
AcDbEntity
  8
0
 62
     7
370
    13
  0
POLYLINE
  5
1C4
330
1F
100
AcDbEntity
  8
0
 62
     7
370
    13
100
AcDb2dPolyline
 66
     1
 10
0.0
 20
0.0
 30
0.0
  0
VERTEX
  5
1C5
330
1C4
100
AcDbEntity
  8
0
370
     0
100
AcDbVertex
100
AcDb2dVertex
 10
395.985596
 20
436.848389
 30
0.0
  0
VERTEX
  5
1C6
330
1C4
100
AcDbEntity
  8
0
370
     0
100
AcDbVertex
100
AcDb2dVertex
 10
395.985596
 20
437.299988
 30
0.0
  0
SEQEND
  5
1C7
330
1C4
100
AcDbEntity
  8
0
 62
     7
370
    13
  0
POLYLINE
  5
1C8
330
1F
100
AcDbEntity
  8
0
 62
     7
370
    13
100
AcDb2dPolyline
 66
     1
 10
0.0
 20
0.0
 30
0.0
  0
VERTEX
  5
1C9
330
1C8
100
AcDbEntity
  8
0
370
     0
100
AcDbVertex
100
AcDb2dVertex
 10
394.856567
 20
437.977417
 30
0.0
  0
VERTEX
  5
1CA
330
1C8
100
AcDbEntity
  8
0
370
     0
100
AcDbVertex
100
AcDb2dVertex
 10
394.179138
 20
437.299988
 30
0.0
  0
SEQEND
  5
1CB
330
1C8
100
AcDbEntity
  8
0
 62
     7
370
    13
  0
POLYLINE
  5
1CC
330
1F
100
AcDbEntity
  8
0
 62
     7
370
    13
100
AcDb2dPolyline
 66
     1
 10
0.0
 20
0.0
 30
0.0
  0
VERTEX
  5
1CD
330
1CC
100
AcDbEntity
  8
0
370
     0
100
AcDbVertex
100
AcDb2dVertex
 10
394.179138
 20
436.848389
 30
0.0
  0
VERTEX
  5
1CE
330
1CC
100
AcDbEntity
  8
0
370
     0
100
AcDbVertex
100
AcDb2dVertex
 10
394.856567
 20
436.170959
 30
0.0
  0
SEQEND
  5
1CF
330
1CC
100
AcDbEntity
  8
0
 62
     7
370
    13
  0
POLYLINE
  5
1D0
330
1F
100
AcDbEntity
  8
0
 62
     7
370
    13
100
AcDb2dPolyline
 66
     1
 10
0.0
 20
0.0
 30
0.0
  0
VERTEX
  5
1D1
330
1D0
100
AcDbEntity
  8
0
370
     0
100
AcDbVertex
100
AcDb2dVertex
 10
395.308167
 20
436.170959
 30
0.0
  0
VERTEX
  5
1D2
330
1D0
100
AcDbEntity
  8
0
370
     0
100
AcDbVertex
100
AcDb2dVertex
 10
395.985596
 20
436.848389
 30
0.0
  0
SEQEND
  5
1D3
330
1D0
100
AcDbEntity
  8
0
 62
     7
370
    13
  0
POLYLINE
  5
1D4
330
1F
100
AcDbEntity
  8
0
 62
     7
370
    13
100
AcDb2dPolyline
 66
     1
 10
0.0
 20
0.0
 30
0.0
  0
VERTEX
  5
1D5
330
1D4
100
AcDbEntity
  8
0
370
     0
100
AcDbVertex
100
AcDb2dVertex
 10
395.985596
 20
437.299988
 30
0.0
  0
VERTEX
  5
1D6
330
1D4
100
AcDbEntity
  8
0
370
     0
100
AcDbVertex
100
AcDb2dVertex
 10
395.308167
 20
437.977417
 30
0.0
  0
SEQEND
  5
1D7
330
1D4
100
AcDbEntity
  8
0
 62
     7
370
    13
  0
POLYLINE
  5
1D8
330
1F
100
AcDbEntity
  8
0
 62
     7
370
    13
100
AcDb2dPolyline
 66
     1
 10
0.0
 20
0.0
 30
0.0
  0
VERTEX
  5
1D9
330
1D8
100
AcDbEntity
  8
0
370
     0
100
AcDbVertex
100
AcDb2dVertex
 10
394.856567
 20
436.170959
 30
0.0
  0
VERTEX
  5
1DA
330
1D8
100
AcDbEntity
  8
0
370
     0
100
AcDbVertex
100
AcDb2dVertex
 10
395.308167
 20
436.170959
 30
0.0
  0
SEQEND
  5
1DB
330
1D8
100
AcDbEntity
  8
0
 62
     7
370
    13
  0
POLYLINE
  5
1DC
330
1F
100
AcDbEntity
  8
0
 62
     7
370
    13
100
AcDb2dPolyline
 66
     1
 10
0.0
 20
0.0
 30
0.0
  0
VERTEX
  5
1DD
330
1DC
100
AcDbEntity
  8
0
370
     0
100
AcDbVertex
100
AcDb2dVertex
 10
394.179138
 20
436.848389
 30
0.0
  0
VERTEX
  5
1DE
330
1DC
100
AcDbEntity
  8
0
370
     0
100
AcDbVertex
100
AcDb2dVertex
 10
394.179138
 20
437.299988
 30
0.0
  0
SEQEND
  5
1DF
330
1DC
100
AcDbEntity
  8
0
 62
     7
370
    13
  0
POLYLINE
  5
1E0
330
1F
100
AcDbEntity
  8
0
 62
     7
370
    13
100
AcDb2dPolyline
 66
     1
 10
0.0
 20
0.0
 30
0.0
  0
VERTEX
  5
1E1
330
1E0
100
AcDbEntity
  8
0
370
     0
100
AcDbVertex
100
AcDb2dVertex
 10
394.856567
 20
437.977417
 30
0.0
  0
VERTEX
  5
1E2
330
1E0
100
AcDbEntity
  8
0
370
     0
100
AcDbVertex
100
AcDb2dVertex
 10
395.308167
 20
437.977417
 30
0.0
  0
SEQEND
  5
1E3
330
1E0
100
AcDbEntity
  8
0
 62
     7
370
    13
  0
POLYLINE
  5
1E4
330
1F
100
AcDbEntity
  8
0
 62
     7
370
    13
100
AcDb2dPolyline
 66
     1
 10
0.0
 20
0.0
 30
0.0
  0
VERTEX
  5
1E5
330
1E4
100
AcDbEntity
  8
0
370
     0
100
AcDbVertex
100
AcDb2dVertex
 10
395.985596
 20
458.616119
 30
0.0
  0
VERTEX
  5
1E6
330
1E4
100
AcDbEntity
  8
0
370
     0
100
AcDbVertex
100
AcDb2dVertex
 10
395.985596
 20
447.777405
 30
0.0
  0
VERTEX
  5
1E7
330
1E4
100
AcDbEntity
  8
0
370
     0
100
AcDbVertex
100
AcDb2dVertex
 10
389.663025
 20
455.454834
 30
0.0
  0
VERTEX
  5
1E8
330
1E4
100
AcDbEntity
  8
0
370
     0
100
AcDbVertex
100
AcDb2dVertex
 10
387.856567
 20
457.035492
 30
0.0
  0
VERTEX
  5
1E9
330
1E4
100
AcDbEntity
  8
0
370
     0
100
AcDbVertex
100
AcDb2dVertex
 10
386.501709
 20
457.712891
 30
0.0
  0
VERTEX
  5
1EA
330
1E4
100
AcDbEntity
  8
0
370
     0
100
AcDbVertex
100
AcDb2dVertex
 10
385.146881
 20
457.712891
 30
0.0
  0
VERTEX
  5
1EB
330
1E4
100
AcDbEntity
  8
0
370
     0
100
AcDbVertex
100
AcDb2dVertex
 10
383.566223
 20
457.035492
 30
0.0
  0
VERTEX
  5
1EC
330
1E4
100
AcDbEntity
  8
0
370
     0
100
AcDbVertex
100
AcDb2dVertex
 10
382.663025
 20
456.358063
 30
0.0
  0
VERTEX
  5
1ED
330
1E4
100
AcDbEntity
  8
0
370
     0
100
AcDbVertex
100
AcDb2dVertex
 10
381.985596
 20
454.777405
 30
0.0
  0
VERTEX
  5
1EE
330
1E4
100
AcDbEntity
  8
0
370
     0
100
AcDbVertex
100
AcDb2dVertex
 10
381.985596
 20
452.067749
 30
0.0
  0
VERTEX
  5
1EF
330
1E4
100
AcDbEntity
  8
0
370
     0
100
AcDbVertex
100
AcDb2dVertex
 10
382.663025
 20
450.487091
 30
0.0
  0
VERTEX
  5
1F0
330
1E4
100
AcDbEntity
  8
0
370
     0
100
AcDbVertex
100
AcDb2dVertex
 10
383.340454
 20
449.809662
 30
0.0
  0
VERTEX
  5
1F1
330
1E4
100
AcDbEntity
  8
0
370
     0
100
AcDbVertex
100
AcDb2dVertex
 10
384.695251
 20
448.906433
 30
0.0
  0
VERTEX
  5
1F2
330
1E4
100
AcDbEntity
  8
0
370
     0
100
AcDbVertex
100
AcDb2dVertex
 10
385.372681
 20
448.906433
 30
0.0
  0
SEQEND
  5
1F3
330
1E4
100
AcDbEntity
  8
0
 62
     7
370
    13
  0
LINE
  5
1F4
330
1F
100
AcDbEntity
  8
0
 62
     7
370
    13
100
AcDbLine
 10
427.399994
 20
191.899994
 30
0.0
 11
395.985596
 21
191.899994
 31
0.0
  0
LINE
  5
1F5
330
1F
100
AcDbEntity
  8
0
 62
     7
370
    13
100
AcDbLine
 10
427.399994
 20
649.099976
 30
0.0
 11
395.985596
 21
649.099976
 31
0.0
  0
POLYLINE
  5
1F6
330
1F
100
AcDbEntity
  8
0
 62
     7
370
    13
100
AcDb2dPolyline
 66
     1
 10
0.0
 20
0.0
 30
0.0
  0
VERTEX
  5
1F7
330
1F6
100
AcDbEntity
  8
0
370
     0
100
AcDbVertex
100
AcDb2dVertex
 10
398.503235
 20
647.168152
 30
0.0
  0
VERTEX
  5
1F8
330
1F6
100
AcDbEntity
  8
0
370
     0
100
AcDbVertex
100
AcDb2dVertex
 10
397.985596
 20
649.099976
 30
0.0
  0
VERTEX
  5
1F9
330
1F6
100
AcDbEntity
  8
0
370
     0
100
AcDbVertex
100
AcDb2dVertex
 10
397.467957
 20
647.168152
 30
0.0
  0
SEQEND
  5
1FA
330
1F6
100
AcDbEntity
  8
0
 62
     7
370
    13
  0
POLYLINE
  5
1FB
330
1F
100
AcDbEntity
  8
0
 62
     7
370
    13
100
AcDb2dPolyline
 66
     1
 10
0.0
 20
0.0
 30
0.0
  0
VERTEX
  5
1FC
330
1FB
100
AcDbEntity
  8
0
370
     0
100
AcDbVertex
100
AcDb2dVertex
 10
397.467957
 20
193.831848
 30
0.0
  0
VERTEX
  5
1FD
330
1FB
100
AcDbEntity
  8
0
370
     0
100
AcDbVertex
100
AcDb2dVertex
 10
397.985596
 20
191.899994
 30
0.0
  0
VERTEX
  5
1FE
330
1FB
100
AcDbEntity
  8
0
370
     0
100
AcDbVertex
100
AcDb2dVertex
 10
398.503235
 20
193.831848
 30
0.0
  0
SEQEND
  5
1FF
330
1FB
100
AcDbEntity
  8
0
 62
     7
370
    13
  0
LINE
  5
200
330
1F
100
AcDbEntity
  8
0
 62
     7
370
    13
100
AcDbLine
 10
397.985596
 20
191.899994
 30
0.0
 11
397.985596
 21
649.099976
 31
0.0
  0
LINE
  5
201
330
1F
100
AcDbEntity
  8
0
  6
DASHSPACE
 62
     7
370
    35
100
AcDbLine
 10
759.599976
 20
191.899994
 30
0.0
 11
759.599976
 21
649.099976
 31
0.0
  0
LINE
  5
202
330
1F
100
AcDbEntity
  8
0
  6
DASHSPACE
 62
     7
370
    35
100
AcDbLine
 10
759.599976
 20
649.099976
 30
0.0
 11
429.399994
 21
649.099976
 31
0.0
  0
LINE
  5
203
330
1F
100
AcDbEntity
  8
0
  6
DASHSPACE
 62
     7
370
    35
100
AcDbLine
 10
429.399994
 20
649.099976
 30
0.0
 11
429.399994
 21
191.899994
 31
0.0
  0
LINE
  5
204
330
1F
100
AcDbEntity
  8
0
  6
DASHSPACE
 62
     7
370
    35
100
AcDbLine
 10
429.399994
 20
191.899994
 30
0.0
 11
759.599976
 21
191.899994
 31
0.0
  0
LINE
  5
205
330
1F
100
AcDbEntity
  8
0
  6
DASHSPACE
 62
     7
370
    35
100
AcDbLine
 10
764.599976
 20
186.899994
 30
0.0
 11
764.599976
 21
654.099976
 31
0.0
  0
LINE
  5
206
330
1F
100
AcDbEntity
  8
0
  6
DASHSPACE
 62
     7
370
    35
100
AcDbLine
 10
764.599976
 20
654.099976
 30
0.0
 11
424.399994
 21
654.099976
 31
0.0
  0
LINE
  5
207
330
1F
100
AcDbEntity
  8
0
  6
DASHSPACE
 62
     7
370
    35
100
AcDbLine
 10
424.399994
 20
654.099976
 30
0.0
 11
424.399994
 21
186.899994
 31
0.0
  0
LINE
  5
208
330
1F
100
AcDbEntity
  8
0
  6
DASHSPACE
 62
     7
370
    35
100
AcDbLine
 10
424.399994
 20
186.899994
 30
0.0
 11
764.599976
 21
186.899994
 31
0.0
  0
ENDSEC
  0
SECTION
  2
OBJECTS
  0
DICTIONARY
  5
C
330
0
100
AcDbDictionary
281
     1
  3
ACAD_GROUP
350
D
  3
ACAD_LAYOUT
350
1A
  3
ACAD_MLINESTYLE
350
17
  3
ACAD_PLOTSETTINGS
350
19
  3
ACAD_PLOTSTYLENAME
350
E
  3
ACAD_SCALELIST
350
47
  0
DICTIONARY
  5
D
102
{ACAD_REACTORS
330
C
102
}
330
C
100
AcDbDictionary
281
     1
  0
DICTIONARY
  5
1A
102
{ACAD_REACTORS
330
C
102
}
330
C
100
AcDbDictionary
281
     1
  3
Layout1
350
1E
  3
Layout2
350
26
  3
Model
350
22
  0
DICTIONARY
  5
17
102
{ACAD_REACTORS
330
C
102
}
330
C
100
AcDbDictionary
281
     1
  3
Standard
350
18
  0
DICTIONARY
  5
19
102
{ACAD_REACTORS
330
C
102
}
330
C
100
AcDbDictionary
281
     1
  0
ACDBDICTIONARYWDFLT
  5
E
102
{ACAD_REACTORS
330
C
102
}
330
C
100
AcDbDictionary
281
     1
  3
Normal
350
F
100
AcDbDictionaryWithDefault
340
F
  0
DICTIONARY
  5
47
102
{ACAD_REACTORS
330
C
102
}
330
C
100
AcDbDictionary
281
     1
  3
A0
350
48
  3
A1
350
49
  3
A2
350
4A
  3
A3
350
4B
  3
A4
350
4C
  3
A5
350
4D
  3
A6
350
4E
  3
A7
350
4F
  3
A8
350
50
  3
A9
350
51
  3
B0
350
52
  3
B1
350
53
  3
B2
350
54
  3
B3
350
55
  3
B4
350
56
  3
B5
350
57
  3
B6
350
58
  3
B7
350
59
  3
B8
350
5A
  3
B9
350
5B
  3
C0
350
5C
  3
C1
350
5D
  3
C2
350
5E
  3
C3
350
5F
  3
C4
350
60
  3
C5
350
61
  3
C6
350
62
  3
C7
350
63
  3
C8
350
64
  3
C9
350
65
  3
D0
350
66
  3
D1
350
67
  3
D2
350
68
  0
LAYOUT
  5
1E
102
{ACAD_REACTORS
330
1A
102
}
330
1A
100
AcDbPlotSettings
  1

  2
none_device
  4

  6

 40
0.0
 41
0.0
 42
0.0
 43
0.0
 44
0.0
 45
0.0
 46
0.0
 47
0.0
 48
0.0
 49
0.0
140
0.0
141
0.0
142
1.0
143
1.0
 70
  4784
 72
     0
 73
     0
 74
     5
  7

 75
    16
147
1.0
148
0.0
149
0.0
100
AcDbLayout
  1
Layout1
 70
     1
 71
     1
 10
0.0
 20
0.0
 11
420.0
 21
297.0
 12
0.0
 22
0.0
 32
0.0
 14
0.0
 24
0.0
 34
0.0
 15
766.53186
 25
738.508423
 35
2.0
146
0.0
 13
0.0
 23
0.0
 33
0.0
 16
1.0
 26
0.0
 36
0.0
 17
0.0
 27
1.0
 37
0.0
 76
     0
330
1B
  0
LAYOUT
  5
26
102
{ACAD_REACTORS
330
1A
102
}
330
1A
100
AcDbPlotSettings
  1

  2
none_device
  4

  6

 40
0.0
 41
0.0
 42
0.0
 43
0.0
 44
0.0
 45
0.0
 46
0.0
 47
0.0
 48
0.0
 49
0.0
140
0.0
141
0.0
142
1.0
143
1.0
 70
  4784
 72
     0
 73
     0
 74
     5
  7

 75
    16
147
1.0
148
0.0
149
0.0
100
AcDbLayout
  1
Layout2
 70
     1
 71
     2
 10
0.0
 20
0.0
 11
0.0
 21
0.0
 12
0.0
 22
0.0
 32
0.0
 14
0.0
 24
0.0
 34
0.0
 15
0.0
 25
0.0
 35
0.0
146
0.0
 13
0.0
 23
0.0
 33
0.0
 16
1.0
 26
0.0
 36
0.0
 17
0.0
 27
1.0
 37
0.0
 76
     0
330
23
  0
LAYOUT
  5
22
102
{ACAD_REACTORS
330
1A
102
}
330
1A
100
AcDbPlotSettings
  1

  2
none_device
  4
Letter_(8.50_x_11.00_Inches)
  6

 40
6.35
 41
6.35
 42
6.350005
 43
6.350005
 44
215.9
 45
279.4
 46
0.0
 47
0.0
 48
0.0
 49
0.0
140
0.0
141
0.0
142
1.0
143
1.0
 70
  5808
 72
     0
 73
     0
 74
     0
  7

 75
     0
147
1.0
148
0.0
149
0.0
100
AcDbLayout
  1
Model
 70
     1
 71
     0
 10
0.0
 20
0.0
 11
420.0
 21
297.0
 12
0.0
 22
0.0
 32
0.0
 14
0.0
 24
0.0
 34
0.0
 15
766.53186
 25
738.508423
 35
2.0
146
0.0
 13
0.0
 23
0.0
 33
0.0
 16
1.0
 26
0.0
 36
0.0
 17
0.0
 27
1.0
 37
0.0
 76
     0
330
1F
331
29
  0
MLINESTYLE
  5
18
102
{ACAD_REACTORS
330
17
102
}
330
17
100
AcDbMlineStyle
  2
Standard
 70
     0
  3

 62
   256
 51
90.0
 52
90.0
 71
     2
 49
0.5
 62
   256
  6
BYLAYER
 49
-0.5
 62
   256
  6
BYLAYER
  0
ACDBPLACEHOLDER
  5
F
102
{ACAD_REACTORS
330
E
102
}
330
E
  0
SCALE
  5
48
102
{ACAD_REACTORS
330
47
102
}
330
47
100
AcDbScale
 70
     0
300
1:1
140
1.0
141
1.0
290
     1
  0
SCALE
  5
49
102
{ACAD_REACTORS
330
47
102
}
330
47
100
AcDbScale
 70
     0
300
1:2
140
1.0
141
2.0
290
     0
  0
SCALE
  5
4A
102
{ACAD_REACTORS
330
47
102
}
330
47
100
AcDbScale
 70
     0
300
1:4
140
1.0
141
4.0
290
     0
  0
SCALE
  5
4B
102
{ACAD_REACTORS
330
47
102
}
330
47
100
AcDbScale
 70
     0
300
1:5
140
1.0
141
5.0
290
     0
  0
SCALE
  5
4C
102
{ACAD_REACTORS
330
47
102
}
330
47
100
AcDbScale
 70
     0
300
1:8
140
1.0
141
8.0
290
     0
  0
SCALE
  5
4D
102
{ACAD_REACTORS
330
47
102
}
330
47
100
AcDbScale
 70
     0
300
1:10
140
1.0
141
10.0
290
     0
  0
SCALE
  5
4E
102
{ACAD_REACTORS
330
47
102
}
330
47
100
AcDbScale
 70
     0
300
1:16
140
1.0
141
16.0
290
     0
  0
SCALE
  5
4F
102
{ACAD_REACTORS
330
47
102
}
330
47
100
AcDbScale
 70
     0
300
1:20
140
1.0
141
20.0
290
     0
  0
SCALE
  5
50
102
{ACAD_REACTORS
330
47
102
}
330
47
100
AcDbScale
 70
     0
300
1:30
140
1.0
141
30.0
290
     0
  0
SCALE
  5
51
102
{ACAD_REACTORS
330
47
102
}
330
47
100
AcDbScale
 70
     0
300
1:40
140
1.0
141
40.0
290
     0
  0
SCALE
  5
52
102
{ACAD_REACTORS
330
47
102
}
330
47
100
AcDbScale
 70
     0
300
1:50
140
1.0
141
50.0
290
     0
  0
SCALE
  5
53
102
{ACAD_REACTORS
330
47
102
}
330
47
100
AcDbScale
 70
     0
300
1:100
140
1.0
141
100.0
290
     0
  0
SCALE
  5
54
102
{ACAD_REACTORS
330
47
102
}
330
47
100
AcDbScale
 70
     0
300
2:1
140
2.0
141
1.0
290
     0
  0
SCALE
  5
55
102
{ACAD_REACTORS
330
47
102
}
330
47
100
AcDbScale
 70
     0
300
4:1
140
4.0
141
1.0
290
     0
  0
SCALE
  5
56
102
{ACAD_REACTORS
330
47
102
}
330
47
100
AcDbScale
 70
     0
300
8:1
140
8.0
141
1.0
290
     0
  0
SCALE
  5
57
102
{ACAD_REACTORS
330
47
102
}
330
47
100
AcDbScale
 70
     0
300
10:1
140
10.0
141
1.0
290
     0
  0
SCALE
  5
58
102
{ACAD_REACTORS
330
47
102
}
330
47
100
AcDbScale
 70
     0
300
100:1
140
100.0
141
1.0
290
     0
  0
SCALE
  5
59
102
{ACAD_REACTORS
330
47
102
}
330
47
100
AcDbScale
 70
     0
300
1/128" = 1'-0"
140
0.007812
141
12.0
290
     0
  0
SCALE
  5
5A
102
{ACAD_REACTORS
330
47
102
}
330
47
100
AcDbScale
 70
     0
300
1/64" = 1'-0"
140
0.015625
141
12.0
290
     0
  0
SCALE
  5
5B
102
{ACAD_REACTORS
330
47
102
}
330
47
100
AcDbScale
 70
     0
300
1/32" = 1'-0"
140
0.03125
141
12.0
290
     0
  0
SCALE
  5
5C
102
{ACAD_REACTORS
330
47
102
}
330
47
100
AcDbScale
 70
     0
300
1/16" = 1'-0"
140
0.0625
141
12.0
290
     0
  0
SCALE
  5
5D
102
{ACAD_REACTORS
330
47
102
}
330
47
100
AcDbScale
 70
     0
300
3/32" = 1'-0"
140
0.09375
141
12.0
290
     0
  0
SCALE
  5
5E
102
{ACAD_REACTORS
330
47
102
}
330
47
100
AcDbScale
 70
     0
300
1/8" = 1'-0"
140
0.125
141
12.0
290
     0
  0
SCALE
  5
5F
102
{ACAD_REACTORS
330
47
102
}
330
47
100
AcDbScale
 70
     0
300
3/16" = 1'-0"
140
0.1875
141
12.0
290
     0
  0
SCALE
  5
60
102
{ACAD_REACTORS
330
47
102
}
330
47
100
AcDbScale
 70
     0
300
1/4" = 1'-0"
140
0.25
141
12.0
290
     0
  0
SCALE
  5
61
102
{ACAD_REACTORS
330
47
102
}
330
47
100
AcDbScale
 70
     0
300
3/8" = 1'-0"
140
0.375
141
12.0
290
     0
  0
SCALE
  5
62
102
{ACAD_REACTORS
330
47
102
}
330
47
100
AcDbScale
 70
     0
300
1/2" = 1'-0"
140
0.5
141
12.0
290
     0
  0
SCALE
  5
63
102
{ACAD_REACTORS
330
47
102
}
330
47
100
AcDbScale
 70
     0
300
3/4" = 1'-0"
140
0.75
141
12.0
290
     0
  0
SCALE
  5
64
102
{ACAD_REACTORS
330
47
102
}
330
47
100
AcDbScale
 70
     0
300
1" = 1'-0"
140
1.0
141
12.0
290
     0
  0
SCALE
  5
65
102
{ACAD_REACTORS
330
47
102
}
330
47
100
AcDbScale
 70
     0
300
1-1/2" = 1'-0"
140
1.5
141
12.0
290
     0
  0
SCALE
  5
66
102
{ACAD_REACTORS
330
47
102
}
330
47
100
AcDbScale
 70
     0
300
3" = 1'-0"
140
3.0
141
12.0
290
     0
  0
SCALE
  5
67
102
{ACAD_REACTORS
330
47
102
}
330
47
100
AcDbScale
 70
     0
300
6" = 1'-0"
140
6.0
141
12.0
290
     0
  0
SCALE
  5
68
102
{ACAD_REACTORS
330
47
102
}
330
47
100
AcDbScale
 70
     0
300
1'-0" = 1'-0"
140
12.0
141
12.0
290
     0
  0
ENDSEC
  0
EOF
