  0
SECTION
  2
HEADER
  9
$ACADVER
  1
AC1021
  9
$ACADMAINTVER
 70
    25
  9
$DWGCODEPAGE
  3
ANSI_936
  9
$LASTSAVEDBY
  1
Administrator
  9
$INSBASE
 10
0.0
 20
0.0
 30
0.0
  9
$EXTMIN
 10
-284.3523079546953
 20
249.7555542328003
 30
0.0
  9
$EXTMAX
 10
1278.651948684021
 20
754.3630619588633
 30
0.0
  9
$LIMMIN
 10
0.0
 20
0.0
  9
$LIMMAX
 10
12.0
 20
9.0
  9
$ORTHOMODE
 70
     1
  9
$REGENMODE
 70
     1
  9
$FILLMODE
 70
     1
  9
$QTEXTMODE
 70
     0
  9
$MIRRTEXT
 70
     1
  9
$LTSCALE
 40
1.0
  9
$ATTMODE
 70
     1
  9
$TEXTSIZE
 40
0.2
  9
$TRACEWID
 40
0.05
  9
$TEXTSTYLE
  7
Standard
  9
$CLAYER
  8
0
  9
$CELTYPE
  6
ByLayer
  9
$CECOLOR
 62
   256
  9
$CELTSCALE
 40
1.0
  9
$DISPSILH
 70
     0
  9
$DIMSCALE
 40
1.0
  9
$DIMASZ
 40
0.18
  9
$DIMEXO
 40
0.0625
  9
$DIMDLI
 40
0.38
  9
$DIMRND
 40
0.0
  9
$DIMDLE
 40
0.0
  9
$DIMEXE
 40
0.18
  9
$DIMTP
 40
0.0
  9
$DIMTM
 40
0.0
  9
$DIMTXT
 40
0.18
  9
$DIMCEN
 40
0.09
  9
$DIMTSZ
 40
0.0
  9
$DIMTOL
 70
     0
  9
$DIMLIM
 70
     0
  9
$DIMTIH
 70
     1
  9
$DIMTOH
 70
     1
  9
$DIMSE1
 70
     0
  9
$DIMSE2
 70
     0
  9
$DIMTAD
 70
     0
  9
$DIMZIN
 70
     0
  9
$DIMBLK
  1

  9
$DIMASO
 70
     1
  9
$DIMSHO
 70
     1
  9
$DIMPOST
  1

  9
$DIMAPOST
  1

  9
$DIMALT
 70
     0
  9
$DIMALTD
 70
     2
  9
$DIMALTF
 40
25.4
  9
$DIMLFAC
 40
1.0
  9
$DIMTOFL
 70
     0
  9
$DIMTVP
 40
0.0
  9
$DIMTIX
 70
     0
  9
$DIMSOXD
 70
     0
  9
$DIMSAH
 70
     0
  9
$DIMBLK1
  1

  9
$DIMBLK2
  1

  9
$DIMSTYLE
  2
Standard
  9
$DIMCLRD
 70
     0
  9
$DIMCLRE
 70
     0
  9
$DIMCLRT
 70
     0
  9
$DIMTFAC
 40
1.0
  9
$DIMGAP
 40
0.09
  9
$DIMJUST
 70
     0
  9
$DIMSD1
 70
     0
  9
$DIMSD2
 70
     0
  9
$DIMTOLJ
 70
     1
  9
$DIMTZIN
 70
     0
  9
$DIMALTZ
 70
     0
  9
$DIMALTTZ
 70
     0
  9
$DIMUPT
 70
     0
  9
$DIMDEC
 70
     4
  9
$DIMTDEC
 70
     4
  9
$DIMALTU
 70
     2
  9
$DIMALTTD
 70
     2
  9
$DIMTXSTY
  7
Standard
  9
$DIMAUNIT
 70
     0
  9
$DIMADEC
 70
     0
  9
$DIMALTRND
 40
0.0
  9
$DIMAZIN
 70
     0
  9
$DIMDSEP
 70
    46
  9
$DIMATFIT
 70
     3
  9
$DIMFRAC
 70
     0
  9
$DIMLDRBLK
  1

  9
$DIMLUNIT
 70
     2
  9
$DIMLWD
 70
    -2
  9
$DIMLWE
 70
    -2
  9
$DIMTMOVE
 70
     0
  9
$DIMFXL
 40
1.0
  9
$DIMFXLON
 70
     0
  9
$DIMJOGANG
 40
0.7853981633974483
  9
$DIMTFILL
 70
     0
  9
$DIMTFILLCLR
 70
     0
  9
$DIMARCSYM
 70
     0
  9
$DIMLTYPE
  6

  9
$DIMLTEX1
  6

  9
$DIMLTEX2
  6

  9
$LUNITS
 70
     2
  9
$LUPREC
 70
     4
  9
$SKETCHINC
 40
0.1
  9
$FILLETRAD
 40
1.8
  9
$AUNITS
 70
     0
  9
$AUPREC
 70
     0
  9
$MENU
  1
.
  9
$ELEVATION
 40
0.0
  9
$PELEVATION
 40
0.0
  9
$THICKNESS
 40
0.0
  9
$LIMCHECK
 70
     0
  9
$CHAMFERA
 40
0.0
  9
$CHAMFERB
 40
0.0
  9
$CHAMFERC
 40
0.0
  9
$CHAMFERD
 40
0.0
  9
$SKPOLY
 70
     0
  9
$TDCREATE
 40
2459241.672839202
  9
$TDUCREATE
 40
2459241.339505868
  9
$TDUPDATE
 40
2459241.698066181
  9
$TDUUPDATE
 40
2459241.364732847
  9
$TDINDWG
 40
0.0218978009
  9
$TDUSRTIMER
 40
0.0218977199
  9
$USRTIMER
 70
     1
  9
$ANGBASE
 50
0.0
  9
$ANGDIR
 70
     0
  9
$PDMODE
 70
     0
  9
$PDSIZE
 40
0.0
  9
$PLINEWID
 40
0.0
  9
$SPLFRAME
 70
     0
  9
$SPLINETYPE
 70
     6
  9
$SPLINESEGS
 70
     8
  9
$HANDSEED
  5
415
  9
$SURFTAB1
 70
     6
  9
$SURFTAB2
 70
     6
  9
$SURFTYPE
 70
     6
  9
$SURFU
 70
     6
  9
$SURFV
 70
     6
  9
$UCSBASE
  2

  9
$UCSNAME
  2

  9
$UCSORG
 10
0.0
 20
0.0
 30
0.0
  9
$UCSXDIR
 10
1.0
 20
0.0
 30
0.0
  9
$UCSYDIR
 10
0.0
 20
1.0
 30
0.0
  9
$UCSORTHOREF
  2

  9
$UCSORTHOVIEW
 70
     0
  9
$UCSORGTOP
 10
0.0
 20
0.0
 30
0.0
  9
$UCSORGBOTTOM
 10
0.0
 20
0.0
 30
0.0
  9
$UCSORGLEFT
 10
0.0
 20
0.0
 30
0.0
  9
$UCSORGRIGHT
 10
0.0
 20
0.0
 30
0.0
  9
$UCSORGFRONT
 10
0.0
 20
0.0
 30
0.0
  9
$UCSORGBACK
 10
0.0
 20
0.0
 30
0.0
  9
$PUCSBASE
  2

  9
$PUCSNAME
  2

  9
$PUCSORG
 10
0.0
 20
0.0
 30
0.0
  9
$PUCSXDIR
 10
1.0
 20
0.0
 30
0.0
  9
$PUCSYDIR
 10
0.0
 20
1.0
 30
0.0
  9
$PUCSORTHOREF
  2

  9
$PUCSORTHOVIEW
 70
     0
  9
$PUCSORGTOP
 10
0.0
 20
0.0
 30
0.0
  9
$PUCSORGBOTTOM
 10
0.0
 20
0.0
 30
0.0
  9
$PUCSORGLEFT
 10
0.0
 20
0.0
 30
0.0
  9
$PUCSORGRIGHT
 10
0.0
 20
0.0
 30
0.0
  9
$PUCSORGFRONT
 10
0.0
 20
0.0
 30
0.0
  9
$PUCSORGBACK
 10
0.0
 20
0.0
 30
0.0
  9
$USERI1
 70
     0
  9
$USERI2
 70
     0
  9
$USERI3
 70
     0
  9
$USERI4
 70
     0
  9
$USERI5
 70
     0
  9
$USERR1
 40
0.0
  9
$USERR2
 40
0.0
  9
$USERR3
 40
0.0
  9
$USERR4
 40
0.0
  9
$USERR5
 40
0.0
  9
$WORLDVIEW
 70
     1
  9
$SHADEDGE
 70
     3
  9
$SHADEDIF
 70
    70
  9
$TILEMODE
 70
     1
  9
$MAXACTVP
 70
    64
  9
$PINSBASE
 10
0.0
 20
0.0
 30
0.0
  9
$PLIMCHECK
 70
     0
  9
$PEXTMIN
 10
1.000000000000000E+20
 20
1.000000000000000E+20
 30
1.000000000000000E+20
  9
$PEXTMAX
 10
-1.000000000000000E+20
 20
-1.000000000000000E+20
 30
-1.000000000000000E+20
  9
$PLIMMIN
 10
0.0
 20
0.0
  9
$PLIMMAX
 10
12.0
 20
9.0
  9
$UNITMODE
 70
     0
  9
$VISRETAIN
 70
     1
  9
$PLINEGEN
 70
     0
  9
$PSLTSCALE
 70
     1
  9
$TREEDEPTH
 70
  3020
  9
$CMLSTYLE
  2
Standard
  9
$CMLJUST
 70
     0
  9
$CMLSCALE
 40
1.0
  9
$PROXYGRAPHICS
 70
     1
  9
$MEASUREMENT
 70
     0
  9
$CELWEIGHT
370
    -1
  9
$ENDCAPS
280
     0
  9
$JOINSTYLE
280
     0
  9
$LWDISPLAY
290
     0
  9
$INSUNITS
 70
     5
  9
$HYPERLINKBASE
  1

  9
$STYLESHEET
  1

  9
$XEDIT
290
     1
  9
$CEPSNTYPE
380
     0
  9
$PSTYLEMODE
290
     1
  9
$FINGERPRINTGUID
  2
{20EEBBDE-3126-494D-A5F5-96FC203DFAA5}
  9
$VERSIONGUID
  2
{755EB95D-2F6D-423D-84D8-F6D55FD7C3EE}
  9
$EXTNAMES
290
     1
  9
$PSVPSCALE
 40
0.0
  9
$OLESTARTUP
290
     0
  9
$SORTENTS
280
   127
  9
$INDEXCTL
280
     0
  9
$HIDETEXT
280
     1
  9
$XCLIPFRAME
290
     0
  9
$HALOGAP
280
     0
  9
$OBSCOLOR
 70
   257
  9
$OBSLTYPE
280
     0
  9
$INTERSECTIONDISPLAY
280
     0
  9
$INTERSECTIONCOLOR
 70
   257
  9
$DIMASSOC
280
     2
  9
$PROJECTNAME
  1

  9
$CAMERADISPLAY
290
     0
  9
$LENSLENGTH
 40
50.0
  9
$CAMERAHEIGHT
 40
0.0
  9
$STEPSPERSEC
 40
2.0
  9
$STEPSIZE
 40
6.0
  9
$3DDWFPREC
 40
2.0
  9
$PSOLWIDTH
 40
0.25
  9
$PSOLHEIGHT
 40
4.0
  9
$LOFTANG1
 40
1.570796326794897
  9
$LOFTANG2
 40
1.570796326794897
  9
$LOFTMAG1
 40
0.0
  9
$LOFTMAG2
 40
0.0
  9
$LOFTPARAM
 70
     7
  9
$LOFTNORMALS
280
     1
  9
$LATITUDE
 40
37.795
  9
$LONGITUDE
 40
-122.394
  9
$NORTHDIRECTION
 40
0.0
  9
$TIMEZONE
 70
 -8000
  9
$LIGHTGLYPHDISPLAY
280
     1
  9
$TILEMODELIGHTSYNCH
280
     1
  9
$CMATERIAL
347
44
  9
$SOLIDHIST
280
     0
  9
$SHOWHIST
280
     1
  9
$DWFFRAME
280
     2
  9
$DGNFRAME
280
     2
  9
$REALWORLDSCALE
290
     1
  9
$INTERFERECOLOR
 62
   256
  9
$INTERFEREOBJVS
345
33
  9
$INTERFEREVPVS
346
2AC
  9
$CSHADOW
280
     0
  9
$SHADOWPLANELOCATION
 40
0.0
  0
ENDSEC
  0
SECTION
  2
CLASSES
  0
CLASS
  1
ACDBDICTIONARYWDFLT
  2
AcDbDictionaryWithDefault
  3
ObjectDBX Classes
 90
        0
 91
        1
280
     0
281
     0
  0
CLASS
  1
VISUALSTYLE
  2
AcDbVisualStyle
  3
ObjectDBX Classes
 90
     4095
 91
       26
280
     0
281
     0
  0
CLASS
  1
MATERIAL
  2
AcDbMaterial
  3
ObjectDBX Classes
 90
     1153
 91
        3
280
     0
281
     0
  0
CLASS
  1
SCALE
  2
AcDbScale
  3
ObjectDBX Classes
 90
     1153
 91
       33
280
     0
281
     0
  0
CLASS
  1
TABLESTYLE
  2
AcDbTableStyle
  3
ObjectDBX Classes
 90
     4095
 91
        1
280
     0
281
     0
  0
CLASS
  1
MLEADERSTYLE
  2
AcDbMLeaderStyle
  3
ACDB_MLEADERSTYLE_CLASS
 90
     4095
 91
        1
280
     0
281
     0
  0
CLASS
  1
SUN
  2
AcDbSun
  3
SCENEOE
 90
     1153
 91
        1
280
     0
281
     0
  0
CLASS
  1
DICTIONARYVAR
  2
AcDbDictionaryVar
  3
ObjectDBX Classes
 90
        0
 91
        4
280
     0
281
     0
  0
CLASS
  1
CELLSTYLEMAP
  2
AcDbCellStyleMap
  3
ObjectDBX Classes
 90
     1152
 91
        8
280
     0
281
     0
  0
CLASS
  1
DIMASSOC
  2
AcDbDimAssoc
  3
"AcDbDimAssoc|Product Desc:     AcDim ARX App For Dimension|Company:          Autodesk, Inc.|WEB Address:      www.autodesk.com"
 90
        0
 91
        9
280
     0
281
     0
  0
CLASS
  1
SORTENTSTABLE
  2
AcDbSortentsTable
  3
ObjectDBX Classes
 90
        0
 91
        1
280
     0
281
     0
  0
ENDSEC
  0
SECTION
  2
TABLES
  0
TABLE
  2
VPORT
  5
8
330
0
100
AcDbSymbolTable
 70
     1
  0
VPORT
  5
29
330
8
100
AcDbSymbolTableRecord
100
AcDbViewportTableRecord
  2
*Active
 70
     0
 10
0.0
 20
0.0
 11
1.0
 21
1.0
 12
1006.841051489899
 22
564.4678320471808
 13
0.0
 23
0.0
 14
0.5
 24
0.5
 15
0.5
 25
0.5
 16
0.0
 26
0.0
 36
1.0
 17
0.0
 27
0.0
 37
0.0
 40
681.5797329716307
 41
2.290523690773067
 42
50.0
 43
0.0
 44
0.0
 50
0.0
 51
0.0
 71
     0
 72
   100
 73
     1
 74
     3
 75
     0
 76
     0
 77
     0
 78
     0
281
     0
 65
     1
110
0.0
120
0.0
130
0.0
111
1.0
121
0.0
131
0.0
112
0.0
122
1.0
132
0.0
 79
     0
146
0.0
348
2F
 60
     3
 61
     5
292
     1
282
     1
141
0.0
142
0.0
 63
   250
361
6D
  0
ENDTAB
  0
TABLE
  2
LTYPE
  5
5
330
0
100
AcDbSymbolTable
 70
     2
  0
LTYPE
  5
14
330
5
100
AcDbSymbolTableRecord
100
AcDbLinetypeTableRecord
  2
ByBlock
 70
     0
  3

 72
    65
 73
     0
 40
0.0
  0
LTYPE
  5
15
330
5
100
AcDbSymbolTableRecord
100
AcDbLinetypeTableRecord
  2
ByLayer
 70
     0
  3

 72
    65
 73
     0
 40
0.0
  0
LTYPE
  5
16
330
5
100
AcDbSymbolTableRecord
100
AcDbLinetypeTableRecord
  2
Continuous
 70
     0
  3
Solid line
 72
    65
 73
     0
 40
0.0
  0
ENDTAB
  0
TABLE
  2
LAYER
  5
2
330
0
100
AcDbSymbolTable
 70
     3
  0
LAYER
  5
10
102
{ACAD_XDICTIONARY
360
2B1
102
}
330
2
100
AcDbSymbolTableRecord
100
AcDbLayerTableRecord
  2
0
 70
     0
 62
     7
  6
Continuous
370
    -3
390
F
347
46
  0
LAYER
  5
6F
102
{ACAD_XDICTIONARY
360
2B3
102
}
330
2
100
AcDbSymbolTableRecord
100
AcDbLayerTableRecord
  2
layer 1
 70
     0
 62
     7
  6
Continuous
370
    -3
390
F
347
46
  0
LAYER
  5
2C7
330
2
100
AcDbSymbolTableRecord
100
AcDbLayerTableRecord
  2
Defpoints
 70
     0
 62
     7
  6
Continuous
290
     0
370
    -3
390
F
347
46
  0
ENDTAB
  0
TABLE
  2
STYLE
  5
3
330
0
100
AcDbSymbolTable
 70
     8
  0
STYLE
  5
11
330
3
100
AcDbSymbolTableRecord
100
AcDbTextStyleTableRecord
  2
Standard
 70
     0
 40
0.0
 41
1.0
 50
0.0
 71
     0
 42
0.2
  3
txt
  4

  0
ENDTAB
  0
TABLE
  2
VIEW
  5
6
330
0
100
AcDbSymbolTable
 70
     0
  0
ENDTAB
  0
TABLE
  2
UCS
  5
7
330
0
100
AcDbSymbolTable
 70
     0
  0
ENDTAB
  0
TABLE
  2
APPID
  5
9
330
0
100
AcDbSymbolTable
 70
     4
  0
APPID
  5
12
330
9
100
AcDbSymbolTableRecord
100
AcDbRegAppTableRecord
  2
ACAD
 70
     0
  0
APPID
  5
6E
330
9
100
AcDbSymbolTableRecord
100
AcDbRegAppTableRecord
  2
ODA
 70
     0
  0
APPID
  5
2A2
330
9
100
AcDbSymbolTableRecord
100
AcDbRegAppTableRecord
  2
ACAD_MLEADERVER
 70
     0
  0
APPID
  5
329
330
9
100
AcDbSymbolTableRecord
100
AcDbRegAppTableRecord
  2
ACAD_EXEMPT_FROM_CAD_STANDARDS
 70
     0
  0
ENDTAB
  0
TABLE
  2
DIMSTYLE
  5
A
330
0
100
AcDbSymbolTable
 70
     9
100
AcDbDimStyleTable
 71
     1
340
27
  0
DIMSTYLE
105
27
330
A
100
AcDbSymbolTableRecord
100
AcDbDimStyleTableRecord
  2
Standard
 70
     0
340
11
  0
ENDTAB
  0
TABLE
  2
BLOCK_RECORD
  5
1
330
0
100
AcDbSymbolTable
 70
    18
  0
BLOCK_RECORD
  5
1F
102
{ACAD_XDICTIONARY
360
38D
102
}
330
1
100
AcDbSymbolTableRecord
100
AcDbBlockTableRecord
  2
*Model_Space
340
22
 70
     0
280
     1
281
     0
  0
BLOCK_RECORD
  5
1B
330
1
100
AcDbSymbolTableRecord
100
AcDbBlockTableRecord
  2
*Paper_Space
340
1E
 70
     0
280
     1
281
     0
  0
BLOCK_RECORD
  5
23
330
1
100
AcDbSymbolTableRecord
100
AcDbBlockTableRecord
  2
*Paper_Space0
340
26
 70
     0
280
     1
281
     0
  0
BLOCK_RECORD
  5
2C8
330
1
100
AcDbSymbolTableRecord
100
AcDbBlockTableRecord
  2
*D3
340
0
 70
     0
280
     1
281
     0
  0
BLOCK_RECORD
  5
2F2
330
1
100
AcDbSymbolTableRecord
100
AcDbBlockTableRecord
  2
*D5
340
0
 70
     0
280
     1
281
     0
  0
BLOCK_RECORD
  5
30C
330
1
100
AcDbSymbolTableRecord
100
AcDbBlockTableRecord
  2
*D6
340
0
 70
     0
280
     1
281
     0
  0
BLOCK_RECORD
  5
332
330
1
100
AcDbSymbolTableRecord
100
AcDbBlockTableRecord
  2
*D8
340
0
 70
     0
280
     1
281
     0
  0
BLOCK_RECORD
  5
34C
330
1
100
AcDbSymbolTableRecord
100
AcDbBlockTableRecord
  2
*D9
340
0
 70
     0
280
     1
281
     0
  0
BLOCK_RECORD
  5
373
330
1
100
AcDbSymbolTableRecord
100
AcDbBlockTableRecord
  2
*D10
340
0
 70
     0
280
     1
281
     0
  0
BLOCK_RECORD
  5
398
330
1
100
AcDbSymbolTableRecord
100
AcDbBlockTableRecord
  2
*D12
340
0
 70
     0
280
     1
281
     0
  0
BLOCK_RECORD
  5
3BC
330
1
100
AcDbSymbolTableRecord
100
AcDbBlockTableRecord
  2
*D14
340
0
 70
     0
280
     1
281
     0
  0
BLOCK_RECORD
  5
3D6
330
1
100
AcDbSymbolTableRecord
100
AcDbBlockTableRecord
  2
*D15
340
0
 70
     0
280
     1
281
     0
  0
ENDTAB
  0
ENDSEC
  0
SECTION
  2
BLOCKS
  0
BLOCK
  5
20
330
1F
100
AcDbEntity
  8
0
100
AcDbBlockBegin
  2
*Model_Space
 70
     0
 10
0.0
 20
0.0
 30
0.0
  3
*Model_Space
  1

  0
ENDBLK
  5
21
330
1F
100
AcDbEntity
  8
0
100
AcDbBlockEnd
  0
BLOCK
  5
1C
330
1B
100
AcDbEntity
 67
     1
  8
0
100
AcDbBlockBegin
  2
*Paper_Space
 70
     0
 10
0.0
 20
0.0
 30
0.0
  3
*Paper_Space
  1

  0
ENDBLK
  5
1D
330
1B
100
AcDbEntity
 67
     1
  8
0
100
AcDbBlockEnd
  0
BLOCK
  5
24
330
23
100
AcDbEntity
 67
     1
  8
0
100
AcDbBlockBegin
  2
*Paper_Space0
 70
     0
 10
0.0
 20
0.0
 30
0.0
  3
*Paper_Space0
  1

  0
ENDBLK
  5
25
330
23
100
AcDbEntity
 67
     1
  8
0
100
AcDbBlockEnd
  0
BLOCK
  5
2C9
330
2C8
100
AcDbEntity
  8
0
100
AcDbBlockBegin
  2
*D3
 70
     1
 10
0.0
 20
0.0
 30
0.0
  3
*D3
  1

  0
LINE
  5
2D6
330
2C8
100
AcDbEntity
  8
0
 62
     0
370
    -2
100
AcDbLine
 10
45.07980394290609
 20
22.75692302755147
 30
0.0
 11
45.07980394290609
 21
12.94660866696896
 31
0.0
  0
LINE
  5
2D7
330
2C8
100
AcDbEntity
  8
0
 62
     0
370
    -2
100
AcDbLine
 10
85.07981394290609
 20
22.75692302755147
 30
0.0
 11
85.07981394290609
 21
12.94660866696896
 31
0.0
  0
LINE
  5
2D8
330
2C8
100
AcDbEntity
  8
0
 62
     0
370
    -2
100
AcDbLine
 10
45.25980394290609
 20
13.12660866696896
 30
0.0
 11
64.52480894290609
 21
13.12660866696896
 31
0.0
  0
LINE
  5
2D9
330
2C8
100
AcDbEntity
  8
0
 62
     0
370
    -2
100
AcDbLine
 10
84.89981394290609
 20
13.12660866696896
 30
0.0
 11
65.6348089429061
 21
13.12660866696896
 31
0.0
  0
SOLID
  5
2DA
330
2C8
100
AcDbEntity
  8
0
 62
     0
100
AcDbTrace
 10
45.25980394290609
 20
13.15660866696896
 30
0.0
 11
45.25980394290609
 21
13.09660866696896
 31
0.0
 12
45.07980394290609
 22
13.12660866696896
 32
0.0
 13
45.07980394290609
 23
13.12660866696896
 33
0.0
  0
SOLID
  5
2DB
330
2C8
100
AcDbEntity
  8
0
 62
     0
100
AcDbTrace
 10
84.89981394290609
 20
13.15660866696896
 30
0.0
 11
84.89981394290609
 21
13.09660866696896
 31
0.0
 12
85.07981394290609
 22
13.12660866696896
 32
0.0
 13
85.07981394290609
 23
13.12660866696896
 33
0.0
  0
MTEXT
  5
2DC
330
2C8
100
AcDbEntity
  8
0
 62
     0
100
AcDbMText
 10
65.0798089429061
 20
13.12660866696896
 30
0.0
 40
0.18
 41
0.0
 46
0.0
 71
     5
 72
     1
  1
\A1;40.0000
 73
     1
 44
1.0
  0
POINT
  5
2DD
330
2C8
100
AcDbEntity
  8
Defpoints
 62
     0
100
AcDbPoint
 10
45.07980394290609
 20
22.81942302755147
 30
0.0
  0
POINT
  5
2DE
330
2C8
100
AcDbEntity
  8
Defpoints
 62
     0
100
AcDbPoint
 10
85.07981394290609
 20
22.81942302755147
 30
0.0
  0
POINT
  5
2DF
330
2C8
100
AcDbEntity
  8
Defpoints
 62
     0
100
AcDbPoint
 10
85.07981394290609
 20
13.12660866696896
 30
0.0
  0
ENDBLK
  5
2CA
330
2C8
100
AcDbEntity
  8
0
100
AcDbBlockEnd
  0
BLOCK
  5
2F3
330
2F2
100
AcDbEntity
  8
0
100
AcDbBlockBegin
  2
*D5
 70
     1
 10
0.0
 20
0.0
 30
0.0
  3
*D5
  1

  0
LINE
  5
300
330
2F2
100
AcDbEntity
  8
0
 62
     0
370
    -2
100
AcDbLine
 10
-55.36127420245452
 20
532.8947205482804
 30
0.0
 11
-55.36127420245452
 21
528.3561022787209
 31
0.0
  0
LINE
  5
301
330
2F2
100
AcDbEntity
  8
0
 62
     0
370
    -2
100
AcDbLine
 10
-42.03325253445997
 20
532.8947205482804
 30
0.0
 11
-42.03325253445997
 21
528.3561022787209
 31
0.0
  0
LINE
  5
302
330
2F2
100
AcDbEntity
  8
0
 62
     0
370
    -2
100
AcDbLine
 10
-55.18127420245452
 20
528.5361022787208
 30
0.0
 11
-49.28226336845725
 21
528.5361022787208
 31
0.0
  0
LINE
  5
303
330
2F2
100
AcDbEntity
  8
0
 62
     0
370
    -2
100
AcDbLine
 10
-42.21325253445996
 20
528.5361022787208
 30
0.0
 11
-48.11226336845724
 21
528.5361022787208
 31
0.0
  0
SOLID
  5
304
330
2F2
100
AcDbEntity
  8
0
 62
     0
100
AcDbTrace
 10
-55.18127420245452
 20
528.5661022787207
 30
0.0
 11
-55.18127420245452
 21
528.5061022787208
 31
0.0
 12
-55.36127420245452
 22
528.5361022787208
 32
0.0
 13
-55.36127420245452
 23
528.5361022787208
 33
0.0
  0
SOLID
  5
305
330
2F2
100
AcDbEntity
  8
0
 62
     0
100
AcDbTrace
 10
-42.21325253445996
 20
528.5661022787207
 30
0.0
 11
-42.21325253445996
 21
528.5061022787208
 31
0.0
 12
-42.03325253445997
 22
528.5361022787208
 32
0.0
 13
-42.03325253445997
 23
528.5361022787208
 33
0.0
  0
MTEXT
  5
306
330
2F2
100
AcDbEntity
  8
0
 62
     0
100
AcDbMText
 10
-48.69726336845724
 20
528.5361022787208
 30
0.0
 40
0.18
 41
0.0
 46
0.0
 71
     5
 72
     1
  1
\A1;13.3280
 73
     1
 44
1.0
  0
POINT
  5
307
330
2F2
100
AcDbEntity
  8
Defpoints
 62
     0
100
AcDbPoint
 10
-55.36127420245452
 20
532.9572205482804
 30
0.0
  0
POINT
  5
308
330
2F2
100
AcDbEntity
  8
Defpoints
 62
     0
100
AcDbPoint
 10
-42.03325253445997
 20
532.9572205482804
 30
0.0
  0
POINT
  5
309
330
2F2
100
AcDbEntity
  8
Defpoints
 62
     0
100
AcDbPoint
 10
-42.03325253445997
 20
528.5361022787208
 30
0.0
  0
ENDBLK
  5
2F4
330
2F2
100
AcDbEntity
  8
0
100
AcDbBlockEnd
  0
BLOCK
  5
30D
330
30C
100
AcDbEntity
  8
0
100
AcDbBlockBegin
  2
*D6
 70
     1
 10
0.0
 20
0.0
 30
0.0
  3
*D6
  1

  0
LINE
  5
31A
330
30C
100
AcDbEntity
  8
0
 62
     0
370
    -2
100
AcDbLine
 10
-57.07496227403265
 20
533.0832015324099
 30
0.0
 11
-57.07496227403265
 21
544.8000435878549
 31
0.0
  0
LINE
  5
31B
330
30C
100
AcDbEntity
  8
0
 62
     0
370
    -2
100
AcDbLine
 10
-40.44652643114164
 20
533.0832015324099
 30
0.0
 11
-40.44652643114164
 21
544.8000435878549
 31
0.0
  0
LINE
  5
31C
330
30C
100
AcDbEntity
  8
0
 62
     0
370
    -2
100
AcDbLine
 10
-56.89496227403266
 20
544.620043587855
 30
0.0
 11
-49.36074435258715
 21
544.620043587855
 31
0.0
  0
LINE
  5
31D
330
30C
100
AcDbEntity
  8
0
 62
     0
370
    -2
100
AcDbLine
 10
-40.62652643114165
 20
544.620043587855
 30
0.0
 11
-48.16074435258715
 21
544.620043587855
 31
0.0
  0
SOLID
  5
31E
330
30C
100
AcDbEntity
  8
0
 62
     0
100
AcDbTrace
 10
-56.89496227403266
 20
544.6500435878549
 30
0.0
 11
-56.89496227403266
 21
544.590043587855
 31
0.0
 12
-57.07496227403265
 22
544.620043587855
 32
0.0
 13
-57.07496227403265
 23
544.620043587855
 33
0.0
  0
SOLID
  5
31F
330
30C
100
AcDbEntity
  8
0
 62
     0
100
AcDbTrace
 10
-40.62652643114165
 20
544.6500435878549
 30
0.0
 11
-40.62652643114165
 21
544.590043587855
 31
0.0
 12
-40.44652643114164
 22
544.620043587855
 32
0.0
 13
-40.44652643114164
 23
544.620043587855
 33
0.0
  0
MTEXT
  5
320
330
30C
100
AcDbEntity
  8
0
 62
     0
100
AcDbMText
 10
-48.76074435258715
 20
544.620043587855
 30
0.0
 40
0.18
 41
0.0
 46
0.0
 71
     5
 72
     1
  1
\A1;16.6284
 73
     1
 44
1.0
  0
POINT
  5
321
330
30C
100
AcDbEntity
  8
Defpoints
 62
     0
100
AcDbPoint
 10
-57.07496227403265
 20
533.0207015324099
 30
0.0
  0
POINT
  5
322
330
30C
100
AcDbEntity
  8
Defpoints
 62
     0
100
AcDbPoint
 10
-40.44652643114164
 20
533.0207015324099
 30
0.0
  0
POINT
  5
323
330
30C
100
AcDbEntity
  8
Defpoints
 62
     0
100
AcDbPoint
 10
-40.44652643114164
 20
544.620043587855
 30
0.0
  0
ENDBLK
  5
30E
330
30C
100
AcDbEntity
  8
0
100
AcDbBlockEnd
  0
BLOCK
  5
333
330
332
100
AcDbEntity
  8
0
100
AcDbBlockBegin
  2
*D8
 70
     1
 10
0.0
 20
0.0
 30
0.0
  3
*D8
  1

  0
LINE
  5
340
330
332
100
AcDbEntity
  8
0
 62
     0
370
    -2
100
AcDbLine
 10
-85.19664024361237
 20
522.1992582459725
 30
0.0
 11
-85.19664024361237
 21
508.0958065183889
 31
0.0
  0
LINE
  5
341
330
332
100
AcDbEntity
  8
0
 62
     0
370
    -2
100
AcDbLine
 10
-10.97572829884029
 20
522.1992582460877
 30
0.0
 11
-10.97572829884029
 21
508.0958065183889
 31
0.0
  0
LINE
  5
342
330
332
100
AcDbEntity
  8
0
 62
     0
370
    -2
100
AcDbLine
 10
-85.01664024361236
 20
508.2758065183888
 30
0.0
 11
-48.70118427122633
 21
508.2758065183888
 31
0.0
  0
LINE
  5
343
330
332
100
AcDbEntity
  8
0
 62
     0
370
    -2
100
AcDbLine
 10
-11.15572829884029
 20
508.2758065183888
 30
0.0
 11
-47.47118427122632
 21
508.2758065183888
 31
0.0
  0
SOLID
  5
344
330
332
100
AcDbEntity
  8
0
 62
     0
100
AcDbTrace
 10
-85.01664024361236
 20
508.3058065183888
 30
0.0
 11
-85.01664024361236
 21
508.2458065183889
 31
0.0
 12
-85.19664024361237
 22
508.2758065183888
 32
0.0
 13
-85.19664024361237
 23
508.2758065183888
 33
0.0
  0
SOLID
  5
345
330
332
100
AcDbEntity
  8
0
 62
     0
100
AcDbTrace
 10
-11.15572829884029
 20
508.3058065183888
 30
0.0
 11
-11.15572829884029
 21
508.2458065183889
 31
0.0
 12
-10.97572829884029
 22
508.2758065183888
 32
0.0
 13
-10.97572829884029
 23
508.2758065183888
 33
0.0
  0
MTEXT
  5
346
330
332
100
AcDbEntity
  8
0
 62
     0
100
AcDbMText
 10
-48.08618427122633
 20
508.2758065183888
 30
0.0
 40
0.18
 41
0.0
 46
0.0
 71
     5
 72
     1
  1
\A1;74.2209
 73
     1
 44
1.0
  0
POINT
  5
347
330
332
100
AcDbEntity
  8
Defpoints
 62
     0
100
AcDbPoint
 10
-85.19664024361237
 20
522.2617582459726
 30
0.0
  0
POINT
  5
348
330
332
100
AcDbEntity
  8
Defpoints
 62
     0
100
AcDbPoint
 10
-10.97572829884029
 20
522.2617582460877
 30
0.0
  0
POINT
  5
349
330
332
100
AcDbEntity
  8
Defpoints
 62
     0
100
AcDbPoint
 10
-10.97572829884029
 20
508.2758065183888
 30
0.0
  0
ENDBLK
  5
334
330
332
100
AcDbEntity
  8
0
100
AcDbBlockEnd
  0
BLOCK
  5
34D
330
34C
100
AcDbEntity
  8
0
100
AcDbBlockBegin
  2
*D9
 70
     1
 10
0.0
 20
0.0
 30
0.0
  3
*D9
  1

  0
LINE
  5
35A
330
34C
100
AcDbEntity
  8
0
 62
     0
370
    -2
100
AcDbLine
 10
-16.82770905247845
 20
565.4288384303758
 30
0.0
 11
-26.91858169505683
 21
565.4288384303758
 31
0.0
  0
LINE
  5
35B
330
34C
100
AcDbEntity
  8
0
 62
     0
370
    -2
100
AcDbLine
 10
-23.29692328575994
 20
500.4855031662097
 30
0.0
 11
-26.91858169505684
 21
500.4855031662097
 31
0.0
  0
LINE
  5
35C
330
34C
100
AcDbEntity
  8
0
 62
     0
370
    -2
100
AcDbLine
 10
-26.73858169505683
 20
565.2488384303759
 30
0.0
 11
-26.73858169505683
 21
533.1371707982928
 31
0.0
  0
LINE
  5
35D
330
34C
100
AcDbEntity
  8
0
 62
     0
370
    -2
100
AcDbLine
 10
-26.73858169505684
 20
500.6655031662098
 30
0.0
 11
-26.73858169505683
 21
532.7771707982929
 31
0.0
  0
SOLID
  5
35E
330
34C
100
AcDbEntity
  8
0
 62
     0
100
AcDbTrace
 10
-26.76858169505683
 20
565.2488384303759
 30
0.0
 11
-26.70858169505683
 21
565.2488384303759
 31
0.0
 12
-26.73858169505683
 22
565.4288384303758
 32
0.0
 13
-26.73858169505683
 23
565.4288384303758
 33
0.0
  0
SOLID
  5
35F
330
34C
100
AcDbEntity
  8
0
 62
     0
100
AcDbTrace
 10
-26.76858169505684
 20
500.6655031662098
 30
0.0
 11
-26.70858169505684
 21
500.6655031662098
 31
0.0
 12
-26.73858169505684
 22
500.4855031662097
 32
0.0
 13
-26.73858169505684
 23
500.4855031662097
 33
0.0
  0
MTEXT
  5
360
330
34C
100
AcDbEntity
  8
0
 62
     0
100
AcDbMText
 10
-26.73858169505692
 20
532.9571707982928
 30
0.0
 40
0.18
 41
0.0
 46
0.0
 71
     5
 72
     1
  1
\A1;64.9433
 73
     1
 44
1.0
  0
POINT
  5
361
330
34C
100
AcDbEntity
  8
Defpoints
 62
     0
100
AcDbPoint
 10
-16.76520905247844
 20
565.4288384303758
 30
0.0
  0
POINT
  5
362
330
34C
100
AcDbEntity
  8
Defpoints
 62
     0
100
AcDbPoint
 10
-23.23442328575994
 20
500.4855031662097
 30
0.0
  0
POINT
  5
363
330
34C
100
AcDbEntity
  8
Defpoints
 62
     0
100
AcDbPoint
 10
-26.73858169505684
 20
500.4855031662097
 30
0.0
  0
ENDBLK
  5
34E
330
34C
100
AcDbEntity
  8
0
100
AcDbBlockEnd
  0
BLOCK
  5
374
330
373
100
AcDbEntity
  8
0
100
AcDbBlockBegin
  2
*D10
 70
     1
 10
0.0
 20
0.0
 30
0.0
  3
*D10
  1

  0
LINE
  5
381
330
373
100
AcDbEntity
  8
0
 62
     0
370
    -2
100
AcDbLine
 10
-10.99664024361236
 20
546.9462516092399
 30
0.0
 11
-10.99664024361236
 21
539.6897270286439
 31
0.0
  0
LINE
  5
382
330
373
100
AcDbEntity
  8
0
 62
     0
370
    -2
100
AcDbLine
 10
-5.409102690497093
 20
546.9462516091453
 30
0.0
 11
-5.409102690497094
 21
539.6897270286439
 31
0.0
  0
LINE
  5
383
330
373
100
AcDbEntity
  8
0
 62
     0
370
    -2
100
AcDbLine
 10
-10.81664024361236
 20
539.8697270286438
 30
0.0
 11
-8.742871467054726
 21
539.8697270286438
 31
0.0
  0
LINE
  5
384
330
373
100
AcDbEntity
  8
0
 62
     0
370
    -2
100
AcDbLine
 10
-5.589102690497092
 20
539.8697270286438
 30
0.0
 11
-7.662871467054727
 21
539.8697270286438
 31
0.0
  0
SOLID
  5
385
330
373
100
AcDbEntity
  8
0
 62
     0
100
AcDbTrace
 10
-10.81664024361236
 20
539.8997270286438
 30
0.0
 11
-10.81664024361236
 21
539.8397270286438
 31
0.0
 12
-10.99664024361236
 22
539.8697270286438
 32
0.0
 13
-10.99664024361236
 23
539.8697270286438
 33
0.0
  0
SOLID
  5
386
330
373
100
AcDbEntity
  8
0
 62
     0
100
AcDbTrace
 10
-5.589102690497092
 20
539.8997270286438
 30
0.0
 11
-5.589102690497092
 21
539.8397270286438
 31
0.0
 12
-5.409102690497093
 22
539.8697270286438
 32
0.0
 13
-5.409102690497093
 23
539.8697270286438
 33
0.0
  0
MTEXT
  5
387
330
373
100
AcDbEntity
  8
0
 62
     0
100
AcDbMText
 10
-8.202871467054727
 20
539.8697270286438
 30
0.0
 40
0.18
 41
0.0
 46
0.0
 71
     5
 72
     1
  1
\A1;5.5875
 73
     1
 44
1.0
  0
POINT
  5
388
330
373
100
AcDbEntity
  8
Defpoints
 62
     0
100
AcDbPoint
 10
-10.99664024361236
 20
547.0087516092398
 30
0.0
  0
POINT
  5
389
330
373
100
AcDbEntity
  8
Defpoints
 62
     0
100
AcDbPoint
 10
-5.409102690497093
 20
547.0087516091452
 30
0.0
  0
POINT
  5
38A
330
373
100
AcDbEntity
  8
Defpoints
 62
     0
100
AcDbPoint
 10
-5.409102690497093
 20
539.8697270286438
 30
0.0
  0
ENDBLK
  5
375
330
373
100
AcDbEntity
  8
0
100
AcDbBlockEnd
  0
BLOCK
  5
399
330
398
100
AcDbEntity
  8
0
100
AcDbBlockBegin
  2
*D12
 70
     1
 10
0.0
 20
0.0
 30
0.0
  3
*D12
  1

  0
LINE
  5
3A6
330
398
100
AcDbEntity
  8
0
 62
     0
370
    -2
100
AcDbLine
 10
-178.4537879293257
 20
338.2022367591217
 30
0.0
 11
-178.4537879293257
 21
249.7555542328003
 31
0.0
  0
LINE
  5
3A7
330
398
100
AcDbEntity
  8
0
 62
     0
370
    -2
100
AcDbLine
 10
219.5462120706743
 20
350.6835314084492
 30
0.0
 11
219.5462120706743
 21
249.7555542328003
 31
0.0
  0
LINE
  5
3A8
330
398
100
AcDbEntity
  8
0
 62
     0
370
    -2
100
AcDbLine
 10
-178.2737879293257
 20
249.9355542328003
 30
0.0
 11
19.8862120706743
 21
249.9355542328003
 31
0.0
  0
LINE
  5
3A9
330
398
100
AcDbEntity
  8
0
 62
     0
370
    -2
100
AcDbLine
 10
219.3662120706743
 20
249.9355542328003
 30
0.0
 11
21.2062120706743
 21
249.9355542328003
 31
0.0
  0
SOLID
  5
3AA
330
398
100
AcDbEntity
  8
0
 62
     0
100
AcDbTrace
 10
-178.2737879293257
 20
249.9655542328003
 30
0.0
 11
-178.2737879293257
 21
249.9055542328003
 31
0.0
 12
-178.4537879293257
 22
249.9355542328003
 32
0.0
 13
-178.4537879293257
 23
249.9355542328003
 33
0.0
  0
SOLID
  5
3AB
330
398
100
AcDbEntity
  8
0
 62
     0
100
AcDbTrace
 10
219.3662120706743
 20
249.9655542328003
 30
0.0
 11
219.3662120706743
 21
249.9055542328003
 31
0.0
 12
219.5462120706743
 22
249.9355542328003
 32
0.0
 13
219.5462120706743
 23
249.9355542328003
 33
0.0
  0
MTEXT
  5
3AC
330
398
100
AcDbEntity
  8
0
 62
     0
100
AcDbMText
 10
20.5462120706743
 20
249.9355542328003
 30
0.0
 40
0.18
 41
0.0
 46
0.0
 71
     5
 72
     1
  1
\A1;398.0000
 73
     1
 44
1.0
  0
POINT
  5
3AD
330
398
100
AcDbEntity
  8
Defpoints
 62
     0
100
AcDbPoint
 10
-178.4537879293257
 20
338.2647367591216
 30
0.0
  0
POINT
  5
3AE
330
398
100
AcDbEntity
  8
Defpoints
 62
     0
100
AcDbPoint
 10
219.5462120706743
 20
350.7460314084492
 30
0.0
  0
POINT
  5
3AF
330
398
100
AcDbEntity
  8
Defpoints
 62
     0
100
AcDbPoint
 10
219.5462120706743
 20
249.9355542328003
 30
0.0
  0
ENDBLK
  5
39A
330
398
100
AcDbEntity
  8
0
100
AcDbBlockEnd
  0
BLOCK
  5
3BD
330
3BC
100
AcDbEntity
  8
0
100
AcDbBlockBegin
  2
*D14
 70
     1
 10
0.0
 20
0.0
 30
0.0
  3
*D14
  1

  0
LINE
  5
3CA
330
3BC
100
AcDbEntity
  8
0
 62
     0
370
    -2
100
AcDbLine
 10
880.6519486840207
 20
625.8116893939295
 30
0.0
 11
880.6519486840207
 21
700.1823657590018
 31
0.0
  0
LINE
  5
3CB
330
3BC
100
AcDbEntity
  8
0
 62
     0
370
    -2
100
AcDbLine
 10
1278.651948684021
 20
625.8116893936692
 30
0.0
 11
1278.651948684021
 21
700.1823657590018
 31
0.0
  0
LINE
  5
3CC
330
3BC
100
AcDbEntity
  8
0
 62
     0
370
    -2
100
AcDbLine
 10
880.8319486840206
 20
700.0023657590018
 30
0.0
 11
1078.99194868402
 21
700.0023657590018
 31
0.0
  0
LINE
  5
3CD
330
3BC
100
AcDbEntity
  8
0
 62
     0
370
    -2
100
AcDbLine
 10
1278.471948684021
 20
700.0023657590018
 30
0.0
 11
1080.311948684021
 21
700.0023657590018
 31
0.0
  0
SOLID
  5
3CE
330
3BC
100
AcDbEntity
  8
0
 62
     0
100
AcDbTrace
 10
880.8319486840206
 20
700.0323657590017
 30
0.0
 11
880.8319486840206
 21
699.9723657590018
 31
0.0
 12
880.6519486840207
 22
700.0023657590018
 32
0.0
 13
880.6519486840207
 23
700.0023657590018
 33
0.0
  0
SOLID
  5
3CF
330
3BC
100
AcDbEntity
  8
0
 62
     0
100
AcDbTrace
 10
1278.471948684021
 20
700.0323657590017
 30
0.0
 11
1278.471948684021
 21
699.9723657590018
 31
0.0
 12
1278.651948684021
 22
700.0023657590018
 32
0.0
 13
1278.651948684021
 23
700.0023657590018
 33
0.0
  0
MTEXT
  5
3D0
330
3BC
100
AcDbEntity
  8
0
 62
     0
100
AcDbMText
 10
1079.651948684021
 20
700.0023657590018
 30
0.0
 40
0.18
 41
0.0
 46
0.0
 71
     5
 72
     1
  1
\A1;398.0000
 73
     1
 44
1.0
  0
POINT
  5
3D1
330
3BC
100
AcDbEntity
  8
Defpoints
 62
     0
100
AcDbPoint
 10
880.6519486840207
 20
625.7491893939295
 30
0.0
  0
POINT
  5
3D2
330
3BC
100
AcDbEntity
  8
Defpoints
 62
     0
100
AcDbPoint
 10
1278.651948684021
 20
625.7491893936692
 30
0.0
  0
POINT
  5
3D3
330
3BC
100
AcDbEntity
  8
Defpoints
 62
     0
100
AcDbPoint
 10
1278.651948684021
 20
700.0023657590018
 30
0.0
  0
ENDBLK
  5
3BE
330
3BC
100
AcDbEntity
  8
0
100
AcDbBlockEnd
  0
BLOCK
  5
3D7
330
3D6
100
AcDbEntity
  8
0
100
AcDbBlockBegin
  2
*D15
 70
     1
 10
0.0
 20
0.0
 30
0.0
  3
*D15
  1

  0
LINE
  5
3E4
330
3D6
100
AcDbEntity
  8
0
 62
     0
370
    -2
100
AcDbLine
 10
889.0832640605667
 20
661.1201535075467
 30
0.0
 11
827.7749723837937
 21
661.1201535075467
 31
0.0
  0
LINE
  5
3E5
330
3D6
100
AcDbEntity
  8
0
 62
     0
370
    -2
100
AcDbLine
 10
894.280007046389
 20
312.8702405700258
 30
0.0
 11
827.7749723837937
 21
312.8702405700258
 31
0.0
  0
LINE
  5
3E6
330
3D6
100
AcDbEntity
  8
0
 62
     0
370
    -2
100
AcDbLine
 10
827.9549723837936
 20
660.9401535075468
 30
0.0
 11
827.9549723837936
 21
487.1751970387863
 31
0.0
  0
LINE
  5
3E7
330
3D6
100
AcDbEntity
  8
0
 62
     0
370
    -2
100
AcDbLine
 10
827.9549723837936
 20
313.0502405700258
 30
0.0
 11
827.9549723837936
 21
486.8151970387863
 31
0.0
  0
SOLID
  5
3E8
330
3D6
100
AcDbEntity
  8
0
 62
     0
100
AcDbTrace
 10
827.9249723837935
 20
660.9401535075468
 30
0.0
 11
827.9849723837935
 21
660.9401535075468
 31
0.0
 12
827.9549723837936
 22
661.1201535075467
 32
0.0
 13
827.9549723837936
 23
661.1201535075467
 33
0.0
  0
SOLID
  5
3E9
330
3D6
100
AcDbEntity
  8
0
 62
     0
100
AcDbTrace
 10
827.9249723837935
 20
313.0502405700258
 30
0.0
 11
827.9849723837935
 21
313.0502405700258
 31
0.0
 12
827.9549723837936
 22
312.8702405700258
 32
0.0
 13
827.9549723837936
 23
312.8702405700258
 33
0.0
  0
MTEXT
  5
3EA
330
3D6
100
AcDbEntity
  8
0
 62
     0
100
AcDbMText
 10
827.9549723837934
 20
486.9951970387864
 30
0.0
 40
0.18
 41
0.0
 46
0.0
 71
     5
 72
     1
  1
\A1;348.2499
 73
     1
 44
1.0
  0
POINT
  5
3EB
330
3D6
100
AcDbEntity
  8
Defpoints
 62
     0
100
AcDbPoint
 10
889.1457640605667
 20
661.1201535075467
 30
0.0
  0
POINT
  5
3EC
330
3D6
100
AcDbEntity
  8
Defpoints
 62
     0
100
AcDbPoint
 10
894.342507046389
 20
312.8702405700258
 30
0.0
  0
POINT
  5
3ED
330
3D6
100
AcDbEntity
  8
Defpoints
 62
     0
100
AcDbPoint
 10
827.9549723837936
 20
312.8702405700258
 30
0.0
  0
ENDBLK
  5
3D8
330
3D6
100
AcDbEntity
  8
0
100
AcDbBlockEnd
  0
ENDSEC
  0
SECTION
  2
ENTITIES
  0
SPLINE
  5
70
330
1F
100
AcDbEntity
  8
layer 1
 62
     7
370
   158
100
AcDbSpline
210
0.0
220
0.0
230
1.0
 70
    11
 71
     3
 72
    36
 73
    32
 74
     0
 42
0.0000000001
 43
0.0000000001
 40
0.0
 40
0.0
 40
0.0
 40
0.0
 40
0.1111111111111111
 40
0.1111111111111111
 40
0.1111111111111111
 40
0.1111111111111111
 40
0.2222222222222222
 40
0.2222222222222222
 40
0.2222222222222222
 40
0.2222222222222222
 40
0.3333333333333333
 40
0.3333333333333333
 40
0.3333333333333333
 40
0.3333333333333333
 40
0.4444444444444445
 40
0.4444444444444445
 40
0.4444444444444445
 40
0.4444444444444445
 40
0.5555555555555556
 40
0.5555555555555556
 40
0.5555555555555556
 40
0.5555555555555556
 40
0.6666666666666666
 40
0.6666666666666666
 40
0.6666666666666666
 40
0.6666666666666666
 40
0.7777777777777778
 40
0.7777777777777778
 40
0.7777777777777778
 40
0.7777777777777778
 40
1.0
 40
1.0
 40
1.0
 40
1.0
 10
889.1457640605667
 20
661.1201535075467
 30
0.0
 10
889.1457640605667
 20
661.1201535075467
 30
0.0
 10
1270.158133307474
 20
661.1201535075467
 30
0.0
 10
1270.158133307474
 20
661.1201535075467
 30
0.0
 10
1270.158133307474
 20
661.1201535075467
 30
0.0
 10
1274.829756639568
 20
661.1201535075467
 30
0.0
 10
1278.651948684021
 20
657.2979614630948
 30
0.0
 10
1278.651948684021
 20
652.6263381310005
 30
0.0
 10
1278.651948684021
 20
652.6263381310005
 30
0.0
 10
1278.651948684021
 20
652.6263381310005
 30
0.0
 10
1278.651948684021
 20
321.3640559465721
 30
0.0
 10
1278.651948684021
 20
321.3640559465721
 30
0.0
 10
1278.651948684021
 20
321.3640559465721
 30
0.0
 10
1278.651948684021
 20
316.6924326144779
 30
0.0
 10
1274.829756639568
 20
312.8702405700258
 30
0.0
 10
1270.158133307474
 20
312.8702405700258
 30
0.0
 10
1270.158133307474
 20
312.8702405700258
 30
0.0
 10
1270.158133307474
 20
312.8702405700258
 30
0.0
 10
889.1457640605667
 20
312.8702405700258
 30
0.0
 10
889.1457640605667
 20
312.8702405700258
 30
0.0
 10
889.1457640605667
 20
312.8702405700258
 30
0.0
 10
884.4741407284724
 20
312.8702405700258
 30
0.0
 10
880.6519486840207
 20
316.6924326144779
 30
0.0
 10
880.6519486840207
 20
321.3640559465721
 30
0.0
 10
880.6519486840207
 20
321.3640559465721
 30
0.0
 10
880.6519486840207
 20
321.3640559465721
 30
0.0
 10
880.6519486840207
 20
652.6263381310005
 30
0.0
 10
880.6519486840207
 20
652.6263381310005
 30
0.0
 10
880.6519486840207
 20
652.6263381310005
 30
0.0
 10
880.6519486840207
 20
657.2979614630948
 30
0.0
 10
884.4741407284724
 20
661.1201535075467
 30
0.0
 10
889.1457640605667
 20
661.1201535075467
 30
0.0
  0
SPLINE
  5
19D
330
1F
100
AcDbEntity
  8
layer 1
 62
     7
370
     0
100
AcDbSpline
210
0.0
220
0.0
230
1.0
 70
    24
 71
     3
 72
     8
 73
     4
 74
     0
 42
0.0000000001
 43
0.0000000001
 40
0.0
 40
0.0
 40
0.0
 40
0.0
 40
1.0
 40
1.0
 40
1.0
 40
1.0
 10
1166.70014867197
 20
574.8820265837812
 30
0.0
 10
1166.70014867197
 20
574.8820265837812
 30
0.0
 10
1166.934769613314
 20
575.1167470251012
 30
0.0
 10
1166.934769613314
 20
575.1167470251012
 30
0.0
  0
SPLINE
  5
19E
330
1F
100
AcDbEntity
  8
layer 1
 62
     7
370
     0
100
AcDbSpline
210
0.0
220
0.0
230
1.0
 70
    24
 71
     3
 72
     8
 73
     4
 74
     0
 42
0.0000000001
 43
0.0000000001
 40
0.0
 40
0.0
 40
0.0
 40
0.0
 40
1.0
 40
1.0
 40
1.0
 40
1.0
 10
1167.169291054685
 20
574.1783627596971
 30
0.0
 10
1167.169291054685
 20
574.1783627596971
 30
0.0
 10
1168.107575820113
 20
575.1167470251012
 30
0.0
 10
1168.107575820113
 20
575.1167470251012
 30
0.0
  0
SPLINE
  5
19F
330
1F
100
AcDbEntity
  8
layer 1
 62
     7
370
     0
100
AcDbSpline
210
0.0
220
0.0
230
1.0
 70
    24
 71
     3
 72
     8
 73
     4
 74
     0
 42
0.0000000001
 43
0.0000000001
 40
0.0
 40
0.0
 40
0.0
 40
0.0
 40
1.0
 40
1.0
 40
1.0
 40
1.0
 10
1167.521222466701
 20
573.3574879649161
 30
0.0
 10
1167.521222466701
 20
573.3574879649161
 30
0.0
 10
1169.280481526887
 20
575.1167470251012
 30
0.0
 10
1169.280481526887
 20
575.1167470251012
 30
0.0
  0
SPLINE
  5
1A0
330
1F
100
AcDbEntity
  8
layer 1
 62
     7
370
     0
100
AcDbSpline
210
0.0
220
0.0
230
1.0
 70
    24
 71
     3
 72
     8
 73
     4
 74
     0
 42
0.0000000001
 43
0.0000000001
 40
0.0
 40
0.0
 40
0.0
 40
0.0
 40
1.0
 40
1.0
 40
1.0
 40
1.0
 10
1167.521222466701
 20
572.3018927288149
 30
0.0
 10
1167.521222466701
 20
572.3018927288149
 30
0.0
 10
1170.453287733686
 20
575.1167470251012
 30
0.0
 10
1170.453287733686
 20
575.1167470251012
 30
0.0
  0
SPLINE
  5
1A1
330
1F
100
AcDbEntity
  8
layer 1
 62
     7
370
     0
100
AcDbSpline
210
0.0
220
0.0
230
1.0
 70
    24
 71
     3
 72
     8
 73
     4
 74
     0
 42
0.0000000001
 43
0.0000000001
 40
0.0
 40
0.0
 40
0.0
 40
0.0
 40
1.0
 40
1.0
 40
1.0
 40
1.0
 10
1167.521222466701
 20
571.0116765513687
 30
0.0
 10
1167.521222466701
 20
571.0116765513687
 30
0.0
 10
1171.626093940484
 20
575.1167470251012
 30
0.0
 10
1171.626093940484
 20
575.1167470251012
 30
0.0
  0
SPLINE
  5
1A2
330
1F
100
AcDbEntity
  8
layer 1
 62
     7
370
     0
100
AcDbSpline
210
0.0
220
0.0
230
1.0
 70
    24
 71
     3
 72
     8
 73
     4
 74
     0
 42
0.0000000001
 43
0.0000000001
 40
0.0
 40
0.0
 40
0.0
 40
0.0
 40
1.0
 40
1.0
 40
1.0
 40
1.0
 10
1167.521222466701
 20
569.8389698445457
 30
0.0
 10
1167.521222466701
 20
569.8389698445457
 30
0.0
 10
1172.798900147282
 20
575.1167470251012
 30
0.0
 10
1172.798900147282
 20
575.1167470251012
 30
0.0
  0
SPLINE
  5
1A3
330
1F
100
AcDbEntity
  8
layer 1
 62
     7
370
     0
100
AcDbSpline
210
0.0
220
0.0
230
1.0
 70
    24
 71
     3
 72
     8
 73
     4
 74
     0
 42
0.0000000001
 43
0.0000000001
 40
0.0
 40
0.0
 40
0.0
 40
0.0
 40
1.0
 40
1.0
 40
1.0
 40
1.0
 10
1167.638532937374
 20
568.9005855791413
 30
0.0
 10
1167.638532937374
 20
568.9005855791413
 30
0.0
 10
1173.971805854056
 20
575.1167470251012
 30
0.0
 10
1173.971805854056
 20
575.1167470251012
 30
0.0
  0
SPLINE
  5
1A4
330
1F
100
AcDbEntity
  8
layer 1
 62
     7
370
     0
100
AcDbSpline
210
0.0
220
0.0
230
1.0
 70
    24
 71
     3
 72
     8
 73
     4
 74
     0
 42
0.0000000001
 43
0.0000000001
 40
0.0
 40
0.0
 40
0.0
 40
0.0
 40
1.0
 40
1.0
 40
1.0
 40
1.0
 10
1167.990364849416
 20
567.9624003136876
 30
0.0
 10
1167.990364849416
 20
567.9624003136876
 30
0.0
 10
1175.144612060854
 20
575.1167470251012
 30
0.0
 10
1175.144612060854
 20
575.1167470251012
 30
0.0
  0
SPLINE
  5
1A5
330
1F
100
AcDbEntity
  8
layer 1
 62
     7
370
     0
100
AcDbSpline
210
0.0
220
0.0
230
1.0
 70
    24
 71
     3
 72
     8
 73
     4
 74
     0
 42
0.0000000001
 43
0.0000000001
 40
0.0
 40
0.0
 40
0.0
 40
0.0
 40
1.0
 40
1.0
 40
1.0
 40
1.0
 10
1168.342196761458
 20
567.2586369896286
 30
0.0
 10
1168.342196761458
 20
567.2586369896286
 30
0.0
 10
1176.317418267653
 20
575.1167470251012
 30
0.0
 10
1176.317418267653
 20
575.1167470251012
 30
0.0
  0
SPLINE
  5
1A6
330
1F
100
AcDbEntity
  8
layer 1
 62
     7
370
     0
100
AcDbSpline
210
0.0
220
0.0
230
1.0
 70
    24
 71
     3
 72
     8
 73
     4
 74
     0
 42
0.0000000001
 43
0.0000000001
 40
0.0
 40
0.0
 40
0.0
 40
0.0
 40
1.0
 40
1.0
 40
1.0
 40
1.0
 10
1168.811239644197
 20
566.5549731655444
 30
0.0
 10
1168.811239644197
 20
566.5549731655444
 30
0.0
 10
1177.490224474451
 20
575.1167470251012
 30
0.0
 10
1177.490224474451
 20
575.1167470251012
 30
0.0
  0
SPLINE
  5
1A7
330
1F
100
AcDbEntity
  8
layer 1
 62
     7
370
     0
100
AcDbSpline
210
0.0
220
0.0
230
1.0
 70
    24
 71
     3
 72
     8
 73
     4
 74
     0
 42
0.0000000001
 43
0.0000000001
 40
0.0
 40
0.0
 40
0.0
 40
0.0
 40
1.0
 40
1.0
 40
1.0
 40
1.0
 10
1169.98414535097
 20
566.5549731655444
 30
0.0
 10
1169.98414535097
 20
566.5549731655444
 30
0.0
 10
1178.545919210527
 20
575.1167470251012
 30
0.0
 10
1178.545919210527
 20
575.1167470251012
 30
0.0
  0
SPLINE
  5
1A8
330
1F
100
AcDbEntity
  8
layer 1
 62
     7
370
     0
100
AcDbSpline
210
0.0
220
0.0
230
1.0
 70
    24
 71
     3
 72
     8
 73
     4
 74
     0
 42
0.0000000001
 43
0.0000000001
 40
0.0
 40
0.0
 40
0.0
 40
0.0
 40
1.0
 40
1.0
 40
1.0
 40
1.0
 10
1171.157051057744
 20
566.5549731655444
 30
0.0
 10
1171.157051057744
 20
566.5549731655444
 30
0.0
 10
1179.718625917351
 20
575.1167470251012
 30
0.0
 10
1179.718625917351
 20
575.1167470251012
 30
0.0
  0
SPLINE
  5
1A9
330
1F
100
AcDbEntity
  8
layer 1
 62
     7
370
     0
100
AcDbSpline
210
0.0
220
0.0
230
1.0
 70
    24
 71
     3
 72
     8
 73
     4
 74
     0
 42
0.0000000001
 43
0.0000000001
 40
0.0
 40
0.0
 40
0.0
 40
0.0
 40
1.0
 40
1.0
 40
1.0
 40
1.0
 10
1172.329757764568
 20
566.5549731655444
 30
0.0
 10
1172.329757764568
 20
566.5549731655444
 30
0.0
 10
1180.891531624124
 20
575.1167470251012
 30
0.0
 10
1180.891531624124
 20
575.1167470251012
 30
0.0
  0
SPLINE
  5
1AA
330
1F
100
AcDbEntity
  8
layer 1
 62
     7
370
     0
100
AcDbSpline
210
0.0
220
0.0
230
1.0
 70
    24
 71
     3
 72
     8
 73
     4
 74
     0
 42
0.0000000001
 43
0.0000000001
 40
0.0
 40
0.0
 40
0.0
 40
0.0
 40
1.0
 40
1.0
 40
1.0
 40
1.0
 10
1173.502663471341
 20
566.5549731655444
 30
0.0
 10
1173.502663471341
 20
566.5549731655444
 30
0.0
 10
1182.064437330897
 20
575.1167470251012
 30
0.0
 10
1182.064437330897
 20
575.1167470251012
 30
0.0
  0
SPLINE
  5
1AB
330
1F
100
AcDbEntity
  8
layer 1
 62
     7
370
     0
100
AcDbSpline
210
0.0
220
0.0
230
1.0
 70
    24
 71
     3
 72
     8
 73
     4
 74
     0
 42
0.0000000001
 43
0.0000000001
 40
0.0
 40
0.0
 40
0.0
 40
0.0
 40
1.0
 40
1.0
 40
1.0
 40
1.0
 10
1174.675370178164
 20
566.5549731655444
 30
0.0
 10
1174.675370178164
 20
566.5549731655444
 30
0.0
 10
1183.237144037721
 20
575.1167470251012
 30
0.0
 10
1183.237144037721
 20
575.1167470251012
 30
0.0
  0
SPLINE
  5
1AC
330
1F
100
AcDbEntity
  8
layer 1
 62
     7
370
     0
100
AcDbSpline
210
0.0
220
0.0
230
1.0
 70
    24
 71
     3
 72
     8
 73
     4
 74
     0
 42
0.0000000001
 43
0.0000000001
 40
0.0
 40
0.0
 40
0.0
 40
0.0
 40
1.0
 40
1.0
 40
1.0
 40
1.0
 10
1175.731064914242
 20
566.5549731655444
 30
0.0
 10
1175.731064914242
 20
566.5549731655444
 30
0.0
 10
1184.410049744494
 20
575.1167470251012
 30
0.0
 10
1184.410049744494
 20
575.1167470251012
 30
0.0
  0
SPLINE
  5
1AD
330
1F
100
AcDbEntity
  8
layer 1
 62
     7
370
     0
100
AcDbSpline
210
0.0
220
0.0
230
1.0
 70
    24
 71
     3
 72
     8
 73
     4
 74
     0
 42
0.0000000001
 43
0.0000000001
 40
0.0
 40
0.0
 40
0.0
 40
0.0
 40
1.0
 40
1.0
 40
1.0
 40
1.0
 10
1176.90387112104
 20
566.5549731655444
 30
0.0
 10
1176.90387112104
 20
566.5549731655444
 30
0.0
 10
1185.582855951293
 20
575.1167470251012
 30
0.0
 10
1185.582855951293
 20
575.1167470251012
 30
0.0
  0
SPLINE
  5
1AE
330
1F
100
AcDbEntity
  8
layer 1
 62
     7
370
     0
100
AcDbSpline
210
0.0
220
0.0
230
1.0
 70
    24
 71
     3
 72
     8
 73
     4
 74
     0
 42
0.0000000001
 43
0.0000000001
 40
0.0
 40
0.0
 40
0.0
 40
0.0
 40
1.0
 40
1.0
 40
1.0
 40
1.0
 10
1178.076677327837
 20
566.5549731655444
 30
0.0
 10
1178.076677327837
 20
566.5549731655444
 30
0.0
 10
1186.755662158092
 20
575.1167470251012
 30
0.0
 10
1186.755662158092
 20
575.1167470251012
 30
0.0
  0
SPLINE
  5
1AF
330
1F
100
AcDbEntity
  8
layer 1
 62
     7
370
     0
100
AcDbSpline
210
0.0
220
0.0
230
1.0
 70
    24
 71
     3
 72
     8
 73
     4
 74
     0
 42
0.0000000001
 43
0.0000000001
 40
0.0
 40
0.0
 40
0.0
 40
0.0
 40
1.0
 40
1.0
 40
1.0
 40
1.0
 10
1179.249583034611
 20
566.5549731655444
 30
0.0
 10
1179.249583034611
 20
566.5549731655444
 30
0.0
 10
1187.928567864865
 20
575.1167470251012
 30
0.0
 10
1187.928567864865
 20
575.1167470251012
 30
0.0
  0
SPLINE
  5
1B0
330
1F
100
AcDbEntity
  8
layer 1
 62
     7
370
     0
100
AcDbSpline
210
0.0
220
0.0
230
1.0
 70
    24
 71
     3
 72
     8
 73
     4
 74
     0
 42
0.0000000001
 43
0.0000000001
 40
0.0
 40
0.0
 40
0.0
 40
0.0
 40
1.0
 40
1.0
 40
1.0
 40
1.0
 10
1180.422289741434
 20
566.5549731655444
 30
0.0
 10
1180.422289741434
 20
566.5549731655444
 30
0.0
 10
1189.101374071665
 20
575.1167470251012
 30
0.0
 10
1189.101374071665
 20
575.1167470251012
 30
0.0
  0
SPLINE
  5
1B1
330
1F
100
AcDbEntity
  8
layer 1
 62
     7
370
     0
100
AcDbSpline
210
0.0
220
0.0
230
1.0
 70
    24
 71
     3
 72
     8
 73
     4
 74
     0
 42
0.0000000001
 43
0.0000000001
 40
0.0
 40
0.0
 40
0.0
 40
0.0
 40
1.0
 40
1.0
 40
1.0
 40
1.0
 10
1181.595195448209
 20
566.5549731655444
 30
0.0
 10
1181.595195448209
 20
566.5549731655444
 30
0.0
 10
1190.274180278462
 20
575.1167470251012
 30
0.0
 10
1190.274180278462
 20
575.1167470251012
 30
0.0
  0
SPLINE
  5
1B2
330
1F
100
AcDbEntity
  8
layer 1
 62
     7
370
     0
100
AcDbSpline
210
0.0
220
0.0
230
1.0
 70
    24
 71
     3
 72
     8
 73
     4
 74
     0
 42
0.0000000001
 43
0.0000000001
 40
0.0
 40
0.0
 40
0.0
 40
0.0
 40
1.0
 40
1.0
 40
1.0
 40
1.0
 10
1182.768101154982
 20
566.5549731655444
 30
0.0
 10
1182.768101154982
 20
566.5549731655444
 30
0.0
 10
1191.447085985235
 20
575.1167470251012
 30
0.0
 10
1191.447085985235
 20
575.1167470251012
 30
0.0
  0
SPLINE
  5
1B3
330
1F
100
AcDbEntity
  8
layer 1
 62
     7
370
     0
100
AcDbSpline
210
0.0
220
0.0
230
1.0
 70
    24
 71
     3
 72
     8
 73
     4
 74
     0
 42
0.0000000001
 43
0.0000000001
 40
0.0
 40
0.0
 40
0.0
 40
0.0
 40
1.0
 40
1.0
 40
1.0
 40
1.0
 10
1183.940807861805
 20
566.5549731655444
 30
0.0
 10
1183.940807861805
 20
566.5549731655444
 30
0.0
 10
1187.224804540806
 20
569.8389698445457
 30
0.0
 10
1187.224804540806
 20
569.8389698445457
 30
0.0
  0
SPLINE
  5
1B4
330
1F
100
AcDbEntity
  8
layer 1
 62
     7
370
     0
100
AcDbSpline
210
0.0
220
0.0
230
1.0
 70
    24
 71
     3
 72
     8
 73
     4
 74
     0
 42
0.0000000001
 43
0.0000000001
 40
0.0
 40
0.0
 40
0.0
 40
0.0
 40
1.0
 40
1.0
 40
1.0
 40
1.0
 10
1187.459325982175
 20
570.0734912859149
 30
0.0
 10
1187.459325982175
 20
570.0734912859149
 30
0.0
 10
1192.619892192033
 20
575.1167470251012
 30
0.0
 10
1192.619892192033
 20
575.1167470251012
 30
0.0
  0
SPLINE
  5
1B5
330
1F
100
AcDbEntity
  8
layer 1
 62
     7
370
     0
100
AcDbSpline
210
0.0
220
0.0
230
1.0
 70
    24
 71
     3
 72
     8
 73
     4
 74
     0
 42
0.0000000001
 43
0.0000000001
 40
0.0
 40
0.0
 40
0.0
 40
0.0
 40
1.0
 40
1.0
 40
1.0
 40
1.0
 10
1185.113713568578
 20
566.5549731655444
 30
0.0
 10
1185.113713568578
 20
566.5549731655444
 30
0.0
 10
1187.224804540806
 20
568.666064137772
 30
0.0
 10
1187.224804540806
 20
568.666064137772
 30
0.0
  0
SPLINE
  5
1B6
330
1F
100
AcDbEntity
  8
layer 1
 62
     7
370
     0
100
AcDbSpline
210
0.0
220
0.0
230
1.0
 70
    24
 71
     3
 72
     8
 73
     4
 74
     0
 42
0.0000000001
 43
0.0000000001
 40
0.0
 40
0.0
 40
0.0
 40
0.0
 40
1.0
 40
1.0
 40
1.0
 40
1.0
 10
1188.632231688949
 20
570.0734912859149
 30
0.0
 10
1188.632231688949
 20
570.0734912859149
 30
0.0
 10
1193.792698398833
 20
575.1167470251012
 30
0.0
 10
1193.792698398833
 20
575.1167470251012
 30
0.0
  0
SPLINE
  5
1B7
330
1F
100
AcDbEntity
  8
layer 1
 62
     7
370
     0
100
AcDbSpline
210
0.0
220
0.0
230
1.0
 70
    24
 71
     3
 72
     8
 73
     4
 74
     0
 42
0.0000000001
 43
0.0000000001
 40
0.0
 40
0.0
 40
0.0
 40
0.0
 40
1.0
 40
1.0
 40
1.0
 40
1.0
 10
1186.286420275401
 20
566.5549731655444
 30
0.0
 10
1186.286420275401
 20
566.5549731655444
 30
0.0
 10
1187.224804540806
 20
567.4931584309984
 30
0.0
 10
1187.224804540806
 20
567.4931584309984
 30
0.0
  0
SPLINE
  5
1B8
330
1F
100
AcDbEntity
  8
layer 1
 62
     7
370
     0
100
AcDbSpline
210
0.0
220
0.0
230
1.0
 70
    24
 71
     3
 72
     8
 73
     4
 74
     0
 42
0.0000000001
 43
0.0000000001
 40
0.0
 40
0.0
 40
0.0
 40
0.0
 40
1.0
 40
1.0
 40
1.0
 40
1.0
 10
1189.805137395723
 20
570.0734912859149
 30
0.0
 10
1189.805137395723
 20
570.0734912859149
 30
0.0
 10
1194.848194134958
 20
575.1167470251012
 30
0.0
 10
1194.848194134958
 20
575.1167470251012
 30
0.0
  0
SPLINE
  5
1B9
330
1F
100
AcDbEntity
  8
layer 1
 62
     7
370
     0
100
AcDbSpline
210
0.0
220
0.0
230
1.0
 70
    24
 71
     3
 72
     8
 73
     4
 74
     0
 42
0.0000000001
 43
0.0000000001
 40
0.0
 40
0.0
 40
0.0
 40
0.0
 40
1.0
 40
1.0
 40
1.0
 40
1.0
 10
1190.156969307766
 20
569.1353060204612
 30
0.0
 10
1190.156969307766
 20
569.1353060204612
 30
0.0
 10
1196.021099841733
 20
575.1167470251012
 30
0.0
 10
1196.021099841733
 20
575.1167470251012
 30
0.0
  0
SPLINE
  5
1BA
330
1F
100
AcDbEntity
  8
layer 1
 62
     7
370
     0
100
AcDbSpline
210
0.0
220
0.0
230
1.0
 70
    24
 71
     3
 72
     8
 73
     4
 74
     0
 42
0.0000000001
 43
0.0000000001
 40
0.0
 40
0.0
 40
0.0
 40
0.0
 40
1.0
 40
1.0
 40
1.0
 40
1.0
 10
1190.156969307766
 20
567.9624003136876
 30
0.0
 10
1190.156969307766
 20
567.9624003136876
 30
0.0
 10
1197.194005548505
 20
575.1167470251012
 30
0.0
 10
1197.194005548505
 20
575.1167470251012
 30
0.0
  0
SPLINE
  5
1BB
330
1F
100
AcDbEntity
  8
layer 1
 62
     7
370
     0
100
AcDbSpline
210
0.0
220
0.0
230
1.0
 70
    24
 71
     3
 72
     8
 73
     4
 74
     0
 42
0.0000000001
 43
0.0000000001
 40
0.0
 40
0.0
 40
0.0
 40
0.0
 40
1.0
 40
1.0
 40
1.0
 40
1.0
 10
1190.156969307766
 20
566.7894946069146
 30
0.0
 10
1190.156969307766
 20
566.7894946069146
 30
0.0
 10
1198.366712255329
 20
575.1167470251012
 30
0.0
 10
1198.366712255329
 20
575.1167470251012
 30
0.0
  0
SPLINE
  5
1BC
330
1F
100
AcDbEntity
  8
layer 1
 62
     7
370
     0
100
AcDbSpline
210
0.0
220
0.0
230
1.0
 70
    24
 71
     3
 72
     8
 73
     4
 74
     0
 42
0.0000000001
 43
0.0000000001
 40
0.0
 40
0.0
 40
0.0
 40
0.0
 40
1.0
 40
1.0
 40
1.0
 40
1.0
 10
1190.977844102547
 20
566.5549731655444
 30
0.0
 10
1190.977844102547
 20
566.5549731655444
 30
0.0
 10
1199.539617962103
 20
575.1167470251012
 30
0.0
 10
1199.539617962103
 20
575.1167470251012
 30
0.0
  0
SPLINE
  5
1BD
330
1F
100
AcDbEntity
  8
layer 1
 62
     7
370
     0
100
AcDbSpline
210
0.0
220
0.0
230
1.0
 70
    24
 71
     3
 72
     8
 73
     4
 74
     0
 42
0.0000000001
 43
0.0000000001
 40
0.0
 40
0.0
 40
0.0
 40
0.0
 40
1.0
 40
1.0
 40
1.0
 40
1.0
 10
1192.033439338648
 20
566.5549731655444
 30
0.0
 10
1192.033439338648
 20
566.5549731655444
 30
0.0
 10
1200.712523668876
 20
575.1167470251012
 30
0.0
 10
1200.712523668876
 20
575.1167470251012
 30
0.0
  0
SPLINE
  5
1BE
330
1F
100
AcDbEntity
  8
layer 1
 62
     7
370
     0
100
AcDbSpline
210
0.0
220
0.0
230
1.0
 70
    24
 71
     3
 72
     8
 73
     4
 74
     0
 42
0.0000000001
 43
0.0000000001
 40
0.0
 40
0.0
 40
0.0
 40
0.0
 40
1.0
 40
1.0
 40
1.0
 40
1.0
 10
1193.206245545445
 20
566.5549731655444
 30
0.0
 10
1193.206245545445
 20
566.5549731655444
 30
0.0
 10
1201.885230375699
 20
575.1167470251012
 30
0.0
 10
1201.885230375699
 20
575.1167470251012
 30
0.0
  0
SPLINE
  5
1BF
330
1F
100
AcDbEntity
  8
layer 1
 62
     7
370
     0
100
AcDbSpline
210
0.0
220
0.0
230
1.0
 70
    24
 71
     3
 72
     8
 73
     4
 74
     0
 42
0.0000000001
 43
0.0000000001
 40
0.0
 40
0.0
 40
0.0
 40
0.0
 40
1.0
 40
1.0
 40
1.0
 40
1.0
 10
1194.379151252219
 20
566.5549731655444
 30
0.0
 10
1194.379151252219
 20
566.5549731655444
 30
0.0
 10
1203.058136082473
 20
575.1167470251012
 30
0.0
 10
1203.058136082473
 20
575.1167470251012
 30
0.0
  0
SPLINE
  5
1C0
330
1F
100
AcDbEntity
  8
layer 1
 62
     7
370
     0
100
AcDbSpline
210
0.0
220
0.0
230
1.0
 70
    24
 71
     3
 72
     8
 73
     4
 74
     0
 42
0.0000000001
 43
0.0000000001
 40
0.0
 40
0.0
 40
0.0
 40
0.0
 40
1.0
 40
1.0
 40
1.0
 40
1.0
 10
1195.551957459018
 20
566.5549731655444
 30
0.0
 10
1195.551957459018
 20
566.5549731655444
 30
0.0
 10
1204.231041789247
 20
575.1167470251012
 30
0.0
 10
1204.231041789247
 20
575.1167470251012
 30
0.0
  0
SPLINE
  5
1C1
330
1F
100
AcDbEntity
  8
layer 1
 62
     7
370
     0
100
AcDbSpline
210
0.0
220
0.0
230
1.0
 70
    24
 71
     3
 72
     8
 73
     4
 74
     0
 42
0.0000000001
 43
0.0000000001
 40
0.0
 40
0.0
 40
0.0
 40
0.0
 40
1.0
 40
1.0
 40
1.0
 40
1.0
 10
1196.724763665815
 20
566.5549731655444
 30
0.0
 10
1196.724763665815
 20
566.5549731655444
 30
0.0
 10
1204.934705613331
 20
574.764915113059
 30
0.0
 10
1204.934705613331
 20
574.764915113059
 30
0.0
  0
SPLINE
  5
1C2
330
1F
100
AcDbEntity
  8
layer 1
 62
     7
370
     0
100
AcDbSpline
210
0.0
220
0.0
230
1.0
 70
    24
 71
     3
 72
     8
 73
     4
 74
     0
 42
0.0000000001
 43
0.0000000001
 40
0.0
 40
0.0
 40
0.0
 40
0.0
 40
1.0
 40
1.0
 40
1.0
 40
1.0
 10
1197.89766937259
 20
566.5549731655444
 30
0.0
 10
1197.89766937259
 20
566.5549731655444
 30
0.0
 10
1205.403748496071
 20
573.9438413183274
 30
0.0
 10
1205.403748496071
 20
573.9438413183274
 30
0.0
  0
SPLINE
  5
1C3
330
1F
100
AcDbEntity
  8
layer 1
 62
     7
370
     0
100
AcDbSpline
210
0.0
220
0.0
230
1.0
 70
    24
 71
     3
 72
     8
 73
     4
 74
     0
 42
0.0000000001
 43
0.0000000001
 40
0.0
 40
0.0
 40
0.0
 40
0.0
 40
1.0
 40
1.0
 40
1.0
 40
1.0
 10
1199.070376079413
 20
566.5549731655444
 30
0.0
 10
1199.070376079413
 20
566.5549731655444
 30
0.0
 10
1205.403748496071
 20
572.7709356115544
 30
0.0
 10
1205.403748496071
 20
572.7709356115544
 30
0.0
  0
SPLINE
  5
1C4
330
1F
100
AcDbEntity
  8
layer 1
 62
     7
370
     0
100
AcDbSpline
210
0.0
220
0.0
230
1.0
 70
    24
 71
     3
 72
     8
 73
     4
 74
     0
 42
0.0000000001
 43
0.0000000001
 40
0.0
 40
0.0
 40
0.0
 40
0.0
 40
1.0
 40
1.0
 40
1.0
 40
1.0
 10
1200.243281786187
 20
566.5549731655444
 30
0.0
 10
1200.243281786187
 20
566.5549731655444
 30
0.0
 10
1205.403748496071
 20
571.5982289047303
 30
0.0
 10
1205.403748496071
 20
571.5982289047303
 30
0.0
  0
SPLINE
  5
1C5
330
1F
100
AcDbEntity
  8
layer 1
 62
     7
370
     0
100
AcDbSpline
210
0.0
220
0.0
230
1.0
 70
    24
 71
     3
 72
     8
 73
     4
 74
     0
 42
0.0000000001
 43
0.0000000001
 40
0.0
 40
0.0
 40
0.0
 40
0.0
 40
1.0
 40
1.0
 40
1.0
 40
1.0
 10
1201.41618749296
 20
566.5549731655444
 30
0.0
 10
1201.41618749296
 20
566.5549731655444
 30
0.0
 10
1205.403748496071
 20
570.4253231979573
 30
0.0
 10
1205.403748496071
 20
570.4253231979573
 30
0.0
  0
SPLINE
  5
1C6
330
1F
100
AcDbEntity
  8
layer 1
 62
     7
370
     0
100
AcDbSpline
210
0.0
220
0.0
230
1.0
 70
    24
 71
     3
 72
     8
 73
     4
 74
     0
 42
0.0000000001
 43
0.0000000001
 40
0.0
 40
0.0
 40
0.0
 40
0.0
 40
1.0
 40
1.0
 40
1.0
 40
1.0
 10
1202.588894199784
 20
566.5549731655444
 30
0.0
 10
1202.588894199784
 20
566.5549731655444
 30
0.0
 10
1205.403748496071
 20
569.2524174911836
 30
0.0
 10
1205.403748496071
 20
569.2524174911836
 30
0.0
  0
SPLINE
  5
1C7
330
1F
100
AcDbEntity
  8
layer 1
 62
     7
370
     0
100
AcDbSpline
210
0.0
220
0.0
230
1.0
 70
    24
 71
     3
 72
     8
 73
     4
 74
     0
 42
0.0000000001
 43
0.0000000001
 40
0.0
 40
0.0
 40
0.0
 40
0.0
 40
1.0
 40
1.0
 40
1.0
 40
1.0
 10
1203.761799906557
 20
566.5549731655444
 30
0.0
 10
1203.761799906557
 20
566.5549731655444
 30
0.0
 10
1205.403748496071
 20
568.0797107843602
 30
0.0
 10
1205.403748496071
 20
568.0797107843602
 30
0.0
  0
SPLINE
  5
1C8
330
1F
100
AcDbEntity
  8
layer 1
 62
     7
370
     0
100
AcDbSpline
210
0.0
220
0.0
230
1.0
 70
    24
 71
     3
 72
     8
 73
     4
 74
     0
 42
0.0000000001
 43
0.0000000001
 40
0.0
 40
0.0
 40
0.0
 40
0.0
 40
1.0
 40
1.0
 40
1.0
 40
1.0
 10
1204.934705613331
 20
566.5549731655444
 30
0.0
 10
1204.934705613331
 20
566.5549731655444
 30
0.0
 10
1205.403748496071
 20
566.9068050775865
 30
0.0
 10
1205.403748496071
 20
566.9068050775865
 30
0.0
  0
SPLINE
  5
1C9
330
1F
100
AcDbEntity
  8
layer 1
 62
     7
370
     0
100
AcDbSpline
210
0.0
220
0.0
230
1.0
 70
     8
 71
     3
 72
    36
 73
    32
 74
     0
 42
0.0000000001
 43
0.0000000001
 40
0.0
 40
0.0
 40
0.0
 40
0.0
 40
0.1111111111111111
 40
0.1111111111111111
 40
0.1111111111111111
 40
0.1111111111111111
 40
0.2222222222222222
 40
0.2222222222222222
 40
0.2222222222222222
 40
0.2222222222222222
 40
0.3333333333333333
 40
0.3333333333333333
 40
0.3333333333333333
 40
0.3333333333333333
 40
0.4444444444444445
 40
0.4444444444444445
 40
0.4444444444444445
 40
0.4444444444444445
 40
0.5555555555555556
 40
0.5555555555555556
 40
0.5555555555555556
 40
0.5555555555555556
 40
0.6666666666666666
 40
0.6666666666666666
 40
0.6666666666666666
 40
0.6666666666666666
 40
0.7777777777777778
 40
0.7777777777777778
 40
0.7777777777777778
 40
0.7777777777777778
 40
1.0
 40
1.0
 40
1.0
 40
1.0
 10
1187.928567864865
 20
566.6722836362173
 30
0.0
 10
1187.928567864865
 20
566.6722836362173
 30
0.0
 10
1188.163089306235
 20
566.4376626948722
 30
0.0
 10
1188.163089306235
 20
566.4376626948722
 30
0.0
 10
1188.163089306235
 20
566.4376626948722
 30
0.0
 10
1188.163089306235
 20
566.4376626948722
 30
0.0
 10
1187.928567864865
 20
566.2031412535029
 30
0.0
 10
1187.928567864865
 20
566.2031412535029
 30
0.0
 10
1187.928567864865
 20
566.2031412535029
 30
0.0
 10
1187.928567864865
 20
566.2031412535029
 30
0.0
 10
1188.163089306235
 20
565.9686198121328
 30
0.0
 10
1188.163089306235
 20
565.9686198121328
 30
0.0
 10
1188.163089306235
 20
565.9686198121328
 30
0.0
 10
1188.163089306235
 20
565.9686198121328
 30
0.0
 10
1187.928567864865
 20
565.6167879000911
 30
0.0
 10
1187.928567864865
 20
565.6167879000911
 30
0.0
 10
1187.928567864865
 20
565.6167879000911
 30
0.0
 10
1187.928567864865
 20
565.6167879000911
 30
0.0
 10
1188.163089306235
 20
565.3820674587707
 30
0.0
 10
1188.163089306235
 20
565.3820674587707
 30
0.0
 10
1188.163089306235
 20
565.3820674587707
 30
0.0
 10
1188.163089306235
 20
565.3820674587707
 30
0.0
 10
1187.928567864865
 20
565.1475460174013
 30
0.0
 10
1187.928567864865
 20
565.1475460174013
 30
0.0
 10
1187.928567864865
 20
565.1475460174013
 30
0.0
 10
1187.928567864865
 20
565.1475460174013
 30
0.0
 10
1188.163089306235
 20
564.9130245760316
 30
0.0
 10
1188.163089306235
 20
564.9130245760316
 30
0.0
 10
1188.163089306235
 20
564.9130245760316
 30
0.0
 10
1188.163089306235
 20
564.9130245760316
 30
0.0
 10
1187.928567864865
 20
564.7957141053596
 30
0.0
 10
1187.928567864865
 20
564.7957141053596
 30
0.0
  0
SPLINE
  5
1CA
330
1F
100
AcDbEntity
  8
layer 1
 62
     7
370
     0
100
AcDbSpline
210
0.0
220
0.0
230
1.0
 70
     8
 71
     3
 72
    28
 73
    24
 74
     0
 42
0.0000000001
 43
0.0000000001
 40
0.0
 40
0.0
 40
0.0
 40
0.0
 40
0.1428571428571428
 40
0.1428571428571428
 40
0.1428571428571428
 40
0.1428571428571428
 40
0.2857142857142857
 40
0.2857142857142857
 40
0.2857142857142857
 40
0.2857142857142857
 40
0.4285714285714285
 40
0.4285714285714285
 40
0.4285714285714285
 40
0.4285714285714285
 40
0.5714285714285714
 40
0.5714285714285714
 40
0.5714285714285714
 40
0.5714285714285714
 40
0.7142857142857144
 40
0.7142857142857144
 40
0.7142857142857144
 40
0.7142857142857144
 40
1.0
 40
1.0
 40
1.0
 40
1.0
 10
1189.453305483681
 20
564.7957141053596
 30
0.0
 10
1189.453305483681
 20
564.7957141053596
 30
0.0
 10
1189.218585042361
 20
564.9130245760316
 30
0.0
 10
1189.218585042361
 20
564.9130245760316
 30
0.0
 10
1189.218585042361
 20
564.9130245760316
 30
0.0
 10
1189.218585042361
 20
564.9130245760316
 30
0.0
 10
1189.453305483681
 20
565.1475460174013
 30
0.0
 10
1189.453305483681
 20
565.1475460174013
 30
0.0
 10
1189.453305483681
 20
565.1475460174013
 30
0.0
 10
1189.453305483681
 20
565.1475460174013
 30
0.0
 10
1189.218585042361
 20
565.3820674587707
 30
0.0
 10
1189.218585042361
 20
565.3820674587707
 30
0.0
 10
1189.218585042361
 20
565.3820674587707
 30
0.0
 10
1189.218585042361
 20
565.3820674587707
 30
0.0
 10
1189.453305483681
 20
565.6167879000911
 30
0.0
 10
1189.453305483681
 20
565.6167879000911
 30
0.0
 10
1189.453305483681
 20
565.6167879000911
 30
0.0
 10
1189.453305483681
 20
565.6167879000911
 30
0.0
 10
1189.218585042361
 20
565.9686198121328
 30
0.0
 10
1189.218585042361
 20
565.9686198121328
 30
0.0
 10
1189.218585042361
 20
565.9686198121328
 30
0.0
 10
1189.218585042361
 20
565.9686198121328
 30
0.0
 10
1189.453305483681
 20
566.2031412535029
 30
0.0
 10
1189.453305483681
 20
566.2031412535029
 30
0.0
  0
SPLINE
  5
1CB
330
1F
100
AcDbEntity
  8
layer 1
 62
     7
370
     0
100
AcDbSpline
210
0.0
220
0.0
230
1.0
 70
    24
 71
     3
 72
     8
 73
     4
 74
     0
 42
0.0000000001
 43
0.0000000001
 40
0.0
 40
0.0
 40
0.0
 40
0.0
 40
1.0
 40
1.0
 40
1.0
 40
1.0
 10
1188.045878335538
 20
569.4871379325036
 30
0.0
 10
1188.045878335538
 20
569.4871379325036
 30
0.0
 10
1187.928567864865
 20
569.3698274618309
 30
0.0
 10
1187.928567864865
 20
569.3698274618309
 30
0.0
  0
SPLINE
  5
1CC
330
1F
100
AcDbEntity
  8
layer 1
 62
     7
370
     0
100
AcDbSpline
210
0.0
220
0.0
230
1.0
 70
    24
 71
     3
 72
     8
 73
     4
 74
     0
 42
0.0000000001
 43
0.0000000001
 40
0.0
 40
0.0
 40
0.0
 40
0.0
 40
1.0
 40
1.0
 40
1.0
 40
1.0
 10
1189.218585042361
 20
569.4871379325036
 30
0.0
 10
1189.218585042361
 20
569.4871379325036
 30
0.0
 10
1189.453305483681
 20
569.3698274618309
 30
0.0
 10
1189.453305483681
 20
569.3698274618309
 30
0.0
  0
SPLINE
  5
1CD
330
1F
100
AcDbEntity
  8
layer 1
 62
     7
370
     0
100
AcDbSpline
210
0.0
220
0.0
230
1.0
 70
    24
 71
     3
 72
     8
 73
     4
 74
     0
 42
0.0000000001
 43
0.0000000001
 40
0.0
 40
0.0
 40
0.0
 40
0.0
 40
1.0
 40
1.0
 40
1.0
 40
1.0
 10
1188.163089306235
 20
569.8389698445457
 30
0.0
 10
1188.163089306235
 20
569.8389698445457
 30
0.0
 10
1188.163089306235
 20
570.0734912859149
 30
0.0
 10
1188.163089306235
 20
570.0734912859149
 30
0.0
  0
SPLINE
  5
1CE
330
1F
100
AcDbEntity
  8
layer 1
 62
     7
370
     0
100
AcDbSpline
210
0.0
220
0.0
230
1.0
 70
    24
 71
     3
 72
     8
 73
     4
 74
     0
 42
0.0000000001
 43
0.0000000001
 40
0.0
 40
0.0
 40
0.0
 40
0.0
 40
1.0
 40
1.0
 40
1.0
 40
1.0
 10
1189.218585042361
 20
569.8389698445457
 30
0.0
 10
1189.218585042361
 20
569.8389698445457
 30
0.0
 10
1189.218585042361
 20
570.0734912859149
 30
0.0
 10
1189.218585042361
 20
570.0734912859149
 30
0.0
  0
SPLINE
  5
1CF
330
1F
100
AcDbEntity
  8
layer 1
 62
     7
370
     0
100
AcDbSpline
210
0.0
220
0.0
230
1.0
 70
    24
 71
     3
 72
     8
 73
     4
 74
     0
 42
0.0000000001
 43
0.0000000001
 40
0.0
 40
0.0
 40
0.0
 40
0.0
 40
1.0
 40
1.0
 40
1.0
 40
1.0
 10
1187.459325982175
 20
566.2031412535029
 30
0.0
 10
1187.459325982175
 20
566.2031412535029
 30
0.0
 10
1189.805137395723
 20
566.2031412535029
 30
0.0
 10
1189.805137395723
 20
566.2031412535029
 30
0.0
  0
SPLINE
  5
1D0
330
1F
100
AcDbEntity
  8
layer 1
 62
     7
370
     0
100
AcDbSpline
210
0.0
220
0.0
230
1.0
 70
    24
 71
     3
 72
     8
 73
     4
 74
     0
 42
0.0000000001
 43
0.0000000001
 40
0.0
 40
0.0
 40
0.0
 40
0.0
 40
1.0
 40
1.0
 40
1.0
 40
1.0
 10
1189.218585042361
 20
569.8389698445457
 30
0.0
 10
1189.218585042361
 20
569.8389698445457
 30
0.0
 10
1189.453305483681
 20
569.7216593738732
 30
0.0
 10
1189.453305483681
 20
569.7216593738732
 30
0.0
  0
SPLINE
  5
1D1
330
1F
100
AcDbEntity
  8
layer 1
 62
     7
370
     0
100
AcDbSpline
210
0.0
220
0.0
230
1.0
 70
    24
 71
     3
 72
     8
 73
     4
 74
     0
 42
0.0000000001
 43
0.0000000001
 40
0.0
 40
0.0
 40
0.0
 40
0.0
 40
1.0
 40
1.0
 40
1.0
 40
1.0
 10
1188.045878335538
 20
569.8389698445457
 30
0.0
 10
1188.045878335538
 20
569.8389698445457
 30
0.0
 10
1187.928567864865
 20
569.7216593738732
 30
0.0
 10
1187.928567864865
 20
569.7216593738732
 30
0.0
  0
SPLINE
  5
1D2
330
1F
100
AcDbEntity
  8
layer 1
 62
     7
370
     0
100
AcDbSpline
210
0.0
220
0.0
230
1.0
 70
    24
 71
     3
 72
     8
 73
     4
 74
     0
 42
0.0000000001
 43
0.0000000001
 40
0.0
 40
0.0
 40
0.0
 40
0.0
 40
1.0
 40
1.0
 40
1.0
 40
1.0
 10
1186.990283099437
 20
566.5549731655444
 30
0.0
 10
1186.990283099437
 20
566.5549731655444
 30
0.0
 10
1187.224804540806
 20
566.5549731655444
 30
0.0
 10
1187.224804540806
 20
566.5549731655444
 30
0.0
  0
SPLINE
  5
1D3
330
1F
100
AcDbEntity
  8
layer 1
 62
     7
370
     0
100
AcDbSpline
210
0.0
220
0.0
230
1.0
 70
    27
 71
     3
 72
    12
 73
     8
 74
     0
 42
0.0000000001
 43
0.0000000001
 40
0.0
 40
0.0
 40
0.0
 40
0.0
 40
0.3333333333333333
 40
0.3333333333333333
 40
0.3333333333333333
 40
0.3333333333333333
 40
1.0
 40
1.0
 40
1.0
 40
1.0
 10
1190.156969307766
 20
566.5549731655444
 30
0.0
 10
1190.156969307766
 20
566.5549731655444
 30
0.0
 10
1190.391490749134
 20
566.5549731655444
 30
0.0
 10
1190.391490749134
 20
566.5549731655444
 30
0.0
 10
1190.391490749134
 20
566.5549731655444
 30
0.0
 10
1190.391490749134
 20
566.5549731655444
 30
0.0
 10
1190.156969307766
 20
566.5549731655444
 30
0.0
 10
1190.156969307766
 20
566.5549731655444
 30
0.0
  0
SPLINE
  5
1D4
330
1F
100
AcDbEntity
  8
layer 1
 62
     7
370
     0
100
AcDbSpline
210
0.0
220
0.0
230
1.0
 70
    24
 71
     3
 72
     8
 73
     4
 74
     0
 42
0.0000000001
 43
0.0000000001
 40
0.0
 40
0.0
 40
0.0
 40
0.0
 40
1.0
 40
1.0
 40
1.0
 40
1.0
 10
1188.163089306235
 20
570.0734912859149
 30
0.0
 10
1188.163089306235
 20
570.0734912859149
 30
0.0
 10
1190.156969307766
 20
570.0734912859149
 30
0.0
 10
1190.156969307766
 20
570.0734912859149
 30
0.0
  0
SPLINE
  5
1D5
330
1F
100
AcDbEntity
  8
layer 1
 62
     7
370
     0
100
AcDbSpline
210
0.0
220
0.0
230
1.0
 70
    24
 71
     3
 72
     8
 73
     4
 74
     0
 42
0.0000000001
 43
0.0000000001
 40
0.0
 40
0.0
 40
0.0
 40
0.0
 40
1.0
 40
1.0
 40
1.0
 40
1.0
 10
1189.335895513033
 20
568.666064137772
 30
0.0
 10
1189.335895513033
 20
568.666064137772
 30
0.0
 10
1189.805137395723
 20
568.666064137772
 30
0.0
 10
1189.805137395723
 20
568.666064137772
 30
0.0
  0
SPLINE
  5
1D6
330
1F
100
AcDbEntity
  8
layer 1
 62
     7
370
     0
100
AcDbSpline
210
0.0
220
0.0
230
1.0
 70
    24
 71
     3
 72
     8
 73
     4
 74
     0
 42
0.0000000001
 43
0.0000000001
 40
0.0
 40
0.0
 40
0.0
 40
0.0
 40
1.0
 40
1.0
 40
1.0
 40
1.0
 10
1189.218585042361
 20
569.8389698445457
 30
0.0
 10
1189.218585042361
 20
569.8389698445457
 30
0.0
 10
1189.805137395723
 20
569.8389698445457
 30
0.0
 10
1189.805137395723
 20
569.8389698445457
 30
0.0
  0
SPLINE
  5
1D7
330
1F
100
AcDbEntity
  8
layer 1
 62
     7
370
     0
100
AcDbSpline
210
0.0
220
0.0
230
1.0
 70
    24
 71
     3
 72
     8
 73
     4
 74
     0
 42
0.0000000001
 43
0.0000000001
 40
0.0
 40
0.0
 40
0.0
 40
0.0
 40
1.0
 40
1.0
 40
1.0
 40
1.0
 10
1187.224804540806
 20
570.0734912859149
 30
0.0
 10
1187.224804540806
 20
570.0734912859149
 30
0.0
 10
1188.163089306235
 20
570.0734912859149
 30
0.0
 10
1188.163089306235
 20
570.0734912859149
 30
0.0
  0
SPLINE
  5
1D8
330
1F
100
AcDbEntity
  8
layer 1
 62
     7
370
     0
100
AcDbSpline
210
0.0
220
0.0
230
1.0
 70
    24
 71
     3
 72
     8
 73
     4
 74
     0
 42
0.0000000001
 43
0.0000000001
 40
0.0
 40
0.0
 40
0.0
 40
0.0
 40
1.0
 40
1.0
 40
1.0
 40
1.0
 10
1189.805137395723
 20
569.8389698445457
 30
0.0
 10
1189.805137395723
 20
569.8389698445457
 30
0.0
 10
1189.805137395723
 20
566.2031412535029
 30
0.0
 10
1189.805137395723
 20
566.2031412535029
 30
0.0
  0
SPLINE
  5
1D9
330
1F
100
AcDbEntity
  8
layer 1
 62
     7
370
     0
100
AcDbSpline
210
0.0
220
0.0
230
1.0
 70
    24
 71
     3
 72
     8
 73
     4
 74
     0
 42
0.0000000001
 43
0.0000000001
 40
0.0
 40
0.0
 40
0.0
 40
0.0
 40
1.0
 40
1.0
 40
1.0
 40
1.0
 10
1187.459325982175
 20
566.2031412535029
 30
0.0
 10
1187.459325982175
 20
566.2031412535029
 30
0.0
 10
1187.459325982175
 20
569.8389698445457
 30
0.0
 10
1187.459325982175
 20
569.8389698445457
 30
0.0
  0
SPLINE
  5
1DA
330
1F
100
AcDbEntity
  8
layer 1
 62
     7
370
     0
100
AcDbSpline
210
0.0
220
0.0
230
1.0
 70
    24
 71
     3
 72
     8
 73
     4
 74
     0
 42
0.0000000001
 43
0.0000000001
 40
0.0
 40
0.0
 40
0.0
 40
0.0
 40
1.0
 40
1.0
 40
1.0
 40
1.0
 10
1189.687826925049
 20
564.3265717226447
 30
0.0
 10
1189.687826925049
 20
564.3265717226447
 30
0.0
 10
1189.687826925049
 20
563.3882869572162
 30
0.0
 10
1189.687826925049
 20
563.3882869572162
 30
0.0
  0
SPLINE
  5
1DB
330
1F
100
AcDbEntity
  8
layer 1
 62
     7
370
     0
100
AcDbSpline
210
0.0
220
0.0
230
1.0
 70
    24
 71
     3
 72
     8
 73
     4
 74
     0
 42
0.0000000001
 43
0.0000000001
 40
0.0
 40
0.0
 40
0.0
 40
0.0
 40
1.0
 40
1.0
 40
1.0
 40
1.0
 10
1187.694046423496
 20
564.4438821933174
 30
0.0
 10
1187.694046423496
 20
564.4438821933174
 30
0.0
 10
1187.694046423496
 20
563.5055974278889
 30
0.0
 10
1187.694046423496
 20
563.5055974278889
 30
0.0
  0
SPLINE
  5
1DC
330
1F
100
AcDbEntity
  8
layer 1
 62
     7
370
     0
100
AcDbSpline
210
0.0
220
0.0
230
1.0
 70
    24
 71
     3
 72
     8
 73
     4
 74
     0
 42
0.0000000001
 43
0.0000000001
 40
0.0
 40
0.0
 40
0.0
 40
0.0
 40
1.0
 40
1.0
 40
1.0
 40
1.0
 10
1189.805137395723
 20
566.2031412535029
 30
0.0
 10
1189.805137395723
 20
566.2031412535029
 30
0.0
 10
1190.391490749134
 20
566.2031412535029
 30
0.0
 10
1190.391490749134
 20
566.2031412535029
 30
0.0
  0
SPLINE
  5
1DD
330
1F
100
AcDbEntity
  8
layer 1
 62
     7
370
     0
100
AcDbSpline
210
0.0
220
0.0
230
1.0
 70
    24
 71
     3
 72
     8
 73
     4
 74
     0
 42
0.0000000001
 43
0.0000000001
 40
0.0
 40
0.0
 40
0.0
 40
0.0
 40
1.0
 40
1.0
 40
1.0
 40
1.0
 10
1186.990283099437
 20
566.2031412535029
 30
0.0
 10
1186.990283099437
 20
566.2031412535029
 30
0.0
 10
1187.459325982175
 20
566.2031412535029
 30
0.0
 10
1187.459325982175
 20
566.2031412535029
 30
0.0
  0
SPLINE
  5
1DE
330
1F
100
AcDbEntity
  8
layer 1
 62
     7
370
     0
100
AcDbSpline
210
0.0
220
0.0
230
1.0
 70
    24
 71
     3
 72
     8
 73
     4
 74
     0
 42
0.0000000001
 43
0.0000000001
 40
0.0
 40
0.0
 40
0.0
 40
0.0
 40
1.0
 40
1.0
 40
1.0
 40
1.0
 10
1186.990283099437
 20
566.2031412535029
 30
0.0
 10
1186.990283099437
 20
566.2031412535029
 30
0.0
 10
1186.990283099437
 20
566.5549731655444
 30
0.0
 10
1186.990283099437
 20
566.5549731655444
 30
0.0
  0
SPLINE
  5
1DF
330
1F
100
AcDbEntity
  8
layer 1
 62
     7
370
     0
100
AcDbSpline
210
0.0
220
0.0
230
1.0
 70
    24
 71
     3
 72
     8
 73
     4
 74
     0
 42
0.0000000001
 43
0.0000000001
 40
0.0
 40
0.0
 40
0.0
 40
0.0
 40
1.0
 40
1.0
 40
1.0
 40
1.0
 10
1190.391490749134
 20
566.5549731655444
 30
0.0
 10
1190.391490749134
 20
566.5549731655444
 30
0.0
 10
1190.391490749134
 20
566.2031412535029
 30
0.0
 10
1190.391490749134
 20
566.2031412535029
 30
0.0
  0
SPLINE
  5
1E0
330
1F
100
AcDbEntity
  8
layer 1
 62
     7
370
     0
100
AcDbSpline
210
0.0
220
0.0
230
1.0
 70
    24
 71
     3
 72
     8
 73
     4
 74
     0
 42
0.0000000001
 43
0.0000000001
 40
0.0
 40
0.0
 40
0.0
 40
0.0
 40
1.0
 40
1.0
 40
1.0
 40
1.0
 10
1187.928567864865
 20
564.7957141053596
 30
0.0
 10
1187.928567864865
 20
564.7957141053596
 30
0.0
 10
1187.928567864865
 20
563.1537655158463
 30
0.0
 10
1187.928567864865
 20
563.1537655158463
 30
0.0
  0
SPLINE
  5
1E1
330
1F
100
AcDbEntity
  8
layer 1
 62
     7
370
     0
100
AcDbSpline
210
0.0
220
0.0
230
1.0
 70
    24
 71
     3
 72
     8
 73
     4
 74
     0
 42
0.0000000001
 43
0.0000000001
 40
0.0
 40
0.0
 40
0.0
 40
0.0
 40
1.0
 40
1.0
 40
1.0
 40
1.0
 10
1189.453305483681
 20
564.7957141053596
 30
0.0
 10
1189.453305483681
 20
564.7957141053596
 30
0.0
 10
1189.453305483681
 20
563.1537655158463
 30
0.0
 10
1189.453305483681
 20
563.1537655158463
 30
0.0
  0
SPLINE
  5
1E2
330
1F
100
AcDbEntity
  8
layer 1
 62
     7
370
     0
100
AcDbSpline
210
0.0
220
0.0
230
1.0
 70
    24
 71
     3
 72
     8
 73
     4
 74
     0
 42
0.0000000001
 43
0.0000000001
 40
0.0
 40
0.0
 40
0.0
 40
0.0
 40
1.0
 40
1.0
 40
1.0
 40
1.0
 10
1187.459325982175
 20
568.666064137772
 30
0.0
 10
1187.459325982175
 20
568.666064137772
 30
0.0
 10
1188.045878335538
 20
568.666064137772
 30
0.0
 10
1188.045878335538
 20
568.666064137772
 30
0.0
  0
SPLINE
  5
1E3
330
1F
100
AcDbEntity
  8
layer 1
 62
     7
370
     0
100
AcDbSpline
210
0.0
220
0.0
230
1.0
 70
    24
 71
     3
 72
     8
 73
     4
 74
     0
 42
0.0000000001
 43
0.0000000001
 40
0.0
 40
0.0
 40
0.0
 40
0.0
 40
1.0
 40
1.0
 40
1.0
 40
1.0
 10
1187.459325982175
 20
569.8389698445457
 30
0.0
 10
1187.459325982175
 20
569.8389698445457
 30
0.0
 10
1188.163089306235
 20
569.8389698445457
 30
0.0
 10
1188.163089306235
 20
569.8389698445457
 30
0.0
  0
SPLINE
  5
1E4
330
1F
100
AcDbEntity
  8
layer 1
 62
     7
370
     0
100
AcDbSpline
210
0.0
220
0.0
230
1.0
 70
    24
 71
     3
 72
     8
 73
     4
 74
     0
 42
0.0000000001
 43
0.0000000001
 40
0.0
 40
0.0
 40
0.0
 40
0.0
 40
1.0
 40
1.0
 40
1.0
 40
1.0
 10
1200.712523668876
 20
565.9686198121328
 30
0.0
 10
1200.712523668876
 20
565.9686198121328
 30
0.0
 10
1200.829635139598
 20
565.3820674587707
 30
0.0
 10
1200.829635139598
 20
565.3820674587707
 30
0.0
  0
SPLINE
  5
1E5
330
1F
100
AcDbEntity
  8
layer 1
 62
     7
370
     0
100
AcDbSpline
210
0.0
220
0.0
230
1.0
 70
    24
 71
     3
 72
     8
 73
     4
 74
     0
 42
0.0000000001
 43
0.0000000001
 40
0.0
 40
0.0
 40
0.0
 40
0.0
 40
1.0
 40
1.0
 40
1.0
 40
1.0
 10
1201.064355580918
 20
566.5549731655444
 30
0.0
 10
1201.064355580918
 20
566.5549731655444
 30
0.0
 10
1201.298877022289
 20
565.9686198121328
 30
0.0
 10
1201.298877022289
 20
565.9686198121328
 30
0.0
  0
SPLINE
  5
1E6
330
1F
100
AcDbEntity
  8
layer 1
 62
     7
370
     0
100
AcDbSpline
210
0.0
220
0.0
230
1.0
 70
    24
 71
     3
 72
     8
 73
     4
 74
     0
 42
0.0000000001
 43
0.0000000001
 40
0.0
 40
0.0
 40
0.0
 40
0.0
 40
1.0
 40
1.0
 40
1.0
 40
1.0
 10
1205.755580408112
 20
566.5549731655444
 30
0.0
 10
1205.755580408112
 20
566.5549731655444
 30
0.0
 10
1205.872890878784
 20
565.9686198121328
 30
0.0
 10
1205.872890878784
 20
565.9686198121328
 30
0.0
  0
SPLINE
  5
1E7
330
1F
100
AcDbEntity
  8
layer 1
 62
     7
370
     0
100
AcDbSpline
210
0.0
220
0.0
230
1.0
 70
    24
 71
     3
 72
     8
 73
     4
 74
     0
 42
0.0000000001
 43
0.0000000001
 40
0.0
 40
0.0
 40
0.0
 40
0.0
 40
1.0
 40
1.0
 40
1.0
 40
1.0
 10
1207.63214993897
 20
565.4993779294434
 30
0.0
 10
1207.63214993897
 20
565.4993779294434
 30
0.0
 10
1200.829635139598
 20
565.3820674587707
 30
0.0
 10
1200.829635139598
 20
565.3820674587707
 30
0.0
  0
SPLINE
  5
1E8
330
1F
100
AcDbEntity
  8
layer 1
 62
     7
370
     0
100
AcDbSpline
210
0.0
220
0.0
230
1.0
 70
     8
 71
     3
 72
    12
 73
     8
 74
     0
 42
0.0000000001
 43
0.0000000001
 40
0.0
 40
0.0
 40
0.0
 40
0.0
 40
0.3333333333333333
 40
0.3333333333333333
 40
0.3333333333333333
 40
0.3333333333333333
 40
1.0
 40
1.0
 40
1.0
 40
1.0
 10
1209.156887557784
 20
564.9130245760316
 30
0.0
 10
1209.156887557784
 20
564.9130245760316
 30
0.0
 10
1212.675405678156
 20
568.9005855791413
 30
0.0
 10
1212.675405678156
 20
568.9005855791413
 30
0.0
 10
1212.675405678156
 20
568.9005855791413
 30
0.0
 10
1212.675405678156
 20
568.9005855791413
 30
0.0
 10
1217.601350946669
 20
568.9005855791413
 30
0.0
 10
1217.601350946669
 20
568.9005855791413
 30
0.0
  0
SPLINE
  5
1E9
330
1F
100
AcDbEntity
  8
layer 1
 62
     7
370
     0
100
AcDbSpline
210
0.0
220
0.0
230
1.0
 70
     8
 71
     3
 72
    32
 73
    28
 74
     0
 42
0.0000000001
 43
0.0000000001
 40
0.0
 40
0.0
 40
0.0
 40
0.0
 40
0.125
 40
0.125
 40
0.125
 40
0.125
 40
0.25
 40
0.25
 40
0.25
 40
0.25
 40
0.375
 40
0.375
 40
0.375
 40
0.375
 40
0.5
 40
0.5
 40
0.5
 40
0.5
 40
0.625
 40
0.625
 40
0.625
 40
0.625
 40
0.75
 40
0.75
 40
0.75
 40
0.75
 40
1.0
 40
1.0
 40
1.0
 40
1.0
 10
1218.656846682796
 20
568.5487536670996
 30
0.0
 10
1218.656846682796
 20
568.5487536670996
 30
0.0
 10
1218.891368124166
 20
568.3142322257299
 30
0.0
 10
1218.891368124166
 20
568.3142322257299
 30
0.0
 10
1218.891368124166
 20
568.3142322257299
 30
0.0
 10
1218.891368124166
 20
568.3142322257299
 30
0.0
 10
1219.243299536183
 20
568.3142322257299
 30
0.0
 10
1219.243299536183
 20
568.3142322257299
 30
0.0
 10
1219.243299536183
 20
568.3142322257299
 30
0.0
 10
1219.243299536183
 20
568.3142322257299
 30
0.0
 10
1219.477820977552
 20
568.5487536670996
 30
0.0
 10
1219.477820977552
 20
568.5487536670996
 30
0.0
 10
1219.477820977552
 20
568.5487536670996
 30
0.0
 10
1219.477820977552
 20
568.5487536670996
 30
0.0
 10
1218.656846682796
 20
569.3698274618309
 30
0.0
 10
1218.656846682796
 20
569.3698274618309
 30
0.0
 10
1218.656846682796
 20
569.3698274618309
 30
0.0
 10
1218.656846682796
 20
569.3698274618309
 30
0.0
 10
1218.891368124166
 20
569.6043489032008
 30
0.0
 10
1218.891368124166
 20
569.6043489032008
 30
0.0
 10
1218.891368124166
 20
569.6043489032008
 30
0.0
 10
1218.891368124166
 20
569.6043489032008
 30
0.0
 10
1219.243299536183
 20
569.6043489032008
 30
0.0
 10
1219.243299536183
 20
569.6043489032008
 30
0.0
 10
1219.243299536183
 20
569.6043489032008
 30
0.0
 10
1219.243299536183
 20
569.6043489032008
 30
0.0
 10
1219.477820977552
 20
569.3698274618309
 30
0.0
 10
1219.477820977552
 20
569.3698274618309
 30
0.0
  0
SPLINE
  5
1EA
330
1F
100
AcDbEntity
  8
layer 1
 62
     7
370
     0
100
AcDbSpline
210
0.0
220
0.0
230
1.0
 70
    24
 71
     3
 72
     8
 73
     4
 74
     0
 42
0.0000000001
 43
0.0000000001
 40
0.0
 40
0.0
 40
0.0
 40
0.0
 40
1.0
 40
1.0
 40
1.0
 40
1.0
 10
1219.946963360267
 20
569.6043489032008
 30
0.0
 10
1219.946963360267
 20
569.6043489032008
 30
0.0
 10
1220.41610574298
 20
569.6043489032008
 30
0.0
 10
1220.41610574298
 20
569.6043489032008
 30
0.0
  0
SPLINE
  5
1EB
330
1F
100
AcDbEntity
  8
layer 1
 62
     7
370
     0
100
AcDbSpline
210
0.0
220
0.0
230
1.0
 70
    24
 71
     3
 72
     8
 73
     4
 74
     0
 42
0.0000000001
 43
0.0000000001
 40
0.0
 40
0.0
 40
0.0
 40
0.0
 40
1.0
 40
1.0
 40
1.0
 40
1.0
 10
1220.181484801636
 20
569.6043489032008
 30
0.0
 10
1220.181484801636
 20
569.6043489032008
 30
0.0
 10
1220.181484801636
 20
568.3142322257299
 30
0.0
 10
1220.181484801636
 20
568.3142322257299
 30
0.0
  0
SPLINE
  5
1EC
330
1F
100
AcDbEntity
  8
layer 1
 62
     7
370
     0
100
AcDbSpline
210
0.0
220
0.0
230
1.0
 70
    24
 71
     3
 72
     8
 73
     4
 74
     0
 42
0.0000000001
 43
0.0000000001
 40
0.0
 40
0.0
 40
0.0
 40
0.0
 40
1.0
 40
1.0
 40
1.0
 40
1.0
 10
1219.946963360267
 20
568.3142322257299
 30
0.0
 10
1219.946963360267
 20
568.3142322257299
 30
0.0
 10
1220.41610574298
 20
568.3142322257299
 30
0.0
 10
1220.41610574298
 20
568.3142322257299
 30
0.0
  0
SPLINE
  5
1ED
330
1F
100
AcDbEntity
  8
layer 1
 62
     7
370
     0
100
AcDbSpline
210
0.0
220
0.0
230
1.0
 70
     8
 71
     3
 72
    16
 73
    12
 74
     0
 42
0.0000000001
 43
0.0000000001
 40
0.0
 40
0.0
 40
0.0
 40
0.0
 40
0.25
 40
0.25
 40
0.25
 40
0.25
 40
0.5
 40
0.5
 40
0.5
 40
0.5
 40
1.0
 40
1.0
 40
1.0
 40
1.0
 10
1220.767937655023
 20
568.3142322257299
 30
0.0
 10
1220.767937655023
 20
568.3142322257299
 30
0.0
 10
1220.767937655023
 20
569.6043489032008
 30
0.0
 10
1220.767937655023
 20
569.6043489032008
 30
0.0
 10
1220.767937655023
 20
569.6043489032008
 30
0.0
 10
1220.767937655023
 20
569.6043489032008
 30
0.0
 10
1221.706222420451
 20
568.3142322257299
 30
0.0
 10
1221.706222420451
 20
568.3142322257299
 30
0.0
 10
1221.706222420451
 20
568.3142322257299
 30
0.0
 10
1221.706222420451
 20
568.3142322257299
 30
0.0
 10
1221.706222420451
 20
569.6043489032008
 30
0.0
 10
1221.706222420451
 20
569.6043489032008
 30
0.0
  0
SPLINE
  5
1EE
330
1F
100
AcDbEntity
  8
layer 1
 62
     7
370
     0
100
AcDbSpline
210
0.0
220
0.0
230
1.0
 70
    24
 71
     3
 72
     8
 73
     4
 74
     0
 42
0.0000000001
 43
0.0000000001
 40
0.0
 40
0.0
 40
0.0
 40
0.0
 40
1.0
 40
1.0
 40
1.0
 40
1.0
 10
1222.058054332494
 20
568.3142322257299
 30
0.0
 10
1222.058054332494
 20
568.3142322257299
 30
0.0
 10
1222.058054332494
 20
569.6043489032008
 30
0.0
 10
1222.058054332494
 20
569.6043489032008
 30
0.0
  0
SPLINE
  5
1EF
330
1F
100
AcDbEntity
  8
layer 1
 62
     7
370
     0
100
AcDbSpline
210
0.0
220
0.0
230
1.0
 70
     8
 71
     3
 72
    12
 73
     8
 74
     0
 42
0.0000000001
 43
0.0000000001
 40
0.0
 40
0.0
 40
0.0
 40
0.0
 40
0.3333333333333333
 40
0.3333333333333333
 40
0.3333333333333333
 40
0.3333333333333333
 40
1.0
 40
1.0
 40
1.0
 40
1.0
 10
1222.996239597948
 20
569.6043489032008
 30
0.0
 10
1222.996239597948
 20
569.6043489032008
 30
0.0
 10
1222.292575773863
 20
568.9005855791413
 30
0.0
 10
1222.292575773863
 20
568.9005855791413
 30
0.0
 10
1222.292575773863
 20
568.9005855791413
 30
0.0
 10
1222.292575773863
 20
568.9005855791413
 30
0.0
 10
1222.058054332494
 20
568.9005855791413
 30
0.0
 10
1222.058054332494
 20
568.9005855791413
 30
0.0
  0
SPLINE
  5
1F0
330
1F
100
AcDbEntity
  8
layer 1
 62
     7
370
     0
100
AcDbSpline
210
0.0
220
0.0
230
1.0
 70
    24
 71
     3
 72
     8
 73
     4
 74
     0
 42
0.0000000001
 43
0.0000000001
 40
0.0
 40
0.0
 40
0.0
 40
0.0
 40
1.0
 40
1.0
 40
1.0
 40
1.0
 10
1222.292575773863
 20
568.9005855791413
 30
0.0
 10
1222.292575773863
 20
568.9005855791413
 30
0.0
 10
1222.996239597948
 20
568.3142322257299
 30
0.0
 10
1222.996239597948
 20
568.3142322257299
 30
0.0
  0
SPLINE
  5
1F1
330
1F
100
AcDbEntity
  8
layer 1
 62
     7
370
     0
100
AcDbSpline
210
0.0
220
0.0
230
1.0
 70
     8
 71
     3
 72
    32
 73
    28
 74
     0
 42
0.0000000001
 43
0.0000000001
 40
0.0
 40
0.0
 40
0.0
 40
0.0
 40
0.125
 40
0.125
 40
0.125
 40
0.125
 40
0.25
 40
0.25
 40
0.25
 40
0.25
 40
0.375
 40
0.375
 40
0.375
 40
0.375
 40
0.5
 40
0.5
 40
0.5
 40
0.5
 40
0.625
 40
0.625
 40
0.625
 40
0.625
 40
0.75
 40
0.75
 40
0.75
 40
0.75
 40
1.0
 40
1.0
 40
1.0
 40
1.0
 10
1168.693929173525
 20
556.1167292751053
 30
0.0
 10
1168.693929173525
 20
556.1167292751053
 30
0.0
 10
1168.928550114869
 20
555.8821083337609
 30
0.0
 10
1168.928550114869
 20
555.8821083337609
 30
0.0
 10
1168.928550114869
 20
555.8821083337609
 30
0.0
 10
1168.928550114869
 20
555.8821083337609
 30
0.0
 10
1169.397791997559
 20
555.8821083337609
 30
0.0
 10
1169.397791997559
 20
555.8821083337609
 30
0.0
 10
1169.397791997559
 20
555.8821083337609
 30
0.0
 10
1169.397791997559
 20
555.8821083337609
 30
0.0
 10
1169.515002968257
 20
556.1167292751053
 30
0.0
 10
1169.515002968257
 20
556.1167292751053
 30
0.0
 10
1169.515002968257
 20
556.1167292751053
 30
0.0
 10
1169.515002968257
 20
556.1167292751053
 30
0.0
 10
1168.693929173525
 20
557.0550140405345
 30
0.0
 10
1168.693929173525
 20
557.0550140405345
 30
0.0
 10
1168.693929173525
 20
557.0550140405345
 30
0.0
 10
1168.693929173525
 20
557.0550140405345
 30
0.0
 10
1168.928550114869
 20
557.2895354819043
 30
0.0
 10
1168.928550114869
 20
557.2895354819043
 30
0.0
 10
1168.928550114869
 20
557.2895354819043
 30
0.0
 10
1168.928550114869
 20
557.2895354819043
 30
0.0
 10
1169.397791997559
 20
557.2895354819043
 30
0.0
 10
1169.397791997559
 20
557.2895354819043
 30
0.0
 10
1169.397791997559
 20
557.2895354819043
 30
0.0
 10
1169.397791997559
 20
557.2895354819043
 30
0.0
 10
1169.515002968257
 20
557.0550140405345
 30
0.0
 10
1169.515002968257
 20
557.0550140405345
 30
0.0
  0
SPLINE
  5
1F2
330
1F
100
AcDbEntity
  8
layer 1
 62
     7
370
     0
100
AcDbSpline
210
0.0
220
0.0
230
1.0
 70
     8
 71
     3
 72
    32
 73
    28
 74
     0
 42
0.0000000001
 43
0.0000000001
 40
0.0
 40
0.0
 40
0.0
 40
0.0
 40
0.125
 40
0.125
 40
0.125
 40
0.125
 40
0.25
 40
0.25
 40
0.25
 40
0.25
 40
0.375
 40
0.375
 40
0.375
 40
0.375
 40
0.5
 40
0.5
 40
0.5
 40
0.5
 40
0.625
 40
0.625
 40
0.625
 40
0.625
 40
0.75
 40
0.75
 40
0.75
 40
0.75
 40
1.0
 40
1.0
 40
1.0
 40
1.0
 10
1170.805119645727
 20
556.1167292751053
 30
0.0
 10
1170.805119645727
 20
556.1167292751053
 30
0.0
 10
1170.687809175054
 20
555.8821083337609
 30
0.0
 10
1170.687809175054
 20
555.8821083337609
 30
0.0
 10
1170.687809175054
 20
555.8821083337609
 30
0.0
 10
1170.687809175054
 20
555.8821083337609
 30
0.0
 10
1170.218666792341
 20
555.8821083337609
 30
0.0
 10
1170.218666792341
 20
555.8821083337609
 30
0.0
 10
1170.218666792341
 20
555.8821083337609
 30
0.0
 10
1170.218666792341
 20
555.8821083337609
 30
0.0
 10
1169.98414535097
 20
556.1167292751053
 30
0.0
 10
1169.98414535097
 20
556.1167292751053
 30
0.0
 10
1169.98414535097
 20
556.1167292751053
 30
0.0
 10
1169.98414535097
 20
556.1167292751053
 30
0.0
 10
1169.98414535097
 20
557.0550140405345
 30
0.0
 10
1169.98414535097
 20
557.0550140405345
 30
0.0
 10
1169.98414535097
 20
557.0550140405345
 30
0.0
 10
1169.98414535097
 20
557.0550140405345
 30
0.0
 10
1170.218666792341
 20
557.2895354819043
 30
0.0
 10
1170.218666792341
 20
557.2895354819043
 30
0.0
 10
1170.218666792341
 20
557.2895354819043
 30
0.0
 10
1170.218666792341
 20
557.2895354819043
 30
0.0
 10
1170.687809175054
 20
557.2895354819043
 30
0.0
 10
1170.687809175054
 20
557.2895354819043
 30
0.0
 10
1170.687809175054
 20
557.2895354819043
 30
0.0
 10
1170.687809175054
 20
557.2895354819043
 30
0.0
 10
1170.805119645727
 20
557.0550140405345
 30
0.0
 10
1170.805119645727
 20
557.0550140405345
 30
0.0
  0
SPLINE
  5
1F3
330
1F
100
AcDbEntity
  8
layer 1
 62
     7
370
     0
100
AcDbSpline
210
0.0
220
0.0
230
1.0
 70
     8
 71
     3
 72
    28
 73
    24
 74
     0
 42
0.0000000001
 43
0.0000000001
 40
0.0
 40
0.0
 40
0.0
 40
0.0
 40
0.1428571428571428
 40
0.1428571428571428
 40
0.1428571428571428
 40
0.1428571428571428
 40
0.2857142857142857
 40
0.2857142857142857
 40
0.2857142857142857
 40
0.2857142857142857
 40
0.4285714285714285
 40
0.4285714285714285
 40
0.4285714285714285
 40
0.4285714285714285
 40
0.5714285714285714
 40
0.5714285714285714
 40
0.5714285714285714
 40
0.5714285714285714
 40
0.7142857142857144
 40
0.7142857142857144
 40
0.7142857142857144
 40
0.7142857142857144
 40
1.0
 40
1.0
 40
1.0
 40
1.0
 10
1171.274162528467
 20
555.8821083337609
 30
0.0
 10
1171.274162528467
 20
555.8821083337609
 30
0.0
 10
1171.274162528467
 20
557.2895354819043
 30
0.0
 10
1171.274162528467
 20
557.2895354819043
 30
0.0
 10
1171.274162528467
 20
557.2895354819043
 30
0.0
 10
1171.274162528467
 20
557.2895354819043
 30
0.0
 10
1171.977925852525
 20
557.2895354819043
 30
0.0
 10
1171.977925852525
 20
557.2895354819043
 30
0.0
 10
1171.977925852525
 20
557.2895354819043
 30
0.0
 10
1171.977925852525
 20
557.2895354819043
 30
0.0
 10
1172.095236323198
 20
557.0550140405345
 30
0.0
 10
1172.095236323198
 20
557.0550140405345
 30
0.0
 10
1172.095236323198
 20
557.0550140405345
 30
0.0
 10
1172.095236323198
 20
557.0550140405345
 30
0.0
 10
1172.095236323198
 20
556.8204925991649
 30
0.0
 10
1172.095236323198
 20
556.8204925991649
 30
0.0
 10
1172.095236323198
 20
556.8204925991649
 30
0.0
 10
1172.095236323198
 20
556.8204925991649
 30
0.0
 10
1171.977925852525
 20
556.5857721578445
 30
0.0
 10
1171.977925852525
 20
556.5857721578445
 30
0.0
 10
1171.977925852525
 20
556.5857721578445
 30
0.0
 10
1171.977925852525
 20
556.5857721578445
 30
0.0
 10
1171.274162528467
 20
556.5857721578445
 30
0.0
 10
1171.274162528467
 20
556.5857721578445
 30
0.0
  0
SPLINE
  5
1F4
330
1F
100
AcDbEntity
  8
layer 1
 62
     7
370
     0
100
AcDbSpline
210
0.0
220
0.0
230
1.0
 70
    24
 71
     3
 72
     8
 73
     4
 74
     0
 42
0.0000000001
 43
0.0000000001
 40
0.0
 40
0.0
 40
0.0
 40
0.0
 40
1.0
 40
1.0
 40
1.0
 40
1.0
 10
1171.508882969787
 20
556.5857721578445
 30
0.0
 10
1171.508882969787
 20
556.5857721578445
 30
0.0
 10
1172.095236323198
 20
555.8821083337609
 30
0.0
 10
1172.095236323198
 20
555.8821083337609
 30
0.0
  0
SPLINE
  5
1F5
330
1F
100
AcDbEntity
  8
layer 1
 62
     7
370
     0
100
AcDbSpline
210
0.0
220
0.0
230
1.0
 70
     8
 71
     3
 72
    12
 73
     8
 74
     0
 42
0.0000000001
 43
0.0000000001
 40
0.0
 40
0.0
 40
0.0
 40
0.0
 40
0.3333333333333333
 40
0.3333333333333333
 40
0.3333333333333333
 40
0.3333333333333333
 40
1.0
 40
1.0
 40
1.0
 40
1.0
 10
1172.564378705913
 20
555.8821083337609
 30
0.0
 10
1172.564378705913
 20
555.8821083337609
 30
0.0
 10
1172.564378705913
 20
557.2895354819043
 30
0.0
 10
1172.564378705913
 20
557.2895354819043
 30
0.0
 10
1172.564378705913
 20
557.2895354819043
 30
0.0
 10
1172.564378705913
 20
557.2895354819043
 30
0.0
 10
1173.502663471341
 20
557.2895354819043
 30
0.0
 10
1173.502663471341
 20
557.2895354819043
 30
0.0
  0
SPLINE
  5
1F6
330
1F
100
AcDbEntity
  8
layer 1
 62
     7
370
     0
100
AcDbSpline
210
0.0
220
0.0
230
1.0
 70
    24
 71
     3
 72
     8
 73
     4
 74
     0
 42
0.0000000001
 43
0.0000000001
 40
0.0
 40
0.0
 40
0.0
 40
0.0
 40
1.0
 40
1.0
 40
1.0
 40
1.0
 10
1172.564378705913
 20
556.5857721578445
 30
0.0
 10
1172.564378705913
 20
556.5857721578445
 30
0.0
 10
1173.033421588652
 20
556.5857721578445
 30
0.0
 10
1173.033421588652
 20
556.5857721578445
 30
0.0
  0
SPLINE
  5
1F7
330
1F
100
AcDbEntity
  8
layer 1
 62
     7
370
     0
100
AcDbSpline
210
0.0
220
0.0
230
1.0
 70
    24
 71
     3
 72
     8
 73
     4
 74
     0
 42
0.0000000001
 43
0.0000000001
 40
0.0
 40
0.0
 40
0.0
 40
0.0
 40
1.0
 40
1.0
 40
1.0
 40
1.0
 10
1172.564378705913
 20
555.8821083337609
 30
0.0
 10
1172.564378705913
 20
555.8821083337609
 30
0.0
 10
1173.502663471341
 20
555.8821083337609
 30
0.0
 10
1173.502663471341
 20
555.8821083337609
 30
0.0
  0
SPLINE
  5
1F8
330
1F
100
AcDbEntity
  8
layer 1
 62
     7
370
     0
100
AcDbSpline
210
0.0
220
0.0
230
1.0
 70
     8
 71
     3
 72
    20
 73
    16
 74
     0
 42
0.0000000001
 43
0.0000000001
 40
0.0
 40
0.0
 40
0.0
 40
0.0
 40
0.2
 40
0.2
 40
0.2
 40
0.2
 40
0.4
 40
0.4
 40
0.4
 40
0.4
 40
0.6
 40
0.6
 40
0.6
 40
0.6
 40
1.0
 40
1.0
 40
1.0
 40
1.0
 10
1173.854495383383
 20
557.2895354819043
 30
0.0
 10
1173.854495383383
 20
557.2895354819043
 30
0.0
 10
1174.323637766098
 20
555.8821083337609
 30
0.0
 10
1174.323637766098
 20
555.8821083337609
 30
0.0
 10
1174.323637766098
 20
555.8821083337609
 30
0.0
 10
1174.323637766098
 20
555.8821083337609
 30
0.0
 10
1174.558159207467
 20
556.5857721578445
 30
0.0
 10
1174.558159207467
 20
556.5857721578445
 30
0.0
 10
1174.558159207467
 20
556.5857721578445
 30
0.0
 10
1174.558159207467
 20
556.5857721578445
 30
0.0
 10
1174.792680648837
 20
555.8821083337609
 30
0.0
 10
1174.792680648837
 20
555.8821083337609
 30
0.0
 10
1174.792680648837
 20
555.8821083337609
 30
0.0
 10
1174.792680648837
 20
555.8821083337609
 30
0.0
 10
1175.144612060854
 20
557.2895354819043
 30
0.0
 10
1175.144612060854
 20
557.2895354819043
 30
0.0
  0
SPLINE
  5
1F9
330
1F
100
AcDbEntity
  8
layer 1
 62
     7
370
     0
100
AcDbSpline
210
0.0
220
0.0
230
1.0
 70
     8
 71
     3
 72
    32
 73
    28
 74
     0
 42
0.0000000001
 43
0.0000000001
 40
0.0
 40
0.0
 40
0.0
 40
0.0
 40
0.125
 40
0.125
 40
0.125
 40
0.125
 40
0.25
 40
0.25
 40
0.25
 40
0.25
 40
0.375
 40
0.375
 40
0.375
 40
0.375
 40
0.5
 40
0.5
 40
0.5
 40
0.5
 40
0.625
 40
0.625
 40
0.625
 40
0.625
 40
0.75
 40
0.75
 40
0.75
 40
0.75
 40
1.0
 40
1.0
 40
1.0
 40
1.0
 10
1175.613754443568
 20
556.1167292751053
 30
0.0
 10
1175.613754443568
 20
556.1167292751053
 30
0.0
 10
1175.848275884938
 20
555.8821083337609
 30
0.0
 10
1175.848275884938
 20
555.8821083337609
 30
0.0
 10
1175.848275884938
 20
555.8821083337609
 30
0.0
 10
1175.848275884938
 20
555.8821083337609
 30
0.0
 10
1176.20010779698
 20
555.8821083337609
 30
0.0
 10
1176.20010779698
 20
555.8821083337609
 30
0.0
 10
1176.20010779698
 20
555.8821083337609
 30
0.0
 10
1176.20010779698
 20
555.8821083337609
 30
0.0
 10
1176.4348282383
 20
556.1167292751053
 30
0.0
 10
1176.4348282383
 20
556.1167292751053
 30
0.0
 10
1176.4348282383
 20
556.1167292751053
 30
0.0
 10
1176.4348282383
 20
556.1167292751053
 30
0.0
 10
1175.613754443568
 20
557.0550140405345
 30
0.0
 10
1175.613754443568
 20
557.0550140405345
 30
0.0
 10
1175.613754443568
 20
557.0550140405345
 30
0.0
 10
1175.613754443568
 20
557.0550140405345
 30
0.0
 10
1175.848275884938
 20
557.2895354819043
 30
0.0
 10
1175.848275884938
 20
557.2895354819043
 30
0.0
 10
1175.848275884938
 20
557.2895354819043
 30
0.0
 10
1175.848275884938
 20
557.2895354819043
 30
0.0
 10
1176.20010779698
 20
557.2895354819043
 30
0.0
 10
1176.20010779698
 20
557.2895354819043
 30
0.0
 10
1176.20010779698
 20
557.2895354819043
 30
0.0
 10
1176.20010779698
 20
557.2895354819043
 30
0.0
 10
1176.4348282383
 20
557.0550140405345
 30
0.0
 10
1176.4348282383
 20
557.0550140405345
 30
0.0
  0
SPLINE
  5
1FA
330
1F
100
AcDbEntity
  8
layer 1
 62
     7
370
     0
100
AcDbSpline
210
0.0
220
0.0
230
1.0
 70
     8
 71
     3
 72
    12
 73
     8
 74
     0
 42
0.0000000001
 43
0.0000000001
 40
0.0
 40
0.0
 40
0.0
 40
0.0
 40
0.3333333333333333
 40
0.3333333333333333
 40
0.3333333333333333
 40
0.3333333333333333
 40
1.0
 40
1.0
 40
1.0
 40
1.0
 10
1187.576636452847
 20
562.4501016917625
 30
0.0
 10
1187.576636452847
 20
562.4501016917625
 30
0.0
 10
1182.416269242939
 20
556.5857721578445
 30
0.0
 10
1182.416269242939
 20
556.5857721578445
 30
0.0
 10
1182.416269242939
 20
556.5857721578445
 30
0.0
 10
1182.416269242939
 20
556.5857721578445
 30
0.0
 10
1177.490224474451
 20
556.5857721578445
 30
0.0
 10
1177.490224474451
 20
556.5857721578445
 30
0.0
  0
SPLINE
  5
1FB
330
1F
100
AcDbEntity
  8
layer 1
 62
     7
370
     0
100
AcDbSpline
210
0.0
220
0.0
230
1.0
 70
     8
 71
     3
 72
    12
 73
     8
 74
     0
 42
0.0000000001
 43
0.0000000001
 40
0.0
 40
0.0
 40
0.0
 40
0.0
 40
0.3333333333333333
 40
0.3333333333333333
 40
0.3333333333333333
 40
0.3333333333333333
 40
1.0
 40
1.0
 40
1.0
 40
1.0
 10
1161.305160520716
 20
559.0487945420894
 30
0.0
 10
1161.305160520716
 20
559.0487945420894
 30
0.0
 10
1161.305160520716
 20
560.4562216902329
 30
0.0
 10
1161.305160520716
 20
560.4562216902329
 30
0.0
 10
1161.305160520716
 20
560.4562216902329
 30
0.0
 10
1161.305160520716
 20
560.4562216902329
 30
0.0
 10
1162.126134815474
 20
560.4562216902329
 30
0.0
 10
1162.126134815474
 20
560.4562216902329
 30
0.0
  0
SPLINE
  5
1FC
330
1F
100
AcDbEntity
  8
layer 1
 62
     7
370
     0
100
AcDbSpline
210
0.0
220
0.0
230
1.0
 70
    24
 71
     3
 72
     8
 73
     4
 74
     0
 42
0.0000000001
 43
0.0000000001
 40
0.0
 40
0.0
 40
0.0
 40
0.0
 40
1.0
 40
1.0
 40
1.0
 40
1.0
 10
1161.305160520716
 20
559.7524583661733
 30
0.0
 10
1161.305160520716
 20
559.7524583661733
 30
0.0
 10
1161.657091932734
 20
559.7524583661733
 30
0.0
 10
1161.657091932734
 20
559.7524583661733
 30
0.0
  0
SPLINE
  5
1FD
330
1F
100
AcDbEntity
  8
layer 1
 62
     7
370
     0
100
AcDbSpline
210
0.0
220
0.0
230
1.0
 70
     8
 71
     3
 72
    20
 73
    16
 74
     0
 42
0.0000000001
 43
0.0000000001
 40
0.0
 40
0.0
 40
0.0
 40
0.0
 40
0.2
 40
0.2
 40
0.2
 40
0.2
 40
0.4
 40
0.4
 40
0.4
 40
0.4
 40
0.6
 40
0.6
 40
0.6
 40
0.6
 40
1.0
 40
1.0
 40
1.0
 40
1.0
 10
1162.595277198188
 20
559.0487945420894
 30
0.0
 10
1162.595277198188
 20
559.0487945420894
 30
0.0
 10
1162.595277198188
 20
559.5179369248037
 30
0.0
 10
1162.595277198188
 20
559.5179369248037
 30
0.0
 10
1162.595277198188
 20
559.5179369248037
 30
0.0
 10
1162.595277198188
 20
559.5179369248037
 30
0.0
 10
1162.94710911023
 20
560.4562216902329
 30
0.0
 10
1162.94710911023
 20
560.4562216902329
 30
0.0
 10
1162.94710911023
 20
560.4562216902329
 30
0.0
 10
1162.94710911023
 20
560.4562216902329
 30
0.0
 10
1163.41635099292
 20
559.5179369248037
 30
0.0
 10
1163.41635099292
 20
559.5179369248037
 30
0.0
 10
1163.41635099292
 20
559.5179369248037
 30
0.0
 10
1163.41635099292
 20
559.5179369248037
 30
0.0
 10
1163.41635099292
 20
559.0487945420894
 30
0.0
 10
1163.41635099292
 20
559.0487945420894
 30
0.0
  0
SPLINE
  5
1FE
330
1F
100
AcDbEntity
  8
layer 1
 62
     7
370
     0
100
AcDbSpline
210
0.0
220
0.0
230
1.0
 70
    24
 71
     3
 72
     8
 73
     4
 74
     0
 42
0.0000000001
 43
0.0000000001
 40
0.0
 40
0.0
 40
0.0
 40
0.0
 40
1.0
 40
1.0
 40
1.0
 40
1.0
 10
1162.595277198188
 20
559.5179369248037
 30
0.0
 10
1162.595277198188
 20
559.5179369248037
 30
0.0
 10
1163.41635099292
 20
559.5179369248037
 30
0.0
 10
1163.41635099292
 20
559.5179369248037
 30
0.0
  0
SPLINE
  5
1FF
330
1F
100
AcDbEntity
  8
layer 1
 62
     7
370
     0
100
AcDbSpline
210
0.0
220
0.0
230
1.0
 70
     8
 71
     3
 72
    32
 73
    28
 74
     0
 42
0.0000000001
 43
0.0000000001
 40
0.0
 40
0.0
 40
0.0
 40
0.0
 40
0.125
 40
0.125
 40
0.125
 40
0.125
 40
0.25
 40
0.25
 40
0.25
 40
0.25
 40
0.375
 40
0.375
 40
0.375
 40
0.375
 40
0.5
 40
0.5
 40
0.5
 40
0.5
 40
0.625
 40
0.625
 40
0.625
 40
0.625
 40
0.75
 40
0.75
 40
0.75
 40
0.75
 40
1.0
 40
1.0
 40
1.0
 40
1.0
 10
1163.885294375683
 20
559.283415483434
 30
0.0
 10
1163.885294375683
 20
559.283415483434
 30
0.0
 10
1164.120014817003
 20
559.0487945420894
 30
0.0
 10
1164.120014817003
 20
559.0487945420894
 30
0.0
 10
1164.120014817003
 20
559.0487945420894
 30
0.0
 10
1164.120014817003
 20
559.0487945420894
 30
0.0
 10
1164.471747229071
 20
559.0487945420894
 30
0.0
 10
1164.471747229071
 20
559.0487945420894
 30
0.0
 10
1164.471747229071
 20
559.0487945420894
 30
0.0
 10
1164.471747229071
 20
559.0487945420894
 30
0.0
 10
1164.706368170414
 20
559.283415483434
 30
0.0
 10
1164.706368170414
 20
559.283415483434
 30
0.0
 10
1164.706368170414
 20
559.283415483434
 30
0.0
 10
1164.706368170414
 20
559.283415483434
 30
0.0
 10
1163.885294375683
 20
560.2217002488625
 30
0.0
 10
1163.885294375683
 20
560.2217002488625
 30
0.0
 10
1163.885294375683
 20
560.2217002488625
 30
0.0
 10
1163.885294375683
 20
560.2217002488625
 30
0.0
 10
1164.120014817003
 20
560.4562216902329
 30
0.0
 10
1164.120014817003
 20
560.4562216902329
 30
0.0
 10
1164.120014817003
 20
560.4562216902329
 30
0.0
 10
1164.120014817003
 20
560.4562216902329
 30
0.0
 10
1164.471747229071
 20
560.4562216902329
 30
0.0
 10
1164.471747229071
 20
560.4562216902329
 30
0.0
 10
1164.471747229071
 20
560.4562216902329
 30
0.0
 10
1164.471747229071
 20
560.4562216902329
 30
0.0
 10
1164.706368170414
 20
560.2217002488625
 30
0.0
 10
1164.706368170414
 20
560.2217002488625
 30
0.0
  0
SPLINE
  5
200
330
1F
100
AcDbEntity
  8
layer 1
 62
     7
370
     0
100
AcDbSpline
210
0.0
220
0.0
230
1.0
 70
    24
 71
     3
 72
     8
 73
     4
 74
     0
 42
0.0000000001
 43
0.0000000001
 40
0.0
 40
0.0
 40
0.0
 40
0.0
 40
1.0
 40
1.0
 40
1.0
 40
1.0
 10
1165.17551055313
 20
560.4562216902329
 30
0.0
 10
1165.17551055313
 20
560.4562216902329
 30
0.0
 10
1165.996484847886
 20
560.4562216902329
 30
0.0
 10
1165.996484847886
 20
560.4562216902329
 30
0.0
  0
SPLINE
  5
201
330
1F
100
AcDbEntity
  8
layer 1
 62
     7
370
     0
100
AcDbSpline
210
0.0
220
0.0
230
1.0
 70
    24
 71
     3
 72
     8
 73
     4
 74
     0
 42
0.0000000001
 43
0.0000000001
 40
0.0
 40
0.0
 40
0.0
 40
0.0
 40
1.0
 40
1.0
 40
1.0
 40
1.0
 10
1165.527441965146
 20
560.4562216902329
 30
0.0
 10
1165.527441965146
 20
560.4562216902329
 30
0.0
 10
1165.527441965146
 20
559.0487945420894
 30
0.0
 10
1165.527441965146
 20
559.0487945420894
 30
0.0
  0
SPLINE
  5
202
330
1F
100
AcDbEntity
  8
layer 1
 62
     7
370
     0
100
AcDbSpline
210
0.0
220
0.0
230
1.0
 70
     8
 71
     3
 72
    12
 73
     8
 74
     0
 42
0.0000000001
 43
0.0000000001
 40
0.0
 40
0.0
 40
0.0
 40
0.0
 40
0.3333333333333333
 40
0.3333333333333333
 40
0.3333333333333333
 40
0.3333333333333333
 40
1.0
 40
1.0
 40
1.0
 40
1.0
 10
1166.4656272306
 20
559.0487945420894
 30
0.0
 10
1166.4656272306
 20
559.0487945420894
 30
0.0
 10
1166.4656272306
 20
560.4562216902329
 30
0.0
 10
1166.4656272306
 20
560.4562216902329
 30
0.0
 10
1166.4656272306
 20
560.4562216902329
 30
0.0
 10
1166.4656272306
 20
560.4562216902329
 30
0.0
 10
1167.286502025382
 20
560.4562216902329
 30
0.0
 10
1167.286502025382
 20
560.4562216902329
 30
0.0
  0
SPLINE
  5
203
330
1F
100
AcDbEntity
  8
layer 1
 62
     7
370
     0
100
AcDbSpline
210
0.0
220
0.0
230
1.0
 70
    24
 71
     3
 72
     8
 73
     4
 74
     0
 42
0.0000000001
 43
0.0000000001
 40
0.0
 40
0.0
 40
0.0
 40
0.0
 40
1.0
 40
1.0
 40
1.0
 40
1.0
 10
1166.4656272306
 20
559.7524583661733
 30
0.0
 10
1166.4656272306
 20
559.7524583661733
 30
0.0
 10
1166.934769613314
 20
559.7524583661733
 30
0.0
 10
1166.934769613314
 20
559.7524583661733
 30
0.0
  0
SPLINE
  5
204
330
1F
100
AcDbEntity
  8
layer 1
 62
     7
370
     0
100
AcDbSpline
210
0.0
220
0.0
230
1.0
 70
    24
 71
     3
 72
     8
 73
     4
 74
     0
 42
0.0000000001
 43
0.0000000001
 40
0.0
 40
0.0
 40
0.0
 40
0.0
 40
1.0
 40
1.0
 40
1.0
 40
1.0
 10
1166.4656272306
 20
559.0487945420894
 30
0.0
 10
1166.4656272306
 20
559.0487945420894
 30
0.0
 10
1167.286502025382
 20
559.0487945420894
 30
0.0
 10
1167.286502025382
 20
559.0487945420894
 30
0.0
  0
SPLINE
  5
205
330
1F
100
AcDbEntity
  8
layer 1
 62
     7
370
     0
100
AcDbSpline
210
0.0
220
0.0
230
1.0
 70
     8
 71
     3
 72
    16
 73
    12
 74
     0
 42
0.0000000001
 43
0.0000000001
 40
0.0
 40
0.0
 40
0.0
 40
0.0
 40
0.25
 40
0.25
 40
0.25
 40
0.25
 40
0.5
 40
0.5
 40
0.5
 40
0.5
 40
1.0
 40
1.0
 40
1.0
 40
1.0
 10
1167.755743908071
 20
559.0487945420894
 30
0.0
 10
1167.755743908071
 20
559.0487945420894
 30
0.0
 10
1167.755743908071
 20
560.4562216902329
 30
0.0
 10
1167.755743908071
 20
560.4562216902329
 30
0.0
 10
1167.755743908071
 20
560.4562216902329
 30
0.0
 10
1167.755743908071
 20
560.4562216902329
 30
0.0
 10
1168.576718202827
 20
559.0487945420894
 30
0.0
 10
1168.576718202827
 20
559.0487945420894
 30
0.0
 10
1168.576718202827
 20
559.0487945420894
 30
0.0
 10
1168.576718202827
 20
559.0487945420894
 30
0.0
 10
1168.576718202827
 20
560.4562216902329
 30
0.0
 10
1168.576718202827
 20
560.4562216902329
 30
0.0
  0
SPLINE
  5
206
330
1F
100
AcDbEntity
  8
layer 1
 62
     7
370
     0
100
AcDbSpline
210
0.0
220
0.0
230
1.0
 70
     8
 71
     3
 72
    12
 73
     8
 74
     0
 42
0.0000000001
 43
0.0000000001
 40
0.0
 40
0.0
 40
0.0
 40
0.0
 40
0.3333333333333333
 40
0.3333333333333333
 40
0.3333333333333333
 40
0.3333333333333333
 40
1.0
 40
1.0
 40
1.0
 40
1.0
 10
1169.045960085517
 20
559.0487945420894
 30
0.0
 10
1169.045960085517
 20
559.0487945420894
 30
0.0
 10
1169.045960085517
 20
560.4562216902329
 30
0.0
 10
1169.045960085517
 20
560.4562216902329
 30
0.0
 10
1169.045960085517
 20
560.4562216902329
 30
0.0
 10
1169.045960085517
 20
560.4562216902329
 30
0.0
 10
1169.866834880298
 20
560.4562216902329
 30
0.0
 10
1169.866834880298
 20
560.4562216902329
 30
0.0
  0
SPLINE
  5
207
330
1F
100
AcDbEntity
  8
layer 1
 62
     7
370
     0
100
AcDbSpline
210
0.0
220
0.0
230
1.0
 70
    24
 71
     3
 72
     8
 73
     4
 74
     0
 42
0.0000000001
 43
0.0000000001
 40
0.0
 40
0.0
 40
0.0
 40
0.0
 40
1.0
 40
1.0
 40
1.0
 40
1.0
 10
1169.045960085517
 20
559.7524583661733
 30
0.0
 10
1169.045960085517
 20
559.7524583661733
 30
0.0
 10
1169.515002968257
 20
559.7524583661733
 30
0.0
 10
1169.515002968257
 20
559.7524583661733
 30
0.0
  0
SPLINE
  5
208
330
1F
100
AcDbEntity
  8
layer 1
 62
     7
370
     0
100
AcDbSpline
210
0.0
220
0.0
230
1.0
 70
    24
 71
     3
 72
     8
 73
     4
 74
     0
 42
0.0000000001
 43
0.0000000001
 40
0.0
 40
0.0
 40
0.0
 40
0.0
 40
1.0
 40
1.0
 40
1.0
 40
1.0
 10
1169.045960085517
 20
559.0487945420894
 30
0.0
 10
1169.045960085517
 20
559.0487945420894
 30
0.0
 10
1169.866834880298
 20
559.0487945420894
 30
0.0
 10
1169.866834880298
 20
559.0487945420894
 30
0.0
  0
SPLINE
  5
209
330
1F
100
AcDbEntity
  8
layer 1
 62
     7
370
     0
100
AcDbSpline
210
0.0
220
0.0
230
1.0
 70
     8
 71
     3
 72
    28
 73
    24
 74
     0
 42
0.0000000001
 43
0.0000000001
 40
0.0
 40
0.0
 40
0.0
 40
0.0
 40
0.1428571428571428
 40
0.1428571428571428
 40
0.1428571428571428
 40
0.1428571428571428
 40
0.2857142857142857
 40
0.2857142857142857
 40
0.2857142857142857
 40
0.2857142857142857
 40
0.4285714285714285
 40
0.4285714285714285
 40
0.4285714285714285
 40
0.4285714285714285
 40
0.5714285714285714
 40
0.5714285714285714
 40
0.5714285714285714
 40
0.5714285714285714
 40
0.7142857142857144
 40
0.7142857142857144
 40
0.7142857142857144
 40
0.7142857142857144
 40
1.0
 40
1.0
 40
1.0
 40
1.0
 10
1170.335977263013
 20
559.0487945420894
 30
0.0
 10
1170.335977263013
 20
559.0487945420894
 30
0.0
 10
1170.335977263013
 20
560.4562216902329
 30
0.0
 10
1170.335977263013
 20
560.4562216902329
 30
0.0
 10
1170.335977263013
 20
560.4562216902329
 30
0.0
 10
1170.335977263013
 20
560.4562216902329
 30
0.0
 10
1171.039641087096
 20
560.4562216902329
 30
0.0
 10
1171.039641087096
 20
560.4562216902329
 30
0.0
 10
1171.039641087096
 20
560.4562216902329
 30
0.0
 10
1171.039641087096
 20
560.4562216902329
 30
0.0
 10
1171.157051057744
 20
560.2217002488625
 30
0.0
 10
1171.157051057744
 20
560.2217002488625
 30
0.0
 10
1171.157051057744
 20
560.2217002488625
 30
0.0
 10
1171.157051057744
 20
560.2217002488625
 30
0.0
 10
1171.157051057744
 20
559.9871788074933
 30
0.0
 10
1171.157051057744
 20
559.9871788074933
 30
0.0
 10
1171.157051057744
 20
559.9871788074933
 30
0.0
 10
1171.157051057744
 20
559.9871788074933
 30
0.0
 10
1171.039641087096
 20
559.7524583661733
 30
0.0
 10
1171.039641087096
 20
559.7524583661733
 30
0.0
 10
1171.039641087096
 20
559.7524583661733
 30
0.0
 10
1171.039641087096
 20
559.7524583661733
 30
0.0
 10
1170.335977263013
 20
559.7524583661733
 30
0.0
 10
1170.335977263013
 20
559.7524583661733
 30
0.0
  0
SPLINE
  5
20A
330
1F
100
AcDbEntity
  8
layer 1
 62
     7
370
     0
100
AcDbSpline
210
0.0
220
0.0
230
1.0
 70
    24
 71
     3
 72
     8
 73
     4
 74
     0
 42
0.0000000001
 43
0.0000000001
 40
0.0
 40
0.0
 40
0.0
 40
0.0
 40
1.0
 40
1.0
 40
1.0
 40
1.0
 10
1170.570498704383
 20
559.7524583661733
 30
0.0
 10
1170.570498704383
 20
559.7524583661733
 30
0.0
 10
1171.157051057744
 20
559.0487945420894
 30
0.0
 10
1171.157051057744
 20
559.0487945420894
 30
0.0
  0
SPLINE
  5
20B
330
1F
100
AcDbEntity
  8
layer 1
 62
     7
370
     0
100
AcDbSpline
210
0.0
220
0.0
230
1.0
 70
     8
 71
     3
 72
    12
 73
     8
 74
     0
 42
0.0000000001
 43
0.0000000001
 40
0.0
 40
0.0
 40
0.0
 40
0.0
 40
0.3333333333333333
 40
0.3333333333333333
 40
0.3333333333333333
 40
0.3333333333333333
 40
1.0
 40
1.0
 40
1.0
 40
1.0
 10
1180.657010182754
 20
563.7401188692579
 30
0.0
 10
1180.657010182754
 20
563.7401188692579
 30
0.0
 10
1177.138492062385
 20
559.7524583661733
 30
0.0
 10
1177.138492062385
 20
559.7524583661733
 30
0.0
 10
1177.138492062385
 20
559.7524583661733
 30
0.0
 10
1177.138492062385
 20
559.7524583661733
 30
0.0
 10
1172.212546793871
 20
559.7524583661733
 30
0.0
 10
1172.212546793871
 20
559.7524583661733
 30
0.0
  0
SPLINE
  5
20C
330
1F
100
AcDbEntity
  8
layer 1
 62
     7
370
     0
100
AcDbSpline
210
0.0
220
0.0
230
1.0
 70
    24
 71
     3
 72
     8
 73
     4
 74
     0
 42
0.0000000001
 43
0.0000000001
 40
0.0
 40
0.0
 40
0.0
 40
0.0
 40
1.0
 40
1.0
 40
1.0
 40
1.0
 10
1192.267960780017
 20
564.2093607519472
 30
0.0
 10
1192.267960780017
 20
564.2093607519472
 30
0.0
 10
1192.267960780017
 20
563.3882869572162
 30
0.0
 10
1192.267960780017
 20
563.3882869572162
 30
0.0
  0
SPLINE
  5
20D
330
1F
100
AcDbEntity
  8
layer 1
 62
     7
370
     0
100
AcDbSpline
210
0.0
220
0.0
230
1.0
 70
    24
 71
     3
 72
     8
 73
     4
 74
     0
 42
0.0000000001
 43
0.0000000001
 40
0.0
 40
0.0
 40
0.0
 40
0.0
 40
1.0
 40
1.0
 40
1.0
 40
1.0
 10
1184.996403097906
 20
564.4438821933174
 30
0.0
 10
1184.996403097906
 20
564.4438821933174
 30
0.0
 10
1184.996403097906
 20
563.6228083985859
 30
0.0
 10
1184.996403097906
 20
563.6228083985859
 30
0.0
  0
SPLINE
  5
20E
330
1F
100
AcDbEntity
  8
layer 1
 62
     7
370
     0
100
AcDbSpline
210
0.0
220
0.0
230
1.0
 70
     8
 71
     3
 72
    12
 73
     8
 74
     0
 42
0.0000000001
 43
0.0000000001
 40
0.0
 40
0.0
 40
0.0
 40
0.0
 40
0.3333333333333333
 40
0.3333333333333333
 40
0.3333333333333333
 40
0.3333333333333333
 40
1.0
 40
1.0
 40
1.0
 40
1.0
 10
1204.700084671986
 20
565.1475460174013
 30
0.0
 10
1204.700084671986
 20
565.1475460174013
 30
0.0
 10
1203.761799906557
 20
563.0364550451745
 30
0.0
 10
1203.761799906557
 20
563.0364550451745
 30
0.0
 10
1203.761799906557
 20
563.0364550451745
 30
0.0
 10
1203.761799906557
 20
563.0364550451745
 30
0.0
 10
1189.687826925049
 20
563.3882869572162
 30
0.0
 10
1189.687826925049
 20
563.3882869572162
 30
0.0
  0
SPLINE
  5
20F
330
1F
100
AcDbEntity
  8
layer 1
 62
     7
370
     0
100
AcDbSpline
210
0.0
220
0.0
230
1.0
 70
     8
 71
     3
 72
    16
 73
    12
 74
     0
 42
0.0000000001
 43
0.0000000001
 40
0.0
 40
0.0
 40
0.0
 40
0.0
 40
0.25
 40
0.25
 40
0.25
 40
0.25
 40
0.5
 40
0.5
 40
0.5
 40
0.5
 40
1.0
 40
1.0
 40
1.0
 40
1.0
 10
1189.687826925049
 20
564.3265717226447
 30
0.0
 10
1189.687826925049
 20
564.3265717226447
 30
0.0
 10
1203.175446553146
 20
563.9746403106283
 30
0.0
 10
1203.175446553146
 20
563.9746403106283
 30
0.0
 10
1203.175446553146
 20
563.9746403106283
 30
0.0
 10
1203.175446553146
 20
563.9746403106283
 30
0.0
 10
1203.879110377229
 20
565.4993779294434
 30
0.0
 10
1203.879110377229
 20
565.4993779294434
 30
0.0
 10
1203.879110377229
 20
565.4993779294434
 30
0.0
 10
1203.879110377229
 20
565.4993779294434
 30
0.0
 10
1204.700084671986
 20
565.1475460174013
 30
0.0
 10
1204.700084671986
 20
565.1475460174013
 30
0.0
  0
SPLINE
  5
210
330
1F
100
AcDbEntity
  8
layer 1
 62
     7
370
     0
100
AcDbSpline
210
0.0
220
0.0
230
1.0
 70
     8
 71
     3
 72
    16
 73
    12
 74
     0
 42
0.0000000001
 43
0.0000000001
 40
0.0
 40
0.0
 40
0.0
 40
0.0
 40
0.25
 40
0.25
 40
0.25
 40
0.25
 40
0.5
 40
0.5
 40
0.5
 40
0.5
 40
1.0
 40
1.0
 40
1.0
 40
1.0
 10
1209.274098528483
 20
564.5611926639899
 30
0.0
 10
1209.274098528483
 20
564.5611926639899
 30
0.0
 10
1209.039577087112
 20
565.2648564880739
 30
0.0
 10
1209.039577087112
 20
565.2648564880739
 30
0.0
 10
1209.039577087112
 20
565.2648564880739
 30
0.0
 10
1209.039577087112
 20
565.2648564880739
 30
0.0
 10
1208.453223733702
 20
565.8513093414608
 30
0.0
 10
1208.453223733702
 20
565.8513093414608
 30
0.0
 10
1208.453223733702
 20
565.8513093414608
 30
0.0
 10
1208.453223733702
 20
565.8513093414608
 30
0.0
 10
1207.63214993897
 20
566.0858307828305
 30
0.0
 10
1207.63214993897
 20
566.0858307828305
 30
0.0
  0
SPLINE
  5
211
330
1F
100
AcDbEntity
  8
layer 1
 62
     7
370
     0
100
AcDbSpline
210
0.0
220
0.0
230
1.0
 70
     8
 71
     3
 72
    32
 73
    28
 74
     0
 42
0.0000000001
 43
0.0000000001
 40
0.0
 40
0.0
 40
0.0
 40
0.0
 40
0.125
 40
0.125
 40
0.125
 40
0.125
 40
0.25
 40
0.25
 40
0.25
 40
0.25
 40
0.375
 40
0.375
 40
0.375
 40
0.375
 40
0.5
 40
0.5
 40
0.5
 40
0.5
 40
0.625
 40
0.625
 40
0.625
 40
0.625
 40
0.75
 40
0.75
 40
0.75
 40
0.75
 40
1.0
 40
1.0
 40
1.0
 40
1.0
 10
1209.274098528483
 20
564.5611926639899
 30
0.0
 10
1209.274098528483
 20
564.5611926639899
 30
0.0
 10
1209.625930440526
 20
551.7772368599787
 30
0.0
 10
1209.625930440526
 20
551.7772368599787
 30
0.0
 10
1209.625930440526
 20
551.7772368599787
 30
0.0
 10
1209.625930440526
 20
551.7772368599787
 30
0.0
 10
1209.156887557784
 20
551.5427154186091
 30
0.0
 10
1209.156887557784
 20
551.5427154186091
 30
0.0
 10
1209.156887557784
 20
551.5427154186091
 30
0.0
 10
1209.156887557784
 20
551.5427154186091
 30
0.0
 10
1208.687745175071
 20
564.5611926639899
 30
0.0
 10
1208.687745175071
 20
564.5611926639899
 30
0.0
 10
1208.687745175071
 20
564.5611926639899
 30
0.0
 10
1208.687745175071
 20
564.5611926639899
 30
0.0
 10
1208.570434704399
 20
565.0302355467292
 30
0.0
 10
1208.570434704399
 20
565.0302355467292
 30
0.0
 10
1208.570434704399
 20
565.0302355467292
 30
0.0
 10
1208.570434704399
 20
565.0302355467292
 30
0.0
 10
1208.218503292382
 20
565.3820674587707
 30
0.0
 10
1208.218503292382
 20
565.3820674587707
 30
0.0
 10
1208.218503292382
 20
565.3820674587707
 30
0.0
 10
1208.218503292382
 20
565.3820674587707
 30
0.0
 10
1207.63214993897
 20
565.4993779294434
 30
0.0
 10
1207.63214993897
 20
565.4993779294434
 30
0.0
 10
1207.63214993897
 20
565.4993779294434
 30
0.0
 10
1207.63214993897
 20
565.4993779294434
 30
0.0
 10
1200.829635139598
 20
565.3820674587707
 30
0.0
 10
1200.829635139598
 20
565.3820674587707
 30
0.0
  0
SPLINE
  5
212
330
1F
100
AcDbEntity
  8
layer 1
 62
     7
370
     0
100
AcDbSpline
210
0.0
220
0.0
230
1.0
 70
    24
 71
     3
 72
     8
 73
     4
 74
     0
 42
0.0000000001
 43
0.0000000001
 40
0.0
 40
0.0
 40
0.0
 40
0.0
 40
1.0
 40
1.0
 40
1.0
 40
1.0
 10
1207.63214993897
 20
566.0858307828305
 30
0.0
 10
1207.63214993897
 20
566.0858307828305
 30
0.0
 10
1200.712523668876
 20
565.9686198121328
 30
0.0
 10
1200.712523668876
 20
565.9686198121328
 30
0.0
  0
SPLINE
  5
213
330
1F
100
AcDbEntity
  8
layer 1
 62
     7
370
     0
100
AcDbSpline
210
0.0
220
0.0
230
1.0
 70
     8
 71
     3
 72
    12
 73
     8
 74
     0
 42
0.0000000001
 43
0.0000000001
 40
0.0
 40
0.0
 40
0.0
 40
0.0
 40
0.3333333333333333
 40
0.3333333333333333
 40
0.3333333333333333
 40
0.3333333333333333
 40
1.0
 40
1.0
 40
1.0
 40
1.0
 10
1187.224804540806
 20
570.0734912859149
 30
0.0
 10
1187.224804540806
 20
570.0734912859149
 30
0.0
 10
1187.224804540806
 20
566.5549731655444
 30
0.0
 10
1187.224804540806
 20
566.5549731655444
 30
0.0
 10
1187.224804540806
 20
566.5549731655444
 30
0.0
 10
1187.224804540806
 20
566.5549731655444
 30
0.0
 10
1168.811239644197
 20
566.5549731655444
 30
0.0
 10
1168.811239644197
 20
566.5549731655444
 30
0.0
  0
SPLINE
  5
214
330
1F
100
AcDbEntity
  8
layer 1
 62
     7
370
     0
100
AcDbSpline
210
0.0
220
0.0
230
1.0
 70
    24
 71
     3
 72
     8
 73
     4
 74
     0
 42
0.0000000001
 43
0.0000000001
 40
0.0
 40
0.0
 40
0.0
 40
0.0
 40
1.0
 40
1.0
 40
1.0
 40
1.0
 10
1203.996321347927
 20
575.1167470251012
 30
0.0
 10
1203.996321347927
 20
575.1167470251012
 30
0.0
 10
1166.4656272306
 20
575.1167470251012
 30
0.0
 10
1166.4656272306
 20
575.1167470251012
 30
0.0
  0
SPLINE
  5
215
330
1F
100
AcDbEntity
  8
layer 1
 62
     7
370
     0
100
AcDbSpline
210
0.0
220
0.0
230
1.0
 70
     8
 71
     3
 72
    16
 73
    12
 74
     0
 42
0.0000000001
 43
0.0000000001
 40
0.0
 40
0.0
 40
0.0
 40
0.0
 40
0.25
 40
0.25
 40
0.25
 40
0.25
 40
0.5
 40
0.5
 40
0.5
 40
0.5
 40
1.0
 40
1.0
 40
1.0
 40
1.0
 10
1205.403748496071
 20
573.8265308476554
 30
0.0
 10
1205.403748496071
 20
573.8265308476554
 30
0.0
 10
1205.1692270547
 20
574.5301946717388
 30
0.0
 10
1205.1692270547
 20
574.5301946717388
 30
0.0
 10
1205.1692270547
 20
574.5301946717388
 30
0.0
 10
1205.1692270547
 20
574.5301946717388
 30
0.0
 10
1204.700084671986
 20
574.9994365544291
 30
0.0
 10
1204.700084671986
 20
574.9994365544291
 30
0.0
 10
1204.700084671986
 20
574.9994365544291
 30
0.0
 10
1204.700084671986
 20
574.9994365544291
 30
0.0
 10
1203.996321347927
 20
575.1167470251012
 30
0.0
 10
1203.996321347927
 20
575.1167470251012
 30
0.0
  0
SPLINE
  5
216
330
1F
100
AcDbEntity
  8
layer 1
 62
     7
370
     0
100
AcDbSpline
210
0.0
220
0.0
230
1.0
 70
     8
 71
     3
 72
    16
 73
    12
 74
     0
 42
0.0000000001
 43
0.0000000001
 40
0.0
 40
0.0
 40
0.0
 40
0.0
 40
0.25
 40
0.25
 40
0.25
 40
0.25
 40
0.5
 40
0.5
 40
0.5
 40
0.5
 40
1.0
 40
1.0
 40
1.0
 40
1.0
 10
1205.403748496071
 20
573.8265308476554
 30
0.0
 10
1205.403748496071
 20
573.8265308476554
 30
0.0
 10
1205.403748496071
 20
566.5549731655444
 30
0.0
 10
1205.403748496071
 20
566.5549731655444
 30
0.0
 10
1205.403748496071
 20
566.5549731655444
 30
0.0
 10
1205.403748496071
 20
566.5549731655444
 30
0.0
 10
1190.156969307766
 20
566.5549731655444
 30
0.0
 10
1190.156969307766
 20
566.5549731655444
 30
0.0
 10
1190.156969307766
 20
566.5549731655444
 30
0.0
 10
1190.156969307766
 20
566.5549731655444
 30
0.0
 10
1190.156969307766
 20
570.0734912859149
 30
0.0
 10
1190.156969307766
 20
570.0734912859149
 30
0.0
  0
SPLINE
  5
217
330
1F
100
AcDbEntity
  8
layer 1
 62
     7
370
     0
100
AcDbSpline
210
0.0
220
0.0
230
1.0
 70
     8
 71
     3
 72
    24
 73
    20
 74
     0
 42
0.0000000001
 43
0.0000000001
 40
0.0
 40
0.0
 40
0.0
 40
0.0
 40
0.1666666666666667
 40
0.1666666666666667
 40
0.1666666666666667
 40
0.1666666666666667
 40
0.3333333333333333
 40
0.3333333333333333
 40
0.3333333333333333
 40
0.3333333333333333
 40
0.5
 40
0.5
 40
0.5
 40
0.5
 40
0.6666666666666666
 40
0.6666666666666666
 40
0.6666666666666666
 40
0.6666666666666666
 40
1.0
 40
1.0
 40
1.0
 40
1.0
 10
1166.4656272306
 20
575.1167470251012
 30
0.0
 10
1166.4656272306
 20
575.1167470251012
 30
0.0
 10
1167.169291054685
 20
574.2956732303696
 30
0.0
 10
1167.169291054685
 20
574.2956732303696
 30
0.0
 10
1167.169291054685
 20
574.2956732303696
 30
0.0
 10
1167.169291054685
 20
574.2956732303696
 30
0.0
 10
1167.521222466701
 20
573.2401774942436
 30
0.0
 10
1167.521222466701
 20
573.2401774942436
 30
0.0
 10
1167.521222466701
 20
573.2401774942436
 30
0.0
 10
1167.521222466701
 20
573.2401774942436
 30
0.0
 10
1167.521222466701
 20
570.8944655806712
 30
0.0
 10
1167.521222466701
 20
570.8944655806712
 30
0.0
 10
1167.521222466701
 20
570.8944655806712
 30
0.0
 10
1167.521222466701
 20
570.8944655806712
 30
0.0
 10
1167.755743908071
 20
568.5487536670996
 30
0.0
 10
1167.755743908071
 20
568.5487536670996
 30
0.0
 10
1167.755743908071
 20
568.5487536670996
 30
0.0
 10
1167.755743908071
 20
568.5487536670996
 30
0.0
 10
1168.811239644197
 20
566.5549731655444
 30
0.0
 10
1168.811239644197
 20
566.5549731655444
 30
0.0
  0
SPLINE
  5
218
330
1F
100
AcDbEntity
  8
layer 1
 62
     7
370
     0
100
AcDbSpline
210
0.0
220
0.0
230
1.0
 70
     8
 71
     3
 72
    32
 73
    28
 74
     0
 42
0.0000000001
 43
0.0000000001
 40
0.0
 40
0.0
 40
0.0
 40
0.0
 40
0.125
 40
0.125
 40
0.125
 40
0.125
 40
0.25
 40
0.25
 40
0.25
 40
0.25
 40
0.375
 40
0.375
 40
0.375
 40
0.375
 40
0.5
 40
0.5
 40
0.5
 40
0.5
 40
0.625
 40
0.625
 40
0.625
 40
0.625
 40
0.75
 40
0.75
 40
0.75
 40
0.75
 40
1.0
 40
1.0
 40
1.0
 40
1.0
 10
1155.792762398817
 20
580.6290456470269
 30
0.0
 10
1155.792762398817
 20
580.6290456470269
 30
0.0
 10
1155.558240957446
 20
580.3945242056563
 30
0.0
 10
1155.558240957446
 20
580.3945242056563
 30
0.0
 10
1155.558240957446
 20
580.3945242056563
 30
0.0
 10
1155.558240957446
 20
580.3945242056563
 30
0.0
 10
1155.089098574733
 20
580.3945242056563
 30
0.0
 10
1155.089098574733
 20
580.3945242056563
 30
0.0
 10
1155.089098574733
 20
580.3945242056563
 30
0.0
 10
1155.089098574733
 20
580.3945242056563
 30
0.0
 10
1154.854577133363
 20
580.6290456470269
 30
0.0
 10
1154.854577133363
 20
580.6290456470269
 30
0.0
 10
1154.854577133363
 20
580.6290456470269
 30
0.0
 10
1154.854577133363
 20
580.6290456470269
 30
0.0
 10
1154.854577133363
 20
581.4500199417827
 30
0.0
 10
1154.854577133363
 20
581.4500199417827
 30
0.0
 10
1154.854577133363
 20
581.4500199417827
 30
0.0
 10
1154.854577133363
 20
581.4500199417827
 30
0.0
 10
1155.089098574733
 20
581.6845413831527
 30
0.0
 10
1155.089098574733
 20
581.6845413831527
 30
0.0
 10
1155.089098574733
 20
581.6845413831527
 30
0.0
 10
1155.089098574733
 20
581.6845413831527
 30
0.0
 10
1155.558240957446
 20
581.6845413831527
 30
0.0
 10
1155.558240957446
 20
581.6845413831527
 30
0.0
 10
1155.558240957446
 20
581.6845413831527
 30
0.0
 10
1155.558240957446
 20
581.6845413831527
 30
0.0
 10
1155.792762398817
 20
581.4500199417827
 30
0.0
 10
1155.792762398817
 20
581.4500199417827
 30
0.0
  0
SPLINE
  5
219
330
1F
100
AcDbEntity
  8
layer 1
 62
     7
370
     0
100
AcDbSpline
210
0.0
220
0.0
230
1.0
 70
    11
 71
     3
 72
    20
 73
    16
 74
     0
 42
0.0000000001
 43
0.0000000001
 40
0.0
 40
0.0
 40
0.0
 40
0.0
 40
0.2
 40
0.2
 40
0.2
 40
0.2
 40
0.4
 40
0.4
 40
0.4
 40
0.4
 40
0.6
 40
0.6
 40
0.6
 40
0.6
 40
1.0
 40
1.0
 40
1.0
 40
1.0
 10
1156.144594310859
 20
580.3945242056563
 30
0.0
 10
1156.144594310859
 20
580.3945242056563
 30
0.0
 10
1156.144594310859
 20
581.6845413831527
 30
0.0
 10
1156.144594310859
 20
581.6845413831527
 30
0.0
 10
1156.144594310859
 20
581.6845413831527
 30
0.0
 10
1156.144594310859
 20
581.6845413831527
 30
0.0
 10
1157.082879076288
 20
581.6845413831527
 30
0.0
 10
1157.082879076288
 20
581.6845413831527
 30
0.0
 10
1157.082879076288
 20
581.6845413831527
 30
0.0
 10
1157.082879076288
 20
581.6845413831527
 30
0.0
 10
1157.082879076288
 20
580.3945242056563
 30
0.0
 10
1157.082879076288
 20
580.3945242056563
 30
0.0
 10
1157.082879076288
 20
580.3945242056563
 30
0.0
 10
1157.082879076288
 20
580.3945242056563
 30
0.0
 10
1156.144594310859
 20
580.3945242056563
 30
0.0
 10
1156.144594310859
 20
580.3945242056563
 30
0.0
  0
SPLINE
  5
21A
330
1F
100
AcDbEntity
  8
layer 1
 62
     7
370
     0
100
AcDbSpline
210
0.0
220
0.0
230
1.0
 70
     8
 71
     3
 72
    24
 73
    20
 74
     0
 42
0.0000000001
 43
0.0000000001
 40
0.0
 40
0.0
 40
0.0
 40
0.0
 40
0.1666666666666667
 40
0.1666666666666667
 40
0.1666666666666667
 40
0.1666666666666667
 40
0.3333333333333333
 40
0.3333333333333333
 40
0.3333333333333333
 40
0.3333333333333333
 40
0.5
 40
0.5
 40
0.5
 40
0.5
 40
0.6666666666666666
 40
0.6666666666666666
 40
0.6666666666666666
 40
0.6666666666666666
 40
1.0
 40
1.0
 40
1.0
 40
1.0
 10
1157.434810488305
 20
581.6845413831527
 30
0.0
 10
1157.434810488305
 20
581.6845413831527
 30
0.0
 10
1157.434810488305
 20
580.6290456470269
 30
0.0
 10
1157.434810488305
 20
580.6290456470269
 30
0.0
 10
1157.434810488305
 20
580.6290456470269
 30
0.0
 10
1157.434810488305
 20
580.6290456470269
 30
0.0
 10
1157.669331929674
 20
580.3945242056563
 30
0.0
 10
1157.669331929674
 20
580.3945242056563
 30
0.0
 10
1157.669331929674
 20
580.3945242056563
 30
0.0
 10
1157.669331929674
 20
580.3945242056563
 30
0.0
 10
1158.138573812364
 20
580.3945242056563
 30
0.0
 10
1158.138573812364
 20
580.3945242056563
 30
0.0
 10
1158.138573812364
 20
580.3945242056563
 30
0.0
 10
1158.138573812364
 20
580.3945242056563
 30
0.0
 10
1158.373095253733
 20
580.6290456470269
 30
0.0
 10
1158.373095253733
 20
580.6290456470269
 30
0.0
 10
1158.373095253733
 20
580.6290456470269
 30
0.0
 10
1158.373095253733
 20
580.6290456470269
 30
0.0
 10
1158.373095253733
 20
581.6845413831527
 30
0.0
 10
1158.373095253733
 20
581.6845413831527
 30
0.0
  0
SPLINE
  5
21B
330
1F
100
AcDbEntity
  8
layer 1
 62
     7
370
     0
100
AcDbSpline
210
0.0
220
0.0
230
1.0
 70
     8
 71
     3
 72
    16
 73
    12
 74
     0
 42
0.0000000001
 43
0.0000000001
 40
0.0
 40
0.0
 40
0.0
 40
0.0
 40
0.25
 40
0.25
 40
0.25
 40
0.25
 40
0.5
 40
0.5
 40
0.5
 40
0.5
 40
1.0
 40
1.0
 40
1.0
 40
1.0
 10
1158.724927165775
 20
580.3945242056563
 30
0.0
 10
1158.724927165775
 20
580.3945242056563
 30
0.0
 10
1158.724927165775
 20
581.6845413831527
 30
0.0
 10
1158.724927165775
 20
581.6845413831527
 30
0.0
 10
1158.724927165775
 20
581.6845413831527
 30
0.0
 10
1158.724927165775
 20
581.6845413831527
 30
0.0
 10
1159.663112431228
 20
580.3945242056563
 30
0.0
 10
1159.663112431228
 20
580.3945242056563
 30
0.0
 10
1159.663112431228
 20
580.3945242056563
 30
0.0
 10
1159.663112431228
 20
580.3945242056563
 30
0.0
 10
1159.663112431228
 20
581.6845413831527
 30
0.0
 10
1159.663112431228
 20
581.6845413831527
 30
0.0
  0
SPLINE
  5
21C
330
1F
100
AcDbEntity
  8
layer 1
 62
     7
370
     0
100
AcDbSpline
210
0.0
220
0.0
230
1.0
 70
    24
 71
     3
 72
     8
 73
     4
 74
     0
 42
0.0000000001
 43
0.0000000001
 40
0.0
 40
0.0
 40
0.0
 40
0.0
 40
1.0
 40
1.0
 40
1.0
 40
1.0
 10
1160.014944343272
 20
581.6845413831527
 30
0.0
 10
1160.014944343272
 20
581.6845413831527
 30
0.0
 10
1160.953328608675
 20
581.6845413831527
 30
0.0
 10
1160.953328608675
 20
581.6845413831527
 30
0.0
  0
SPLINE
  5
21D
330
1F
100
AcDbEntity
  8
layer 1
 62
     7
370
     0
100
AcDbSpline
210
0.0
220
0.0
230
1.0
 70
    24
 71
     3
 72
     8
 73
     4
 74
     0
 42
0.0000000001
 43
0.0000000001
 40
0.0
 40
0.0
 40
0.0
 40
0.0
 40
1.0
 40
1.0
 40
1.0
 40
1.0
 10
1160.48418622596
 20
581.6845413831527
 30
0.0
 10
1160.48418622596
 20
581.6845413831527
 30
0.0
 10
1160.48418622596
 20
580.3945242056563
 30
0.0
 10
1160.48418622596
 20
580.3945242056563
 30
0.0
  0
SPLINE
  5
21E
330
1F
100
AcDbEntity
  8
layer 1
 62
     7
370
     0
100
AcDbSpline
210
0.0
220
0.0
230
1.0
 70
     8
 71
     3
 72
    12
 73
     8
 74
     0
 42
0.0000000001
 43
0.0000000001
 40
0.0
 40
0.0
 40
0.0
 40
0.0
 40
0.3333333333333333
 40
0.3333333333333333
 40
0.3333333333333333
 40
0.3333333333333333
 40
1.0
 40
1.0
 40
1.0
 40
1.0
 10
1161.305160520716
 20
580.3945242056563
 30
0.0
 10
1161.305160520716
 20
580.3945242056563
 30
0.0
 10
1161.305160520716
 20
581.6845413831527
 30
0.0
 10
1161.305160520716
 20
581.6845413831527
 30
0.0
 10
1161.305160520716
 20
581.6845413831527
 30
0.0
 10
1161.305160520716
 20
581.6845413831527
 30
0.0
 10
1162.243445286146
 20
581.6845413831527
 30
0.0
 10
1162.243445286146
 20
581.6845413831527
 30
0.0
  0
SPLINE
  5
21F
330
1F
100
AcDbEntity
  8
layer 1
 62
     7
370
     0
100
AcDbSpline
210
0.0
220
0.0
230
1.0
 70
    24
 71
     3
 72
     8
 73
     4
 74
     0
 42
0.0000000001
 43
0.0000000001
 40
0.0
 40
0.0
 40
0.0
 40
0.0
 40
1.0
 40
1.0
 40
1.0
 40
1.0
 10
1161.305160520716
 20
580.9808775590686
 30
0.0
 10
1161.305160520716
 20
580.9808775590686
 30
0.0
 10
1161.774203403456
 20
580.9808775590686
 30
0.0
 10
1161.774203403456
 20
580.9808775590686
 30
0.0
  0
SPLINE
  5
220
330
1F
100
AcDbEntity
  8
layer 1
 62
     7
370
     0
100
AcDbSpline
210
0.0
220
0.0
230
1.0
 70
    24
 71
     3
 72
     8
 73
     4
 74
     0
 42
0.0000000001
 43
0.0000000001
 40
0.0
 40
0.0
 40
0.0
 40
0.0
 40
1.0
 40
1.0
 40
1.0
 40
1.0
 10
1161.305160520716
 20
580.3945242056563
 30
0.0
 10
1161.305160520716
 20
580.3945242056563
 30
0.0
 10
1162.243445286146
 20
580.3945242056563
 30
0.0
 10
1162.243445286146
 20
580.3945242056563
 30
0.0
  0
SPLINE
  5
221
330
1F
100
AcDbEntity
  8
layer 1
 62
     7
370
     0
100
AcDbSpline
210
0.0
220
0.0
230
1.0
 70
     8
 71
     3
 72
    28
 73
    24
 74
     0
 42
0.0000000001
 43
0.0000000001
 40
0.0
 40
0.0
 40
0.0
 40
0.0
 40
0.1428571428571428
 40
0.1428571428571428
 40
0.1428571428571428
 40
0.1428571428571428
 40
0.2857142857142857
 40
0.2857142857142857
 40
0.2857142857142857
 40
0.2857142857142857
 40
0.4285714285714285
 40
0.4285714285714285
 40
0.4285714285714285
 40
0.4285714285714285
 40
0.5714285714285714
 40
0.5714285714285714
 40
0.5714285714285714
 40
0.5714285714285714
 40
0.7142857142857144
 40
0.7142857142857144
 40
0.7142857142857144
 40
0.7142857142857144
 40
1.0
 40
1.0
 40
1.0
 40
1.0
 10
1162.71258766886
 20
580.3945242056563
 30
0.0
 10
1162.71258766886
 20
580.3945242056563
 30
0.0
 10
1162.71258766886
 20
581.6845413831527
 30
0.0
 10
1162.71258766886
 20
581.6845413831527
 30
0.0
 10
1162.71258766886
 20
581.6845413831527
 30
0.0
 10
1162.71258766886
 20
581.6845413831527
 30
0.0
 10
1163.298941022272
 20
581.6845413831527
 30
0.0
 10
1163.298941022272
 20
581.6845413831527
 30
0.0
 10
1163.298941022272
 20
581.6845413831527
 30
0.0
 10
1163.298941022272
 20
581.6845413831527
 30
0.0
 10
1163.533462463641
 20
581.4500199417827
 30
0.0
 10
1163.533462463641
 20
581.4500199417827
 30
0.0
 10
1163.533462463641
 20
581.4500199417827
 30
0.0
 10
1163.533462463641
 20
581.4500199417827
 30
0.0
 10
1163.533462463641
 20
581.2153990004382
 30
0.0
 10
1163.533462463641
 20
581.2153990004382
 30
0.0
 10
1163.533462463641
 20
581.2153990004382
 30
0.0
 10
1163.533462463641
 20
581.2153990004382
 30
0.0
 10
1163.298941022272
 20
580.9808775590686
 30
0.0
 10
1163.298941022272
 20
580.9808775590686
 30
0.0
 10
1163.298941022272
 20
580.9808775590686
 30
0.0
 10
1163.298941022272
 20
580.9808775590686
 30
0.0
 10
1162.71258766886
 20
580.9808775590686
 30
0.0
 10
1162.71258766886
 20
580.9808775590686
 30
0.0
  0
SPLINE
  5
222
330
1F
100
AcDbEntity
  8
layer 1
 62
     7
370
     0
100
AcDbSpline
210
0.0
220
0.0
230
1.0
 70
    24
 71
     3
 72
     8
 73
     4
 74
     0
 42
0.0000000001
 43
0.0000000001
 40
0.0
 40
0.0
 40
0.0
 40
0.0
 40
1.0
 40
1.0
 40
1.0
 40
1.0
 10
1162.829798639557
 20
580.9808775590686
 30
0.0
 10
1162.829798639557
 20
580.9808775590686
 30
0.0
 10
1163.533462463641
 20
580.3945242056563
 30
0.0
 10
1163.533462463641
 20
580.3945242056563
 30
0.0
  0
SPLINE
  5
223
330
1F
100
AcDbEntity
  8
layer 1
 62
     7
370
     0
100
AcDbSpline
210
0.0
220
0.0
230
1.0
 70
    24
 71
     3
 72
     8
 73
     4
 74
     0
 42
0.0000000001
 43
0.0000000001
 40
0.0
 40
0.0
 40
0.0
 40
0.0
 40
1.0
 40
1.0
 40
1.0
 40
1.0
 10
1164.002704346331
 20
581.6845413831527
 30
0.0
 10
1164.002704346331
 20
581.6845413831527
 30
0.0
 10
1164.823678641087
 20
581.6845413831527
 30
0.0
 10
1164.823678641087
 20
581.6845413831527
 30
0.0
  0
SPLINE
  5
224
330
1F
100
AcDbEntity
  8
layer 1
 62
     7
370
     0
100
AcDbSpline
210
0.0
220
0.0
230
1.0
 70
    24
 71
     3
 72
     8
 73
     4
 74
     0
 42
0.0000000001
 43
0.0000000001
 40
0.0
 40
0.0
 40
0.0
 40
0.0
 40
1.0
 40
1.0
 40
1.0
 40
1.0
 10
1164.354536258374
 20
581.6845413831527
 30
0.0
 10
1164.354536258374
 20
581.6845413831527
 30
0.0
 10
1164.354536258374
 20
580.3945242056563
 30
0.0
 10
1164.354536258374
 20
580.3945242056563
 30
0.0
  0
SPLINE
  5
225
330
1F
100
AcDbEntity
  8
layer 1
 62
     7
370
     0
100
AcDbSpline
210
0.0
220
0.0
230
1.0
 70
    11
 71
     3
 72
    20
 73
    16
 74
     0
 42
0.0000000001
 43
0.0000000001
 40
0.0
 40
0.0
 40
0.0
 40
0.0
 40
0.2
 40
0.2
 40
0.2
 40
0.2
 40
0.4
 40
0.4
 40
0.4
 40
0.4
 40
0.6
 40
0.6
 40
0.6
 40
0.6
 40
1.0
 40
1.0
 40
1.0
 40
1.0
 10
1165.292721523828
 20
580.3945242056563
 30
0.0
 10
1165.292721523828
 20
580.3945242056563
 30
0.0
 10
1165.292721523828
 20
581.6845413831527
 30
0.0
 10
1165.292721523828
 20
581.6845413831527
 30
0.0
 10
1165.292721523828
 20
581.6845413831527
 30
0.0
 10
1165.292721523828
 20
581.6845413831527
 30
0.0
 10
1166.113795318559
 20
581.6845413831527
 30
0.0
 10
1166.113795318559
 20
581.6845413831527
 30
0.0
 10
1166.113795318559
 20
581.6845413831527
 30
0.0
 10
1166.113795318559
 20
581.6845413831527
 30
0.0
 10
1166.113795318559
 20
580.3945242056563
 30
0.0
 10
1166.113795318559
 20
580.3945242056563
 30
0.0
 10
1166.113795318559
 20
580.3945242056563
 30
0.0
 10
1166.113795318559
 20
580.3945242056563
 30
0.0
 10
1165.292721523828
 20
580.3945242056563
 30
0.0
 10
1165.292721523828
 20
580.3945242056563
 30
0.0
  0
SPLINE
  5
226
330
1F
100
AcDbEntity
  8
layer 1
 62
     7
370
     0
100
AcDbSpline
210
0.0
220
0.0
230
1.0
 70
     8
 71
     3
 72
    28
 73
    24
 74
     0
 42
0.0000000001
 43
0.0000000001
 40
0.0
 40
0.0
 40
0.0
 40
0.0
 40
0.1428571428571428
 40
0.1428571428571428
 40
0.1428571428571428
 40
0.1428571428571428
 40
0.2857142857142857
 40
0.2857142857142857
 40
0.2857142857142857
 40
0.2857142857142857
 40
0.4285714285714285
 40
0.4285714285714285
 40
0.4285714285714285
 40
0.4285714285714285
 40
0.5714285714285714
 40
0.5714285714285714
 40
0.5714285714285714
 40
0.5714285714285714
 40
0.7142857142857144
 40
0.7142857142857144
 40
0.7142857142857144
 40
0.7142857142857144
 40
1.0
 40
1.0
 40
1.0
 40
1.0
 10
1166.582937701273
 20
580.3945242056563
 30
0.0
 10
1166.582937701273
 20
580.3945242056563
 30
0.0
 10
1166.582937701273
 20
581.6845413831527
 30
0.0
 10
1166.582937701273
 20
581.6845413831527
 30
0.0
 10
1166.582937701273
 20
581.6845413831527
 30
0.0
 10
1166.582937701273
 20
581.6845413831527
 30
0.0
 10
1167.169291054685
 20
581.6845413831527
 30
0.0
 10
1167.169291054685
 20
581.6845413831527
 30
0.0
 10
1167.169291054685
 20
581.6845413831527
 30
0.0
 10
1167.169291054685
 20
581.6845413831527
 30
0.0
 10
1167.403812496054
 20
581.4500199417827
 30
0.0
 10
1167.403812496054
 20
581.4500199417827
 30
0.0
 10
1167.403812496054
 20
581.4500199417827
 30
0.0
 10
1167.403812496054
 20
581.4500199417827
 30
0.0
 10
1167.403812496054
 20
581.2153990004382
 30
0.0
 10
1167.403812496054
 20
581.2153990004382
 30
0.0
 10
1167.403812496054
 20
581.2153990004382
 30
0.0
 10
1167.403812496054
 20
581.2153990004382
 30
0.0
 10
1167.169291054685
 20
580.9808775590686
 30
0.0
 10
1167.169291054685
 20
580.9808775590686
 30
0.0
 10
1167.169291054685
 20
580.9808775590686
 30
0.0
 10
1167.169291054685
 20
580.9808775590686
 30
0.0
 10
1166.582937701273
 20
580.9808775590686
 30
0.0
 10
1166.582937701273
 20
580.9808775590686
 30
0.0
  0
SPLINE
  5
227
330
1F
100
AcDbEntity
  8
layer 1
 62
     7
370
     0
100
AcDbSpline
210
0.0
220
0.0
230
1.0
 70
     8
 71
     3
 72
    12
 73
     8
 74
     0
 42
0.0000000001
 43
0.0000000001
 40
0.0
 40
0.0
 40
0.0
 40
0.0
 40
0.3333333333333333
 40
0.3333333333333333
 40
0.3333333333333333
 40
0.3333333333333333
 40
1.0
 40
1.0
 40
1.0
 40
1.0
 10
1175.848275884938
 20
575.1167470251012
 30
0.0
 10
1175.848275884938
 20
575.1167470251012
 30
0.0
 10
1172.44706823524
 20
580.6290456470269
 30
0.0
 10
1172.44706823524
 20
580.6290456470269
 30
0.0
 10
1172.44706823524
 20
580.6290456470269
 30
0.0
 10
1172.44706823524
 20
580.6290456470269
 30
0.0
 10
1167.521222466701
 20
580.6290456470269
 30
0.0
 10
1167.521222466701
 20
580.6290456470269
 30
0.0
  0
SPLINE
  5
228
330
1F
100
AcDbEntity
  8
layer 1
 62
     7
370
     0
100
AcDbSpline
210
0.0
220
0.0
230
1.0
 70
    24
 71
     3
 72
     8
 73
     4
 74
     0
 42
0.0000000001
 43
0.0000000001
 40
0.0
 40
0.0
 40
0.0
 40
0.0
 40
1.0
 40
1.0
 40
1.0
 40
1.0
 10
1187.928567864865
 20
569.7216593738732
 30
0.0
 10
1187.928567864865
 20
569.7216593738732
 30
0.0
 10
1188.045878335538
 20
569.4871379325036
 30
0.0
 10
1188.045878335538
 20
569.4871379325036
 30
0.0
  0
SPLINE
  5
229
330
1F
100
AcDbEntity
  8
layer 1
 62
     7
370
     0
100
AcDbSpline
210
0.0
220
0.0
230
1.0
 70
     8
 71
     3
 72
    72
 73
    68
 74
     0
 42
0.0000000001
 43
0.0000000001
 40
0.0
 40
0.0
 40
0.0
 40
0.0
 40
0.0555555555555556
 40
0.0555555555555556
 40
0.0555555555555556
 40
0.0555555555555556
 40
0.1111111111111111
 40
0.1111111111111111
 40
0.1111111111111111
 40
0.1111111111111111
 40
0.1666666666666667
 40
0.1666666666666667
 40
0.1666666666666667
 40
0.1666666666666667
 40
0.2222222222222222
 40
0.2222222222222222
 40
0.2222222222222222
 40
0.2222222222222222
 40
0.2777777777777778
 40
0.2777777777777778
 40
0.2777777777777778
 40
0.2777777777777778
 40
0.3333333333333333
 40
0.3333333333333333
 40
0.3333333333333333
 40
0.3333333333333333
 40
0.3888888888888889
 40
0.3888888888888889
 40
0.3888888888888889
 40
0.3888888888888889
 40
0.4444444444444445
 40
0.4444444444444445
 40
0.4444444444444445
 40
0.4444444444444445
 40
0.5
 40
0.5
 40
0.5
 40
0.5
 40
0.5555555555555556
 40
0.5555555555555556
 40
0.5555555555555556
 40
0.5555555555555556
 40
0.6111111111111112
 40
0.6111111111111112
 40
0.6111111111111112
 40
0.6111111111111112
 40
0.6666666666666666
 40
0.6666666666666666
 40
0.6666666666666666
 40
0.6666666666666666
 40
0.7222222222222223
 40
0.7222222222222223
 40
0.7222222222222223
 40
0.7222222222222223
 40
0.7777777777777778
 40
0.7777777777777778
 40
0.7777777777777778
 40
0.7777777777777778
 40
0.8333333333333333
 40
0.8333333333333333
 40
0.8333333333333333
 40
0.8333333333333333
 40
0.8888888888888889
 40
0.8888888888888889
 40
0.8888888888888889
 40
0.8888888888888889
 40
1.0
 40
1.0
 40
1.0
 40
1.0
 10
1188.632231688949
 20
569.6043489032008
 30
0.0
 10
1188.632231688949
 20
569.6043489032008
 30
0.0
 10
1187.928567864865
 20
569.3698274618309
 30
0.0
 10
1187.928567864865
 20
569.3698274618309
 30
0.0
 10
1187.928567864865
 20
569.3698274618309
 30
0.0
 10
1187.928567864865
 20
569.3698274618309
 30
0.0
 10
1188.045878335538
 20
569.2524174911836
 30
0.0
 10
1188.045878335538
 20
569.2524174911836
 30
0.0
 10
1188.045878335538
 20
569.2524174911836
 30
0.0
 10
1188.045878335538
 20
569.2524174911836
 30
0.0
 10
1187.928567864865
 20
569.1353060204612
 30
0.0
 10
1187.928567864865
 20
569.1353060204612
 30
0.0
 10
1187.928567864865
 20
569.1353060204612
 30
0.0
 10
1187.928567864865
 20
569.1353060204612
 30
0.0
 10
1188.163089306235
 20
568.9005855791413
 30
0.0
 10
1188.163089306235
 20
568.9005855791413
 30
0.0
 10
1188.163089306235
 20
568.9005855791413
 30
0.0
 10
1188.163089306235
 20
568.9005855791413
 30
0.0
 10
1187.928567864865
 20
568.783374608444
 30
0.0
 10
1187.928567864865
 20
568.783374608444
 30
0.0
 10
1187.928567864865
 20
568.783374608444
 30
0.0
 10
1187.928567864865
 20
568.783374608444
 30
0.0
 10
1188.163089306235
 20
568.666064137772
 30
0.0
 10
1188.163089306235
 20
568.666064137772
 30
0.0
 10
1188.163089306235
 20
568.666064137772
 30
0.0
 10
1188.163089306235
 20
568.666064137772
 30
0.0
 10
1187.928567864865
 20
568.5487536670996
 30
0.0
 10
1187.928567864865
 20
568.5487536670996
 30
0.0
 10
1187.928567864865
 20
568.5487536670996
 30
0.0
 10
1187.928567864865
 20
568.5487536670996
 30
0.0
 10
1188.163089306235
 20
568.4315426964023
 30
0.0
 10
1188.163089306235
 20
568.4315426964023
 30
0.0
 10
1188.163089306235
 20
568.4315426964023
 30
0.0
 10
1188.163089306235
 20
568.4315426964023
 30
0.0
 10
1187.928567864865
 20
568.1969217550579
 30
0.0
 10
1187.928567864865
 20
568.1969217550579
 30
0.0
 10
1187.928567864865
 20
568.1969217550579
 30
0.0
 10
1187.928567864865
 20
568.1969217550579
 30
0.0
 10
1188.163089306235
 20
568.0797107843602
 30
0.0
 10
1188.163089306235
 20
568.0797107843602
 30
0.0
 10
1188.163089306235
 20
568.0797107843602
 30
0.0
 10
1188.163089306235
 20
568.0797107843602
 30
0.0
 10
1187.928567864865
 20
567.9624003136876
 30
0.0
 10
1187.928567864865
 20
567.9624003136876
 30
0.0
 10
1187.928567864865
 20
567.9624003136876
 30
0.0
 10
1187.928567864865
 20
567.9624003136876
 30
0.0
 10
1188.163089306235
 20
567.7278788723185
 30
0.0
 10
1188.163089306235
 20
567.7278788723185
 30
0.0
 10
1188.163089306235
 20
567.7278788723185
 30
0.0
 10
1188.163089306235
 20
567.7278788723185
 30
0.0
 10
1187.928567864865
 20
567.4931584309984
 30
0.0
 10
1187.928567864865
 20
567.4931584309984
 30
0.0
 10
1187.928567864865
 20
567.4931584309984
 30
0.0
 10
1187.928567864865
 20
567.4931584309984
 30
0.0
 10
1188.163089306235
 20
567.2586369896286
 30
0.0
 10
1188.163089306235
 20
567.2586369896286
 30
0.0
 10
1188.163089306235
 20
567.2586369896286
 30
0.0
 10
1188.163089306235
 20
567.2586369896286
 30
0.0
 10
1187.928567864865
 20
567.024115548259
 30
0.0
 10
1187.928567864865
 20
567.024115548259
 30
0.0
 10
1187.928567864865
 20
567.024115548259
 30
0.0
 10
1187.928567864865
 20
567.024115548259
 30
0.0
 10
1188.163089306235
 20
566.7894946069146
 30
0.0
 10
1188.163089306235
 20
566.7894946069146
 30
0.0
 10
1188.163089306235
 20
566.7894946069146
 30
0.0
 10
1188.163089306235
 20
566.7894946069146
 30
0.0
 10
1187.928567864865
 20
566.6722836362173
 30
0.0
 10
1187.928567864865
 20
566.6722836362173
 30
0.0
  0
SPLINE
  5
22A
330
1F
100
AcDbEntity
  8
layer 1
 62
     7
370
     0
100
AcDbSpline
210
0.0
220
0.0
230
1.0
 70
     8
 71
     3
 72
    80
 73
    76
 74
     0
 42
0.0000000001
 43
0.0000000001
 40
0.0
 40
0.0
 40
0.0
 40
0.0
 40
0.05
 40
0.05
 40
0.05
 40
0.05
 40
0.1
 40
0.1
 40
0.1
 40
0.1
 40
0.15
 40
0.15
 40
0.15
 40
0.15
 40
0.2
 40
0.2
 40
0.2
 40
0.2
 40
0.25
 40
0.25
 40
0.25
 40
0.25
 40
0.3
 40
0.3
 40
0.3
 40
0.3
 40
0.35
 40
0.35
 40
0.35
 40
0.35
 40
0.4
 40
0.4
 40
0.4
 40
0.4
 40
0.45
 40
0.45
 40
0.45
 40
0.45
 40
0.5
 40
0.5
 40
0.5
 40
0.5
 40
0.55
 40
0.55
 40
0.55
 40
0.55
 40
0.6
 40
0.6
 40
0.6
 40
0.6
 40
0.65
 40
0.65
 40
0.65
 40
0.65
 40
0.7
 40
0.7
 40
0.7
 40
0.7
 40
0.75
 40
0.75
 40
0.75
 40
0.75
 40
0.8
 40
0.8
 40
0.8
 40
0.8
 40
0.85
 40
0.85
 40
0.85
 40
0.85
 40
0.9
 40
0.9
 40
0.9
 40
0.9
 40
1.0
 40
1.0
 40
1.0
 40
1.0
 10
1189.453305483681
 20
566.2031412535029
 30
0.0
 10
1189.453305483681
 20
566.2031412535029
 30
0.0
 10
1189.218585042361
 20
566.4376626948722
 30
0.0
 10
1189.218585042361
 20
566.4376626948722
 30
0.0
 10
1189.218585042361
 20
566.4376626948722
 30
0.0
 10
1189.218585042361
 20
566.4376626948722
 30
0.0
 10
1189.453305483681
 20
566.6722836362173
 30
0.0
 10
1189.453305483681
 20
566.6722836362173
 30
0.0
 10
1189.453305483681
 20
566.6722836362173
 30
0.0
 10
1189.453305483681
 20
566.6722836362173
 30
0.0
 10
1189.218585042361
 20
566.7894946069146
 30
0.0
 10
1189.218585042361
 20
566.7894946069146
 30
0.0
 10
1189.218585042361
 20
566.7894946069146
 30
0.0
 10
1189.218585042361
 20
566.7894946069146
 30
0.0
 10
1189.453305483681
 20
567.024115548259
 30
0.0
 10
1189.453305483681
 20
567.024115548259
 30
0.0
 10
1189.453305483681
 20
567.024115548259
 30
0.0
 10
1189.453305483681
 20
567.024115548259
 30
0.0
 10
1189.218585042361
 20
567.2586369896286
 30
0.0
 10
1189.218585042361
 20
567.2586369896286
 30
0.0
 10
1189.218585042361
 20
567.2586369896286
 30
0.0
 10
1189.218585042361
 20
567.2586369896286
 30
0.0
 10
1189.453305483681
 20
567.4931584309984
 30
0.0
 10
1189.453305483681
 20
567.4931584309984
 30
0.0
 10
1189.453305483681
 20
567.4931584309984
 30
0.0
 10
1189.453305483681
 20
567.4931584309984
 30
0.0
 10
1189.218585042361
 20
567.7278788723185
 30
0.0
 10
1189.218585042361
 20
567.7278788723185
 30
0.0
 10
1189.218585042361
 20
567.7278788723185
 30
0.0
 10
1189.218585042361
 20
567.7278788723185
 30
0.0
 10
1189.453305483681
 20
567.9624003136876
 30
0.0
 10
1189.453305483681
 20
567.9624003136876
 30
0.0
 10
1189.453305483681
 20
567.9624003136876
 30
0.0
 10
1189.453305483681
 20
567.9624003136876
 30
0.0
 10
1189.218585042361
 20
568.0797107843602
 30
0.0
 10
1189.218585042361
 20
568.0797107843602
 30
0.0
 10
1189.218585042361
 20
568.0797107843602
 30
0.0
 10
1189.218585042361
 20
568.0797107843602
 30
0.0
 10
1189.453305483681
 20
568.1969217550579
 30
0.0
 10
1189.453305483681
 20
568.1969217550579
 30
0.0
 10
1189.453305483681
 20
568.1969217550579
 30
0.0
 10
1189.453305483681
 20
568.1969217550579
 30
0.0
 10
1189.218585042361
 20
568.4315426964023
 30
0.0
 10
1189.218585042361
 20
568.4315426964023
 30
0.0
 10
1189.218585042361
 20
568.4315426964023
 30
0.0
 10
1189.218585042361
 20
568.4315426964023
 30
0.0
 10
1189.453305483681
 20
568.5487536670996
 30
0.0
 10
1189.453305483681
 20
568.5487536670996
 30
0.0
 10
1189.453305483681
 20
568.5487536670996
 30
0.0
 10
1189.453305483681
 20
568.5487536670996
 30
0.0
 10
1189.218585042361
 20
568.666064137772
 30
0.0
 10
1189.218585042361
 20
568.666064137772
 30
0.0
 10
1189.218585042361
 20
568.666064137772
 30
0.0
 10
1189.218585042361
 20
568.666064137772
 30
0.0
 10
1189.453305483681
 20
568.783374608444
 30
0.0
 10
1189.453305483681
 20
568.783374608444
 30
0.0
 10
1189.453305483681
 20
568.783374608444
 30
0.0
 10
1189.453305483681
 20
568.783374608444
 30
0.0
 10
1189.218585042361
 20
568.9005855791413
 30
0.0
 10
1189.218585042361
 20
568.9005855791413
 30
0.0
 10
1189.218585042361
 20
568.9005855791413
 30
0.0
 10
1189.218585042361
 20
568.9005855791413
 30
0.0
 10
1189.453305483681
 20
569.1353060204612
 30
0.0
 10
1189.453305483681
 20
569.1353060204612
 30
0.0
 10
1189.453305483681
 20
569.1353060204612
 30
0.0
 10
1189.453305483681
 20
569.1353060204612
 30
0.0
 10
1189.218585042361
 20
569.2524174911836
 30
0.0
 10
1189.218585042361
 20
569.2524174911836
 30
0.0
 10
1189.218585042361
 20
569.2524174911836
 30
0.0
 10
1189.218585042361
 20
569.2524174911836
 30
0.0
 10
1189.453305483681
 20
569.3698274618309
 30
0.0
 10
1189.453305483681
 20
569.3698274618309
 30
0.0
 10
1189.453305483681
 20
569.3698274618309
 30
0.0
 10
1189.453305483681
 20
569.3698274618309
 30
0.0
 10
1188.632231688949
 20
569.6043489032008
 30
0.0
 10
1188.632231688949
 20
569.6043489032008
 30
0.0
  0
SPLINE
  5
22B
330
1F
100
AcDbEntity
  8
layer 1
 62
     7
370
     0
100
AcDbSpline
210
0.0
220
0.0
230
1.0
 70
    24
 71
     3
 72
     8
 73
     4
 74
     0
 42
0.0000000001
 43
0.0000000001
 40
0.0
 40
0.0
 40
0.0
 40
0.0
 40
1.0
 40
1.0
 40
1.0
 40
1.0
 10
1189.453305483681
 20
569.7216593738732
 30
0.0
 10
1189.453305483681
 20
569.7216593738732
 30
0.0
 10
1189.218585042361
 20
569.4871379325036
 30
0.0
 10
1189.218585042361
 20
569.4871379325036
 30
0.0
  0
SPLINE
  5
22C
330
1F
100
AcDbEntity
  8
layer 1
 62
     7
370
     0
100
AcDbSpline
210
0.0
220
0.0
230
1.0
 70
    24
 71
     3
 72
     8
 73
     4
 74
     0
 42
0.0000000001
 43
0.0000000001
 40
0.0
 40
0.0
 40
0.0
 40
0.0
 40
1.0
 40
1.0
 40
1.0
 40
1.0
 10
1187.928567864865
 20
563.3882869572162
 30
0.0
 10
1187.928567864865
 20
563.3882869572162
 30
0.0
 10
1185.817377392663
 20
563.3882869572162
 30
0.0
 10
1185.817377392663
 20
563.3882869572162
 30
0.0
  0
SPLINE
  5
22D
330
1F
100
AcDbEntity
  8
layer 1
 62
     7
370
     0
100
AcDbSpline
210
0.0
220
0.0
230
1.0
 70
    24
 71
     3
 72
     8
 73
     4
 74
     0
 42
0.0000000001
 43
0.0000000001
 40
0.0
 40
0.0
 40
0.0
 40
0.0
 40
1.0
 40
1.0
 40
1.0
 40
1.0
 10
1187.224804540806
 20
566.5549731655444
 30
0.0
 10
1187.224804540806
 20
566.5549731655444
 30
0.0
 10
1168.811239644197
 20
566.5549731655444
 30
0.0
 10
1168.811239644197
 20
566.5549731655444
 30
0.0
  0
SPLINE
  5
22E
330
1F
100
AcDbEntity
  8
layer 1
 62
     7
370
     0
100
AcDbSpline
210
0.0
220
0.0
230
1.0
 70
    24
 71
     3
 72
     8
 73
     4
 74
     0
 42
0.0000000001
 43
0.0000000001
 40
0.0
 40
0.0
 40
0.0
 40
0.0
 40
1.0
 40
1.0
 40
1.0
 40
1.0
 10
1187.928567864865
 20
564.4438821933174
 30
0.0
 10
1187.928567864865
 20
564.4438821933174
 30
0.0
 10
1175.261922531526
 20
564.7957141053596
 30
0.0
 10
1175.261922531526
 20
564.7957141053596
 30
0.0
  0
SPLINE
  5
22F
330
1F
100
AcDbEntity
  8
layer 1
 62
     7
370
     0
100
AcDbSpline
210
0.0
220
0.0
230
1.0
 70
    24
 71
     3
 72
     8
 73
     4
 74
     0
 42
0.0000000001
 43
0.0000000001
 40
0.0
 40
0.0
 40
0.0
 40
0.0
 40
1.0
 40
1.0
 40
1.0
 40
1.0
 10
1187.928567864865
 20
563.5055974278889
 30
0.0
 10
1187.928567864865
 20
563.5055974278889
 30
0.0
 10
1174.792680648837
 20
563.8575288399058
 30
0.0
 10
1174.792680648837
 20
563.8575288399058
 30
0.0
  0
SPLINE
  5
230
330
1F
100
AcDbEntity
  8
layer 1
 62
     7
370
     0
100
AcDbSpline
210
0.0
220
0.0
230
1.0
 70
    24
 71
     3
 72
     8
 73
     4
 74
     0
 42
0.0000000001
 43
0.0000000001
 40
0.0
 40
0.0
 40
0.0
 40
0.0
 40
1.0
 40
1.0
 40
1.0
 40
1.0
 10
1189.570416954403
 20
563.3882869572162
 30
0.0
 10
1189.570416954403
 20
563.3882869572162
 30
0.0
 10
1189.570416954403
 20
563.1537655158463
 30
0.0
 10
1189.570416954403
 20
563.1537655158463
 30
0.0
  0
SPLINE
  5
231
330
1F
100
AcDbEntity
  8
layer 1
 62
     7
370
     0
100
AcDbSpline
210
0.0
220
0.0
230
1.0
 70
    24
 71
     3
 72
     8
 73
     4
 74
     0
 42
0.0000000001
 43
0.0000000001
 40
0.0
 40
0.0
 40
0.0
 40
0.0
 40
1.0
 40
1.0
 40
1.0
 40
1.0
 10
1187.811157894218
 20
563.3882869572162
 30
0.0
 10
1187.811157894218
 20
563.3882869572162
 30
0.0
 10
1187.811157894218
 20
563.1537655158463
 30
0.0
 10
1187.811157894218
 20
563.1537655158463
 30
0.0
  0
SPLINE
  5
232
330
1F
100
AcDbEntity
  8
layer 1
 62
     7
370
     0
100
AcDbSpline
210
0.0
220
0.0
230
1.0
 70
     8
 71
     3
 72
    12
 73
     8
 74
     0
 42
0.0000000001
 43
0.0000000001
 40
0.0
 40
0.0
 40
0.0
 40
0.0
 40
0.3333333333333333
 40
0.3333333333333333
 40
0.3333333333333333
 40
0.3333333333333333
 40
1.0
 40
1.0
 40
1.0
 40
1.0
 10
1188.984063600992
 20
562.0982697797208
 30
0.0
 10
1188.984063600992
 20
562.0982697797208
 30
0.0
 10
1189.687826925049
 20
562.4501016917625
 30
0.0
 10
1189.687826925049
 20
562.4501016917625
 30
0.0
 10
1189.687826925049
 20
562.4501016917625
 30
0.0
 10
1189.687826925049
 20
562.4501016917625
 30
0.0
 10
1190.274180278462
 20
563.1537655158463
 30
0.0
 10
1190.274180278462
 20
563.1537655158463
 30
0.0
  0
SPLINE
  5
233
330
1F
100
AcDbEntity
  8
layer 1
 62
     7
370
     0
100
AcDbSpline
210
0.0
220
0.0
230
1.0
 70
     8
 71
     3
 72
    12
 73
     8
 74
     0
 42
0.0000000001
 43
0.0000000001
 40
0.0
 40
0.0
 40
0.0
 40
0.0
 40
0.3333333333333333
 40
0.3333333333333333
 40
0.3333333333333333
 40
0.3333333333333333
 40
1.0
 40
1.0
 40
1.0
 40
1.0
 10
1188.984063600992
 20
562.0982697797208
 30
0.0
 10
1188.984063600992
 20
562.0982697797208
 30
0.0
 10
1188.632231688949
 20
562.4501016917625
 30
0.0
 10
1188.632231688949
 20
562.4501016917625
 30
0.0
 10
1188.632231688949
 20
562.4501016917625
 30
0.0
 10
1188.632231688949
 20
562.4501016917625
 30
0.0
 10
1188.39771024758
 20
562.0982697797208
 30
0.0
 10
1188.39771024758
 20
562.0982697797208
 30
0.0
  0
SPLINE
  5
234
330
1F
100
AcDbEntity
  8
layer 1
 62
     7
370
     0
100
AcDbSpline
210
0.0
220
0.0
230
1.0
 70
    24
 71
     3
 72
     8
 73
     4
 74
     0
 42
0.0000000001
 43
0.0000000001
 40
0.0
 40
0.0
 40
0.0
 40
0.0
 40
1.0
 40
1.0
 40
1.0
 40
1.0
 10
1191.564396455908
 20
563.1537655158463
 30
0.0
 10
1191.564396455908
 20
563.1537655158463
 30
0.0
 10
1185.817377392663
 20
563.1537655158463
 30
0.0
 10
1185.817377392663
 20
563.1537655158463
 30
0.0
  0
SPLINE
  5
235
330
1F
100
AcDbEntity
  8
layer 1
 62
     7
370
     0
100
AcDbSpline
210
0.0
220
0.0
230
1.0
 70
    24
 71
     3
 72
     8
 73
     4
 74
     0
 42
0.0000000001
 43
0.0000000001
 40
0.0
 40
0.0
 40
0.0
 40
0.0
 40
1.0
 40
1.0
 40
1.0
 40
1.0
 10
1191.564396455908
 20
563.3882869572162
 30
0.0
 10
1191.564396455908
 20
563.3882869572162
 30
0.0
 10
1189.453305483681
 20
563.3882869572162
 30
0.0
 10
1189.453305483681
 20
563.3882869572162
 30
0.0
  0
SPLINE
  5
236
330
1F
100
AcDbEntity
  8
layer 1
 62
     7
370
     0
100
AcDbSpline
210
0.0
220
0.0
230
1.0
 70
     8
 71
     3
 72
    12
 73
     8
 74
     0
 42
0.0000000001
 43
0.0000000001
 40
0.0
 40
0.0
 40
0.0
 40
0.0
 40
0.3333333333333333
 40
0.3333333333333333
 40
0.3333333333333333
 40
0.3333333333333333
 40
1.0
 40
1.0
 40
1.0
 40
1.0
 10
1187.107494070134
 20
563.1537655158463
 30
0.0
 10
1187.107494070134
 20
563.1537655158463
 30
0.0
 10
1187.576636452847
 20
562.4501016917625
 30
0.0
 10
1187.576636452847
 20
562.4501016917625
 30
0.0
 10
1187.576636452847
 20
562.4501016917625
 30
0.0
 10
1187.576636452847
 20
562.4501016917625
 30
0.0
 10
1188.39771024758
 20
562.0982697797208
 30
0.0
 10
1188.39771024758
 20
562.0982697797208
 30
0.0
  0
SPLINE
  5
237
330
1F
100
AcDbEntity
  8
layer 1
 62
     7
370
     0
100
AcDbSpline
210
0.0
220
0.0
230
1.0
 70
    24
 71
     3
 72
     8
 73
     4
 74
     0
 42
0.0000000001
 43
0.0000000001
 40
0.0
 40
0.0
 40
0.0
 40
0.0
 40
1.0
 40
1.0
 40
1.0
 40
1.0
 10
1185.817377392663
 20
563.3882869572162
 30
0.0
 10
1185.817377392663
 20
563.3882869572162
 30
0.0
 10
1185.817377392663
 20
563.1537655158463
 30
0.0
 10
1185.817377392663
 20
563.1537655158463
 30
0.0
  0
SPLINE
  5
238
330
1F
100
AcDbEntity
  8
layer 1
 62
     7
370
     0
100
AcDbSpline
210
0.0
220
0.0
230
1.0
 70
    24
 71
     3
 72
     8
 73
     4
 74
     0
 42
0.0000000001
 43
0.0000000001
 40
0.0
 40
0.0
 40
0.0
 40
0.0
 40
1.0
 40
1.0
 40
1.0
 40
1.0
 10
1191.564396455908
 20
563.3882869572162
 30
0.0
 10
1191.564396455908
 20
563.3882869572162
 30
0.0
 10
1191.564396455908
 20
563.1537655158463
 30
0.0
 10
1191.564396455908
 20
563.1537655158463
 30
0.0
  0
SPLINE
  5
239
330
1F
100
AcDbEntity
  8
layer 1
 62
     7
370
     0
100
AcDbSpline
210
0.0
220
0.0
230
1.0
 70
     8
 71
     3
 72
    12
 73
     8
 74
     0
 42
0.0000000001
 43
0.0000000001
 40
0.0
 40
0.0
 40
0.0
 40
0.0
 40
0.3333333333333333
 40
0.3333333333333333
 40
0.3333333333333333
 40
0.3333333333333333
 40
1.0
 40
1.0
 40
1.0
 40
1.0
 10
1174.323637766098
 20
566.5549731655444
 30
0.0
 10
1174.323637766098
 20
566.5549731655444
 30
0.0
 10
1173.502663471341
 20
566.0858307828305
 30
0.0
 10
1173.502663471341
 20
566.0858307828305
 30
0.0
 10
1173.502663471341
 20
566.0858307828305
 30
0.0
 10
1173.502663471341
 20
566.0858307828305
 30
0.0
 10
1174.675370178164
 20
563.8575288399058
 30
0.0
 10
1174.675370178164
 20
563.8575288399058
 30
0.0
  0
SPLINE
  5
23A
330
1F
100
AcDbEntity
  8
layer 1
 62
     7
370
     0
100
AcDbSpline
210
0.0
220
0.0
230
1.0
 70
     8
 71
     3
 72
    16
 73
    12
 74
     0
 42
0.0000000001
 43
0.0000000001
 40
0.0
 40
0.0
 40
0.0
 40
0.0
 40
0.25
 40
0.25
 40
0.25
 40
0.25
 40
0.5
 40
0.5
 40
0.5
 40
0.5
 40
1.0
 40
1.0
 40
1.0
 40
1.0
 10
1203.879110377229
 20
565.4993779294434
 30
0.0
 10
1203.879110377229
 20
565.4993779294434
 30
0.0
 10
1204.700084671986
 20
565.1475460174013
 30
0.0
 10
1204.700084671986
 20
565.1475460174013
 30
0.0
 10
1204.700084671986
 20
565.1475460174013
 30
0.0
 10
1204.700084671986
 20
565.1475460174013
 30
0.0
 10
1203.761799906557
 20
563.0364550451745
 30
0.0
 10
1203.761799906557
 20
563.0364550451745
 30
0.0
 10
1203.761799906557
 20
563.0364550451745
 30
0.0
 10
1203.761799906557
 20
563.0364550451745
 30
0.0
 10
1189.453305483681
 20
563.3882869572162
 30
0.0
 10
1189.453305483681
 20
563.3882869572162
 30
0.0
  0
SPLINE
  5
23B
330
1F
100
AcDbEntity
  8
layer 1
 62
     7
370
     0
100
AcDbSpline
210
0.0
220
0.0
230
1.0
 70
    24
 71
     3
 72
     8
 73
     4
 74
     0
 42
0.0000000001
 43
0.0000000001
 40
0.0
 40
0.0
 40
0.0
 40
0.0
 40
1.0
 40
1.0
 40
1.0
 40
1.0
 10
1175.261922531526
 20
564.7957141053596
 30
0.0
 10
1175.261922531526
 20
564.7957141053596
 30
0.0
 10
1174.323637766098
 20
566.5549731655444
 30
0.0
 10
1174.323637766098
 20
566.5549731655444
 30
0.0
  0
SPLINE
  5
23C
330
1F
100
AcDbEntity
  8
layer 1
 62
     7
370
     0
100
AcDbSpline
210
0.0
220
0.0
230
1.0
 70
     8
 71
     3
 72
    12
 73
     8
 74
     0
 42
0.0000000001
 43
0.0000000001
 40
0.0
 40
0.0
 40
0.0
 40
0.0
 40
0.3333333333333333
 40
0.3333333333333333
 40
0.3333333333333333
 40
0.3333333333333333
 40
1.0
 40
1.0
 40
1.0
 40
1.0
 10
1189.453305483681
 20
564.3265717226447
 30
0.0
 10
1189.453305483681
 20
564.3265717226447
 30
0.0
 10
1203.175446553146
 20
563.9746403106283
 30
0.0
 10
1203.175446553146
 20
563.9746403106283
 30
0.0
 10
1203.175446553146
 20
563.9746403106283
 30
0.0
 10
1203.175446553146
 20
563.9746403106283
 30
0.0
 10
1203.879110377229
 20
565.4993779294434
 30
0.0
 10
1203.879110377229
 20
565.4993779294434
 30
0.0
  0
SPLINE
  5
23D
330
1F
100
AcDbEntity
  8
layer 1
 62
     7
370
     0
100
AcDbSpline
210
0.0
220
0.0
230
1.0
 70
     8
 71
     3
 72
    24
 73
    20
 74
     0
 42
0.0000000001
 43
0.0000000001
 40
0.0
 40
0.0
 40
0.0
 40
0.0
 40
0.1666666666666667
 40
0.1666666666666667
 40
0.1666666666666667
 40
0.1666666666666667
 40
0.3333333333333333
 40
0.3333333333333333
 40
0.3333333333333333
 40
0.3333333333333333
 40
0.5
 40
0.5
 40
0.5
 40
0.5
 40
0.6666666666666666
 40
0.6666666666666666
 40
0.6666666666666666
 40
0.6666666666666666
 40
1.0
 40
1.0
 40
1.0
 40
1.0
 10
1209.625930440526
 20
552.4809006840626
 30
0.0
 10
1209.625930440526
 20
552.4809006840626
 30
0.0
 10
1209.156887557784
 20
551.5427154186091
 30
0.0
 10
1209.156887557784
 20
551.5427154186091
 30
0.0
 10
1209.156887557784
 20
551.5427154186091
 30
0.0
 10
1209.156887557784
 20
551.5427154186091
 30
0.0
 10
1208.687745175071
 20
564.5611926639899
 30
0.0
 10
1208.687745175071
 20
564.5611926639899
 30
0.0
 10
1208.687745175071
 20
564.5611926639899
 30
0.0
 10
1208.687745175071
 20
564.5611926639899
 30
0.0
 10
1208.570434704399
 20
565.0302355467292
 30
0.0
 10
1208.570434704399
 20
565.0302355467292
 30
0.0
 10
1208.570434704399
 20
565.0302355467292
 30
0.0
 10
1208.570434704399
 20
565.0302355467292
 30
0.0
 10
1208.218503292382
 20
565.3820674587707
 30
0.0
 10
1208.218503292382
 20
565.3820674587707
 30
0.0
 10
1208.218503292382
 20
565.3820674587707
 30
0.0
 10
1208.218503292382
 20
565.3820674587707
 30
0.0
 10
1207.63214993897
 20
565.4993779294434
 30
0.0
 10
1207.63214993897
 20
565.4993779294434
 30
0.0
  0
SPLINE
  5
23E
330
1F
100
AcDbEntity
  8
layer 1
 62
     7
370
     0
100
AcDbSpline
210
0.0
220
0.0
230
1.0
 70
     8
 71
     3
 72
    16
 73
    12
 74
     0
 42
0.0000000001
 43
0.0000000001
 40
0.0
 40
0.0
 40
0.0
 40
0.0
 40
0.25
 40
0.25
 40
0.25
 40
0.25
 40
0.5
 40
0.5
 40
0.5
 40
0.5
 40
1.0
 40
1.0
 40
1.0
 40
1.0
 10
1209.274098528483
 20
564.5611926639899
 30
0.0
 10
1209.274098528483
 20
564.5611926639899
 30
0.0
 10
1209.039577087112
 20
565.2648564880739
 30
0.0
 10
1209.039577087112
 20
565.2648564880739
 30
0.0
 10
1209.039577087112
 20
565.2648564880739
 30
0.0
 10
1209.039577087112
 20
565.2648564880739
 30
0.0
 10
1208.453223733702
 20
565.8513093414608
 30
0.0
 10
1208.453223733702
 20
565.8513093414608
 30
0.0
 10
1208.453223733702
 20
565.8513093414608
 30
0.0
 10
1208.453223733702
 20
565.8513093414608
 30
0.0
 10
1207.63214993897
 20
566.0858307828305
 30
0.0
 10
1207.63214993897
 20
566.0858307828305
 30
0.0
  0
SPLINE
  5
23F
330
1F
100
AcDbEntity
  8
layer 1
 62
     7
370
     0
100
AcDbSpline
210
0.0
220
0.0
230
1.0
 70
    24
 71
     3
 72
     8
 73
     4
 74
     0
 42
0.0000000001
 43
0.0000000001
 40
0.0
 40
0.0
 40
0.0
 40
0.0
 40
1.0
 40
1.0
 40
1.0
 40
1.0
 10
1209.274098528483
 20
564.5611926639899
 30
0.0
 10
1209.274098528483
 20
564.5611926639899
 30
0.0
 10
1209.625930440526
 20
551.7772368599787
 30
0.0
 10
1209.625930440526
 20
551.7772368599787
 30
0.0
  0
SPLINE
  5
240
330
1F
100
AcDbEntity
  8
layer 1
 62
     7
370
     0
100
AcDbSpline
210
0.0
220
0.0
230
1.0
 70
    24
 71
     3
 72
     8
 73
     4
 74
     0
 42
0.0000000001
 43
0.0000000001
 40
0.0
 40
0.0
 40
0.0
 40
0.0
 40
1.0
 40
1.0
 40
1.0
 40
1.0
 10
1207.63214993897
 20
566.0858307828305
 30
0.0
 10
1207.63214993897
 20
566.0858307828305
 30
0.0
 10
1200.712523668876
 20
565.9686198121328
 30
0.0
 10
1200.712523668876
 20
565.9686198121328
 30
0.0
  0
SPLINE
  5
241
330
1F
100
AcDbEntity
  8
layer 1
 62
     7
370
     0
100
AcDbSpline
210
0.0
220
0.0
230
1.0
 70
    24
 71
     3
 72
     8
 73
     4
 74
     0
 42
0.0000000001
 43
0.0000000001
 40
0.0
 40
0.0
 40
0.0
 40
0.0
 40
1.0
 40
1.0
 40
1.0
 40
1.0
 10
1199.42230749143
 20
566.5549731655444
 30
0.0
 10
1199.42230749143
 20
566.5549731655444
 30
0.0
 10
1205.755580408112
 20
566.5549731655444
 30
0.0
 10
1205.755580408112
 20
566.5549731655444
 30
0.0
  0
SPLINE
  5
242
330
1F
100
AcDbEntity
  8
layer 1
 62
     7
370
     0
100
AcDbSpline
210
0.0
220
0.0
230
1.0
 70
     8
 71
     3
 72
    28
 73
    24
 74
     0
 42
0.0000000001
 43
0.0000000001
 40
0.0
 40
0.0
 40
0.0
 40
0.0
 40
0.1428571428571428
 40
0.1428571428571428
 40
0.1428571428571428
 40
0.1428571428571428
 40
0.2857142857142857
 40
0.2857142857142857
 40
0.2857142857142857
 40
0.2857142857142857
 40
0.4285714285714285
 40
0.4285714285714285
 40
0.4285714285714285
 40
0.4285714285714285
 40
0.5714285714285714
 40
0.5714285714285714
 40
0.5714285714285714
 40
0.5714285714285714
 40
0.7142857142857144
 40
0.7142857142857144
 40
0.7142857142857144
 40
0.7142857142857144
 40
1.0
 40
1.0
 40
1.0
 40
1.0
 10
1190.156969307766
 20
566.5549731655444
 30
0.0
 10
1190.156969307766
 20
566.5549731655444
 30
0.0
 10
1205.403748496071
 20
566.5549731655444
 30
0.0
 10
1205.403748496071
 20
566.5549731655444
 30
0.0
 10
1205.403748496071
 20
566.5549731655444
 30
0.0
 10
1205.403748496071
 20
566.5549731655444
 30
0.0
 10
1205.403748496071
 20
573.8265308476554
 30
0.0
 10
1205.403748496071
 20
573.8265308476554
 30
0.0
 10
1205.403748496071
 20
573.8265308476554
 30
0.0
 10
1205.403748496071
 20
573.8265308476554
 30
0.0
 10
1205.1692270547
 20
574.5301946717388
 30
0.0
 10
1205.1692270547
 20
574.5301946717388
 30
0.0
 10
1205.1692270547
 20
574.5301946717388
 30
0.0
 10
1205.1692270547
 20
574.5301946717388
 30
0.0
 10
1204.700084671986
 20
574.9994365544291
 30
0.0
 10
1204.700084671986
 20
574.9994365544291
 30
0.0
 10
1204.700084671986
 20
574.9994365544291
 30
0.0
 10
1204.700084671986
 20
574.9994365544291
 30
0.0
 10
1203.996321347927
 20
575.1167470251012
 30
0.0
 10
1203.996321347927
 20
575.1167470251012
 30
0.0
 10
1203.996321347927
 20
575.1167470251012
 30
0.0
 10
1203.996321347927
 20
575.1167470251012
 30
0.0
 10
1166.4656272306
 20
575.1167470251012
 30
0.0
 10
1166.4656272306
 20
575.1167470251012
 30
0.0
  0
SPLINE
  5
243
330
1F
100
AcDbEntity
  8
layer 1
 62
     7
370
     0
100
AcDbSpline
210
0.0
220
0.0
230
1.0
 70
    24
 71
     3
 72
     8
 73
     4
 74
     0
 42
0.0000000001
 43
0.0000000001
 40
0.0
 40
0.0
 40
0.0
 40
0.0
 40
1.0
 40
1.0
 40
1.0
 40
1.0
 10
1187.224804540806
 20
570.0734912859149
 30
0.0
 10
1187.224804540806
 20
570.0734912859149
 30
0.0
 10
1187.224804540806
 20
566.5549731655444
 30
0.0
 10
1187.224804540806
 20
566.5549731655444
 30
0.0
  0
SPLINE
  5
244
330
1F
100
AcDbEntity
  8
layer 1
 62
     7
370
     0
100
AcDbSpline
210
0.0
220
0.0
230
1.0
 70
    24
 71
     3
 72
     8
 73
     4
 74
     0
 42
0.0000000001
 43
0.0000000001
 40
0.0
 40
0.0
 40
0.0
 40
0.0
 40
1.0
 40
1.0
 40
1.0
 40
1.0
 10
1188.632231688949
 20
571.715439875428
 30
0.0
 10
1188.632231688949
 20
571.715439875428
 30
0.0
 10
1188.632231688949
 20
561.8635493384008
 30
0.0
 10
1188.632231688949
 20
561.8635493384008
 30
0.0
  0
SPLINE
  5
245
330
1F
100
AcDbEntity
  8
layer 1
 62
     7
370
     0
100
AcDbSpline
210
0.0
220
0.0
230
1.0
 70
     8
 71
     3
 72
    24
 73
    20
 74
     0
 42
0.0000000001
 43
0.0000000001
 40
0.0
 40
0.0
 40
0.0
 40
0.0
 40
0.1666666666666667
 40
0.1666666666666667
 40
0.1666666666666667
 40
0.1666666666666667
 40
0.3333333333333333
 40
0.3333333333333333
 40
0.3333333333333333
 40
0.3333333333333333
 40
0.5
 40
0.5
 40
0.5
 40
0.5
 40
0.6666666666666666
 40
0.6666666666666666
 40
0.6666666666666666
 40
0.6666666666666666
 40
1.0
 40
1.0
 40
1.0
 40
1.0
 10
1166.4656272306
 20
575.1167470251012
 30
0.0
 10
1166.4656272306
 20
575.1167470251012
 30
0.0
 10
1167.169291054685
 20
574.2956732303696
 30
0.0
 10
1167.169291054685
 20
574.2956732303696
 30
0.0
 10
1167.169291054685
 20
574.2956732303696
 30
0.0
 10
1167.169291054685
 20
574.2956732303696
 30
0.0
 10
1167.521222466701
 20
573.2401774942436
 30
0.0
 10
1167.521222466701
 20
573.2401774942436
 30
0.0
 10
1167.521222466701
 20
573.2401774942436
 30
0.0
 10
1167.521222466701
 20
573.2401774942436
 30
0.0
 10
1167.521222466701
 20
570.8944655806712
 30
0.0
 10
1167.521222466701
 20
570.8944655806712
 30
0.0
 10
1167.521222466701
 20
570.8944655806712
 30
0.0
 10
1167.521222466701
 20
570.8944655806712
 30
0.0
 10
1167.755743908071
 20
568.5487536670996
 30
0.0
 10
1167.755743908071
 20
568.5487536670996
 30
0.0
 10
1167.755743908071
 20
568.5487536670996
 30
0.0
 10
1167.755743908071
 20
568.5487536670996
 30
0.0
 10
1168.811239644197
 20
566.5549731655444
 30
0.0
 10
1168.811239644197
 20
566.5549731655444
 30
0.0
  0
SPLINE
  5
25A
330
1F
100
AcDbEntity
  8
layer 1
 62
     7
370
    -3
100
AcDbSpline
210
0.0
220
0.0
230
1.0
 70
    11
 71
     3
 72
    48
 73
    44
 74
     0
 42
0.0000000001
 43
0.0000000001
 40
0.0
 40
0.0
 40
0.0
 40
0.0
 40
0.0833333333333333
 40
0.0833333333333333
 40
0.0833333333333333
 40
0.0833333333333333
 40
0.1666666666666667
 40
0.1666666666666667
 40
0.1666666666666667
 40
0.1666666666666667
 40
0.25
 40
0.25
 40
0.25
 40
0.25
 40
0.3333333333333333
 40
0.3333333333333333
 40
0.3333333333333333
 40
0.3333333333333333
 40
0.4166666666666667
 40
0.4166666666666667
 40
0.4166666666666667
 40
0.4166666666666667
 40
0.5
 40
0.5
 40
0.5
 40
0.5
 40
0.5833333333333334
 40
0.5833333333333334
 40
0.5833333333333334
 40
0.5833333333333334
 40
0.6666666666666666
 40
0.6666666666666666
 40
0.6666666666666666
 40
0.6666666666666666
 40
0.75
 40
0.75
 40
0.75
 40
0.75
 40
0.8333333333333333
 40
0.8333333333333333
 40
0.8333333333333333
 40
0.8333333333333333
 40
1.0
 40
1.0
 40
1.0
 40
1.0
 10
1007.219101042233
 20
575.7133548592464
 30
0.0
 10
1007.219101042233
 20
575.7133548592464
 30
0.0
 10
1007.219101042233
 20
577.3473434507495
 30
0.0
 10
1007.219101042233
 20
577.3473434507495
 30
0.0
 10
1007.219101042233
 20
577.3473434507495
 30
0.0
 10
1007.219101042233
 20
577.3473434507495
 30
0.0
 10
1004.42743024015
 20
577.3473434507495
 30
0.0
 10
1004.42743024015
 20
577.3473434507495
 30
0.0
 10
1004.42743024015
 20
577.3473434507495
 30
0.0
 10
1004.42743024015
 20
577.3473434507495
 30
0.0
 10
1004.42743024015
 20
578.1213537572471
 30
0.0
 10
1004.42743024015
 20
578.1213537572471
 30
0.0
 10
1004.42743024015
 20
578.1213537572471
 30
0.0
 10
1004.42743024015
 20
578.1213537572471
 30
0.0
 10
1007.362779006312
 20
582.554973148842
 30
0.0
 10
1007.362779006312
 20
582.554973148842
 30
0.0
 10
1007.362779006312
 20
582.554973148842
 30
0.0
 10
1007.362779006312
 20
582.554973148842
 30
0.0
 10
1008.009031344749
 20
582.554973148842
 30
0.0
 10
1008.009031344749
 20
582.554973148842
 30
0.0
 10
1008.009031344749
 20
582.554973148842
 30
0.0
 10
1008.009031344749
 20
582.554973148842
 30
0.0
 10
1008.009031344749
 20
578.1213537572471
 30
0.0
 10
1008.009031344749
 20
578.1213537572471
 30
0.0
 10
1008.009031344749
 20
578.1213537572471
 30
0.0
 10
1008.009031344749
 20
578.1213537572471
 30
0.0
 10
1008.879656127093
 20
578.1213537572471
 30
0.0
 10
1008.879656127093
 20
578.1213537572471
 30
0.0
 10
1008.879656127093
 20
578.1213537572471
 30
0.0
 10
1008.879656127093
 20
578.1213537572471
 30
0.0
 10
1008.879656127093
 20
577.3473434507495
 30
0.0
 10
1008.879656127093
 20
577.3473434507495
 30
0.0
 10
1008.879656127093
 20
577.3473434507495
 30
0.0
 10
1008.879656127093
 20
577.3473434507495
 30
0.0
 10
1008.009031344749
 20
577.3473434507495
 30
0.0
 10
1008.009031344749
 20
577.3473434507495
 30
0.0
 10
1008.009031344749
 20
577.3473434507495
 30
0.0
 10
1008.009031344749
 20
577.3473434507495
 30
0.0
 10
1008.009031344749
 20
575.7133548592464
 30
0.0
 10
1008.009031344749
 20
575.7133548592464
 30
0.0
 10
1008.009031344749
 20
575.7133548592464
 30
0.0
 10
1008.009031344749
 20
575.7133548592464
 30
0.0
 10
1007.219101042233
 20
575.7133548592464
 30
0.0
 10
1007.219101042233
 20
575.7133548592464
 30
0.0
  0
SPLINE
  5
25B
330
1F
100
AcDbEntity
  8
layer 1
 62
     7
370
    -3
100
AcDbSpline
210
0.0
220
0.0
230
1.0
 70
    11
 71
     3
 72
    16
 73
    12
 74
     0
 42
0.0000000001
 43
0.0000000001
 40
0.0
 40
0.0
 40
0.0
 40
0.0
 40
0.25
 40
0.25
 40
0.25
 40
0.25
 40
0.5
 40
0.5
 40
0.5
 40
0.5
 40
1.0
 40
1.0
 40
1.0
 40
1.0
 10
1007.219101042233
 20
578.1213537572471
 30
0.0
 10
1007.219101042233
 20
578.1213537572471
 30
0.0
 10
1007.219101042233
 20
581.1997834876397
 30
0.0
 10
1007.219101042233
 20
581.1997834876397
 30
0.0
 10
1007.219101042233
 20
581.1997834876397
 30
0.0
 10
1007.219101042233
 20
581.1997834876397
 30
0.0
 10
1005.203928046025
 20
578.1213537572471
 30
0.0
 10
1005.203928046025
 20
578.1213537572471
 30
0.0
 10
1005.203928046025
 20
578.1213537572471
 30
0.0
 10
1005.203928046025
 20
578.1213537572471
 30
0.0
 10
1007.219101042233
 20
578.1213537572471
 30
0.0
 10
1007.219101042233
 20
578.1213537572471
 30
0.0
  0
SPLINE
  5
25C
330
1F
100
AcDbEntity
  8
layer 1
 62
     7
370
    -3
100
AcDbSpline
210
0.0
220
0.0
230
1.0
 70
    11
 71
     3
 72
    80
 73
    76
 74
     0
 42
0.0000000001
 43
0.0000000001
 40
0.0
 40
0.0
 40
0.0
 40
0.0
 40
0.05
 40
0.05
 40
0.05
 40
0.05
 40
0.1
 40
0.1
 40
0.1
 40
0.1
 40
0.15
 40
0.15
 40
0.15
 40
0.15
 40
0.2
 40
0.2
 40
0.2
 40
0.2
 40
0.25
 40
0.25
 40
0.25
 40
0.25
 40
0.3
 40
0.3
 40
0.3
 40
0.3
 40
0.35
 40
0.35
 40
0.35
 40
0.35
 40
0.4
 40
0.4
 40
0.4
 40
0.4
 40
0.45
 40
0.45
 40
0.45
 40
0.45
 40
0.5
 40
0.5
 40
0.5
 40
0.5
 40
0.55
 40
0.55
 40
0.55
 40
0.55
 40
0.6
 40
0.6
 40
0.6
 40
0.6
 40
0.65
 40
0.65
 40
0.65
 40
0.65
 40
0.7
 40
0.7
 40
0.7
 40
0.7
 40
0.75
 40
0.75
 40
0.75
 40
0.75
 40
0.8
 40
0.8
 40
0.8
 40
0.8
 40
0.85
 40
0.85
 40
0.85
 40
0.85
 40
0.9
 40
0.9
 40
0.9
 40
0.9
 40
1.0
 40
1.0
 40
1.0
 40
1.0
 10
1014.290066774491
 20
580.8827765668914
 30
0.0
 10
1014.290066774491
 20
580.8827765668914
 30
0.0
 10
1013.509091469735
 20
580.8159125836071
 30
0.0
 10
1013.509091469735
 20
580.8159125836071
 30
0.0
 10
1013.509091469735
 20
580.8159125836071
 30
0.0
 10
1013.438744987321
 20
581.1455560011966
 30
0.0
 10
1013.33854851237
 20
581.3860474410735
 30
0.0
 10
1013.208402544907
 20
581.5357949036367
 30
0.0
 10
1013.208402544907
 20
581.5357949036367
 30
0.0
 10
1012.994477598388
 20
581.7762863435136
 30
0.0
 10
1012.729608664606
 20
581.8956863136636
 30
0.0
 10
1012.415487243135
 20
581.8956863136636
 30
0.0
 10
1012.415487243135
 20
581.8956863136636
 30
0.0
 10
1012.162657806343
 20
581.8956863136636
 30
0.0
 10
1011.938185862461
 20
581.8208623323696
 30
0.0
 10
1011.745255410694
 20
581.6711148698068
 30
0.0
 10
1011.745255410694
 20
581.6711148698068
 30
0.0
 10
1011.496903472781
 20
581.4784829179648
 30
0.0
 10
1011.302480521387
 20
581.1981914880377
 30
0.0
 10
1011.15731005768
 20
580.8286485804233
 30
0.0
 10
1011.15731005768
 20
580.8286485804233
 30
0.0
 10
1011.013731593575
 20
580.4576131731821
 30
0.0
 10
1010.938808112305
 20
579.9304623049697
 30
0.0
 10
1010.932838113798
 20
579.2472954757613
 30
0.0
 10
1010.932838113798
 20
579.2472954757613
 30
0.0
 10
1011.122883066287
 20
579.5546508989227
 30
0.0
 10
1011.35631000793
 20
579.7838988416108
 30
0.0
 10
1011.631526939125
 20
579.9320543045719
 30
0.0
 10
1011.631526939125
 20
579.9320543045719
 30
0.0
 10
1011.906843370296
 20
580.0818017671349
 30
0.0
 10
1012.194099798482
 20
580.1566257484289
 30
0.0
 10
1012.496281222938
 20
580.1566257484289
 30
0.0
 10
1012.496281222938
 20
580.1566257484289
 30
0.0
 10
1013.022835091298
 20
580.1566257484289
 30
0.0
 10
1013.471679479087
 20
579.9495663001939
 30
0.0
 10
1013.842714886329
 20
579.5371389033006
 30
0.0
 10
1013.842714886329
 20
579.5371389033006
 30
0.0
 10
1014.212257793943
 20
579.1246120064324
 30
0.0
 10
1014.397725747576
 20
578.5926851394142
 30
0.0
 10
1014.397725747576
 20
577.9381743030417
 30
0.0
 10
1014.397725747576
 20
577.9381743030417
 30
0.0
 10
1014.397725747576
 20
577.5081354105516
 30
0.0
 10
1014.310961769267
 20
577.1100360100763
 30
0.0
 10
1014.13743381265
 20
576.7405926024373
 30
0.0
 10
1014.13743381265
 20
576.7405926024373
 30
0.0
 10
1013.962413356404
 20
576.3710496948231
 30
0.0
 10
1013.72450891588
 20
576.0891662652938
 30
0.0
 10
1013.419342492172
 20
575.8933503142479
 30
0.0
 10
1013.419342492172
 20
575.8933503142479
 30
0.0
 10
1013.11566856809
 20
575.6974348632268
 30
0.0
 10
1012.770005654507
 20
575.5987308879025
 30
0.0
 10
1012.384045250996
 20
575.5987308879025
 30
0.0
 10
1012.384045250996
 20
575.5987308879025
 30
0.0
 10
1011.727245915196
 20
575.5987308879025
 30
0.0
 10
1011.190145049471
 20
575.8567343234019
 30
0.0
 10
1010.774334653424
 20
576.3710496948231
 30
0.0
 10
1010.774334653424
 20
576.3710496948231
 30
0.0
 10
1010.359917257028
 20
576.8854645662193
 30
0.0
 10
1010.151962309017
 20
577.7342988540105
 30
0.0
 10
1010.151962309017
 20
578.9159605585953
 30
0.0
 10
1010.151962309017
 20
578.9159605585953
 30
0.0
 10
1010.151962309017
 20
580.2378177281311
 30
0.0
 10
1010.382304751431
 20
581.1997834876397
 30
0.0
 10
1010.841596636609
 20
581.8001663375439
 30
0.0
 10
1010.841596636609
 20
581.8001663375439
 30
0.0
 10
1011.242482036387
 20
582.3225412069502
 30
0.0
 10
1011.782567901365
 20
582.5836291416781
 30
0.0
 10
1012.46334673117
 20
582.5836291416781
 30
0.0
 10
1012.46334673117
 20
582.5836291416781
 30
0.0
 10
1012.969005604756
 20
582.5836291416781
 30
0.0
 10
1013.384915500778
 20
582.4323891794882
 30
0.0
 10
1013.708091419984
 20
582.1314017547349
 30
0.0
 10
1013.708091419984
 20
582.1314017547349
 30
0.0
 10
1014.031167839215
 20
581.8304143299819
 30
0.0
 10
1014.225690290585
 20
581.4147034339093
 30
0.0
 10
1014.290066774491
 20
580.8827765668914
 30
0.0
  0
SPLINE
  5
25D
330
1F
100
AcDbEntity
  8
layer 1
 62
     7
370
    -3
100
AcDbSpline
210
0.0
220
0.0
230
1.0
 70
    11
 71
     3
 72
    40
 73
    36
 74
     0
 42
0.0000000001
 43
0.0000000001
 40
0.0
 40
0.0
 40
0.0
 40
0.0
 40
0.1
 40
0.1
 40
0.1
 40
0.1
 40
0.2
 40
0.2
 40
0.2
 40
0.2
 40
0.3
 40
0.3
 40
0.3
 40
0.3
 40
0.4
 40
0.4
 40
0.4
 40
0.4
 40
0.5
 40
0.5
 40
0.5
 40
0.5
 40
0.6
 40
0.6
 40
0.6
 40
0.6
 40
0.7
 40
0.7
 40
0.7
 40
0.7
 40
0.8
 40
0.8
 40
0.8
 40
0.8
 40
1.0
 40
1.0
 40
1.0
 40
1.0
 10
1011.058606082356
 20
577.930214305032
 30
0.0
 10
1011.058606082356
 20
577.6403708774928
 30
0.0
 10
1011.116913067779
 20
577.3632634467697
 30
0.0
 10
1011.232034538998
 20
577.0988920128624
 30
0.0
 10
1011.232034538998
 20
577.0988920128624
 30
0.0
 10
1011.347355010169
 20
576.8345205789549
 30
0.0
 10
1011.508843469797
 20
576.6338291291283
 30
0.0
 10
1011.713813418555
 20
576.4953251637539
 30
0.0
 10
1011.713813418555
 20
576.4953251637539
 30
0.0
 10
1011.920275866939
 20
576.3567216984049
 30
0.0
 10
1012.138678312337
 20
576.2866737159169
 30
0.0
 10
1012.370612754354
 20
576.2866737159169
 30
0.0
 10
1012.370612754354
 20
576.2866737159169
 30
0.0
 10
1012.707221170202
 20
576.2866737159169
 30
0.0
 10
1012.994477598388
 20
576.430053180072
 30
0.0
 10
1013.232282538937
 20
576.7167126084075
 30
0.0
 10
1013.232282538937
 20
576.7167126084075
 30
0.0
 10
1013.470186979461
 20
577.0033720367421
 30
0.0
 10
1013.589885449536
 20
577.3919194396057
 30
0.0
 10
1013.589885449536
 20
577.8840463165738
 30
0.0
 10
1013.589885449536
 20
577.8840463165738
 30
0.0
 10
1013.589885449536
 20
578.3569696983431
 30
0.0
 10
1013.471679479087
 20
578.7296966051612
 30
0.0
 10
1013.236760037817
 20
579.0020280370783
 30
0.0
 10
1013.236760037817
 20
579.0020280370783
 30
0.0
 10
1013.001940096523
 20
579.2743594689957
 30
0.0
 10
1012.702743671321
 20
579.4112714347675
 30
0.0
 10
1012.339170762215
 20
579.4112714347675
 30
0.0
 10
1012.339170762215
 20
579.4112714347675
 30
0.0
 10
1011.983060351243
 20
579.4112714347675
 30
0.0
 10
1011.679386427161
 20
579.2743594689957
 30
0.0
 10
1011.431034489249
 20
579.0020280370783
 30
0.0
 10
1011.431034489249
 20
579.0020280370783
 30
0.0
 10
1011.182682551337
 20
578.7296966051612
 30
0.0
 10
1011.058606082356
 20
578.372889694363
 30
0.0
 10
1011.058606082356
 20
577.930214305032
 30
0.0
  0
SPLINE
  5
25E
330
1F
100
AcDbEntity
  8
layer 1
 62
     7
370
    -3
100
AcDbSpline
210
0.0
220
0.0
230
1.0
 70
    11
 71
     3
 72
    28
 73
    24
 74
     0
 42
0.0000000001
 43
0.0000000001
 40
0.0
 40
0.0
 40
0.0
 40
0.0
 40
0.1428571428571428
 40
0.1428571428571428
 40
0.1428571428571428
 40
0.1428571428571428
 40
0.2857142857142857
 40
0.2857142857142857
 40
0.2857142857142857
 40
0.2857142857142857
 40
0.4285714285714285
 40
0.4285714285714285
 40
0.4285714285714285
 40
0.4285714285714285
 40
0.5714285714285714
 40
0.5714285714285714
 40
0.5714285714285714
 40
0.5714285714285714
 40
0.7142857142857144
 40
0.7142857142857144
 40
0.7142857142857144
 40
0.7142857142857144
 40
1.0
 40
1.0
 40
1.0
 40
1.0
 10
1015.933209363706
 20
580.1375217532049
 30
0.0
 10
1015.933209363706
 20
580.1375217532049
 30
0.0
 10
1015.71490641828
 20
581.4369914283377
 30
0.0
 10
1015.71490641828
 20
581.4369914283377
 30
0.0
 10
1015.71490641828
 20
581.4369914283377
 30
0.0
 10
1015.71490641828
 20
581.4369914283377
 30
0.0
 10
1015.71490641828
 20
582.554973148842
 30
0.0
 10
1015.71490641828
 20
582.554973148842
 30
0.0
 10
1015.71490641828
 20
582.554973148842
 30
0.0
 10
1015.71490641828
 20
582.554973148842
 30
0.0
 10
1016.612495693884
 20
582.554973148842
 30
0.0
 10
1016.612495693884
 20
582.554973148842
 30
0.0
 10
1016.612495693884
 20
582.554973148842
 30
0.0
 10
1016.612495693884
 20
582.554973148842
 30
0.0
 10
1016.612495693884
 20
581.4369914283377
 30
0.0
 10
1016.612495693884
 20
581.4369914283377
 30
0.0
 10
1016.612495693884
 20
581.4369914283377
 30
0.0
 10
1016.612495693884
 20
581.4369914283377
 30
0.0
 10
1016.41498824326
 20
580.1375217532049
 30
0.0
 10
1016.41498824326
 20
580.1375217532049
 30
0.0
 10
1016.41498824326
 20
580.1375217532049
 30
0.0
 10
1016.41498824326
 20
580.1375217532049
 30
0.0
 10
1015.933209363706
 20
580.1375217532049
 30
0.0
 10
1015.933209363706
 20
580.1375217532049
 30
0.0
  0
SPLINE
  5
25F
330
1F
100
AcDbEntity
  8
layer 1
 62
     7
370
    -3
100
AcDbSpline
210
0.0
220
0.0
230
1.0
 70
    11
 71
     3
 72
    28
 73
    24
 74
     0
 42
0.0000000001
 43
0.0000000001
 40
0.0
 40
0.0
 40
0.0
 40
0.0
 40
0.1428571428571428
 40
0.1428571428571428
 40
0.1428571428571428
 40
0.1428571428571428
 40
0.2857142857142857
 40
0.2857142857142857
 40
0.2857142857142857
 40
0.2857142857142857
 40
0.4285714285714285
 40
0.4285714285714285
 40
0.4285714285714285
 40
0.4285714285714285
 40
0.5714285714285714
 40
0.5714285714285714
 40
0.5714285714285714
 40
0.5714285714285714
 40
0.7142857142857144
 40
0.7142857142857144
 40
0.7142857142857144
 40
0.7142857142857144
 40
1.0
 40
1.0
 40
1.0
 40
1.0
 10
1017.382924001276
 20
580.1375217532049
 30
0.0
 10
1017.382924001276
 20
580.1375217532049
 30
0.0
 10
1017.168999054758
 20
581.4369914283377
 30
0.0
 10
1017.168999054758
 20
581.4369914283377
 30
0.0
 10
1017.168999054758
 20
581.4369914283377
 30
0.0
 10
1017.168999054758
 20
581.4369914283377
 30
0.0
 10
1017.168999054758
 20
582.554973148842
 30
0.0
 10
1017.168999054758
 20
582.554973148842
 30
0.0
 10
1017.168999054758
 20
582.554973148842
 30
0.0
 10
1017.168999054758
 20
582.554973148842
 30
0.0
 10
1018.06658833036
 20
582.554973148842
 30
0.0
 10
1018.06658833036
 20
582.554973148842
 30
0.0
 10
1018.06658833036
 20
582.554973148842
 30
0.0
 10
1018.06658833036
 20
582.554973148842
 30
0.0
 10
1018.06658833036
 20
581.4369914283377
 30
0.0
 10
1018.06658833036
 20
581.4369914283377
 30
0.0
 10
1018.06658833036
 20
581.4369914283377
 30
0.0
 10
1018.06658833036
 20
581.4369914283377
 30
0.0
 10
1017.855747883071
 20
580.1375217532049
 30
0.0
 10
1017.855747883071
 20
580.1375217532049
 30
0.0
 10
1017.855747883071
 20
580.1375217532049
 30
0.0
 10
1017.855747883071
 20
580.1375217532049
 30
0.0
 10
1017.382924001276
 20
580.1375217532049
 30
0.0
 10
1017.382924001276
 20
580.1375217532049
 30
0.0
  0
SPLINE
  5
268
330
1F
100
AcDbEntity
  8
layer 1
 62
     7
370
    -3
100
AcDbSpline
210
0.0
220
0.0
230
1.0
 70
    11
 71
     3
 72
    48
 73
    44
 74
     0
 42
0.0000000001
 43
0.0000000001
 40
0.0
 40
0.0
 40
0.0
 40
0.0
 40
0.0833333333333333
 40
0.0833333333333333
 40
0.0833333333333333
 40
0.0833333333333333
 40
0.1666666666666667
 40
0.1666666666666667
 40
0.1666666666666667
 40
0.1666666666666667
 40
0.25
 40
0.25
 40
0.25
 40
0.25
 40
0.3333333333333333
 40
0.3333333333333333
 40
0.3333333333333333
 40
0.3333333333333333
 40
0.4166666666666667
 40
0.4166666666666667
 40
0.4166666666666667
 40
0.4166666666666667
 40
0.5
 40
0.5
 40
0.5
 40
0.5
 40
0.5833333333333334
 40
0.5833333333333334
 40
0.5833333333333334
 40
0.5833333333333334
 40
0.6666666666666666
 40
0.6666666666666666
 40
0.6666666666666666
 40
0.6666666666666666
 40
0.75
 40
0.75
 40
0.75
 40
0.75
 40
0.8333333333333333
 40
0.8333333333333333
 40
0.8333333333333333
 40
0.8333333333333333
 40
1.0
 40
1.0
 40
1.0
 40
1.0
 10
954.9646991058326
 20
531.2243289815032
 30
0.0
 10
954.9646991058326
 20
531.2243289815032
 30
0.0
 10
954.9646991058326
 20
532.8583175730061
 30
0.0
 10
954.9646991058326
 20
532.8583175730061
 30
0.0
 10
954.9646991058326
 20
532.8583175730061
 30
0.0
 10
954.9646991058326
 20
532.8583175730061
 30
0.0
 10
952.1730283037509
 20
532.8583175730061
 30
0.0
 10
952.1730283037509
 20
532.8583175730061
 30
0.0
 10
952.1730283037509
 20
532.8583175730061
 30
0.0
 10
952.1730283037509
 20
532.8583175730061
 30
0.0
 10
952.1730283037509
 20
533.6323278795036
 30
0.0
 10
952.1730283037509
 20
533.6323278795036
 30
0.0
 10
952.1730283037509
 20
533.6323278795036
 30
0.0
 10
952.1730283037509
 20
533.6323278795036
 30
0.0
 10
955.1083770699133
 20
538.0659472710988
 30
0.0
 10
955.1083770699133
 20
538.0659472710988
 30
0.0
 10
955.1083770699133
 20
538.0659472710988
 30
0.0
 10
955.1083770699133
 20
538.0659472710988
 30
0.0
 10
955.7546294083504
 20
538.0659472710988
 30
0.0
 10
955.7546294083504
 20
538.0659472710988
 30
0.0
 10
955.7546294083504
 20
538.0659472710988
 30
0.0
 10
955.7546294083504
 20
538.0659472710988
 30
0.0
 10
955.7546294083504
 20
533.6323278795036
 30
0.0
 10
955.7546294083504
 20
533.6323278795036
 30
0.0
 10
955.7546294083504
 20
533.6323278795036
 30
0.0
 10
955.7546294083504
 20
533.6323278795036
 30
0.0
 10
956.6252541906942
 20
533.6323278795036
 30
0.0
 10
956.6252541906942
 20
533.6323278795036
 30
0.0
 10
956.6252541906942
 20
533.6323278795036
 30
0.0
 10
956.6252541906942
 20
533.6323278795036
 30
0.0
 10
956.6252541906942
 20
532.8583175730061
 30
0.0
 10
956.6252541906942
 20
532.8583175730061
 30
0.0
 10
956.6252541906942
 20
532.8583175730061
 30
0.0
 10
956.6252541906942
 20
532.8583175730061
 30
0.0
 10
955.7546294083504
 20
532.8583175730061
 30
0.0
 10
955.7546294083504
 20
532.8583175730061
 30
0.0
 10
955.7546294083504
 20
532.8583175730061
 30
0.0
 10
955.7546294083504
 20
532.8583175730061
 30
0.0
 10
955.7546294083504
 20
531.2243289815032
 30
0.0
 10
955.7546294083504
 20
531.2243289815032
 30
0.0
 10
955.7546294083504
 20
531.2243289815032
 30
0.0
 10
955.7546294083504
 20
531.2243289815032
 30
0.0
 10
954.9646991058326
 20
531.2243289815032
 30
0.0
 10
954.9646991058326
 20
531.2243289815032
 30
0.0
  0
SPLINE
  5
269
330
1F
100
AcDbEntity
  8
layer 1
 62
     7
370
    -3
100
AcDbSpline
210
0.0
220
0.0
230
1.0
 70
    11
 71
     3
 72
    16
 73
    12
 74
     0
 42
0.0000000001
 43
0.0000000001
 40
0.0
 40
0.0
 40
0.0
 40
0.0
 40
0.25
 40
0.25
 40
0.25
 40
0.25
 40
0.5
 40
0.5
 40
0.5
 40
0.5
 40
1.0
 40
1.0
 40
1.0
 40
1.0
 10
954.9646991058326
 20
533.6323278795036
 30
0.0
 10
954.9646991058326
 20
533.6323278795036
 30
0.0
 10
954.9646991058326
 20
536.7107576098963
 30
0.0
 10
954.9646991058326
 20
536.7107576098963
 30
0.0
 10
954.9646991058326
 20
536.7107576098963
 30
0.0
 10
954.9646991058326
 20
536.7107576098963
 30
0.0
 10
952.9495261096263
 20
533.6323278795036
 30
0.0
 10
952.9495261096263
 20
533.6323278795036
 30
0.0
 10
952.9495261096263
 20
533.6323278795036
 30
0.0
 10
952.9495261096263
 20
533.6323278795036
 30
0.0
 10
954.9646991058326
 20
533.6323278795036
 30
0.0
 10
954.9646991058326
 20
533.6323278795036
 30
0.0
  0
SPLINE
  5
26A
330
1F
100
AcDbEntity
  8
layer 1
 62
     7
370
    -3
100
AcDbSpline
210
0.0
220
0.0
230
1.0
 70
    11
 71
     3
 72
    40
 73
    36
 74
     0
 42
0.0000000001
 43
0.0000000001
 40
0.0
 40
0.0
 40
0.0
 40
0.0
 40
0.1
 40
0.1
 40
0.1
 40
0.1
 40
0.2
 40
0.2
 40
0.2
 40
0.2
 40
0.3
 40
0.3
 40
0.3
 40
0.3
 40
0.4
 40
0.4
 40
0.4
 40
0.4
 40
0.5
 40
0.5
 40
0.5
 40
0.5
 40
0.6
 40
0.6
 40
0.6
 40
0.6
 40
0.7
 40
0.7
 40
0.7
 40
0.7
 40
0.8
 40
0.8
 40
0.8
 40
0.8
 40
1.0
 40
1.0
 40
1.0
 40
1.0
 10
960.8956936230843
 20
531.2243289815032
 30
0.0
 10
960.8956936230843
 20
531.2243289815032
 30
0.0
 10
960.1057633205664
 20
531.2243289815032
 30
0.0
 10
960.1057633205664
 20
531.2243289815032
 30
0.0
 10
960.1057633205664
 20
531.2243289815032
 30
0.0
 10
960.1057633205664
 20
531.2243289815032
 30
0.0
 10
960.1057633205664
 20
536.5785221429548
 30
0.0
 10
960.1057633205664
 20
536.5785221429548
 30
0.0
 10
960.1057633205664
 20
536.5785221429548
 30
0.0
 10
959.9157183680777
 20
536.3841986915359
 30
0.0
 10
959.6658739305395
 20
536.1915667396941
 30
0.0
 10
959.3577225075774
 20
535.9988352878767
 30
0.0
 10
959.3577225075774
 20
535.9988352878767
 30
0.0
 10
959.0495710846148
 20
535.8061038360594
 30
0.0
 10
958.7712696541897
 20
535.6612318722775
 30
0.0
 10
958.525902715532
 20
535.5656123961823
 30
0.0
 10
958.525902715532
 20
535.5656123961823
 30
0.0
 10
958.525902715532
 20
535.5656123961823
 30
0.0
 10
958.525902715532
 20
536.3778306931278
 30
0.0
 10
958.525902715532
 20
536.3778306931278
 30
0.0
 10
958.525902715532
 20
536.3778306931278
 30
0.0
 10
958.9671851052113
 20
536.597626138179
 30
0.0
 10
959.3532450086964
 20
536.8651815712901
 30
0.0
 10
959.683783926062
 20
537.1804969924612
 30
0.0
 10
959.683783926062
 20
537.1804969924612
 30
0.0
 10
960.0144223434021
 20
537.4942204140302
 30
0.0
 10
960.2493417846718
 20
537.7983918379872
 30
0.0
 10
960.3870497502448
 20
538.0946032639349
 30
0.0
 10
960.3870497502448
 20
538.0946032639349
 30
0.0
 10
960.3870497502448
 20
538.0946032639349
 30
0.0
 10
960.8956936230843
 20
538.0946032639349
 30
0.0
 10
960.8956936230843
 20
538.0946032639349
 30
0.0
 10
960.8956936230843
 20
538.0946032639349
 30
0.0
 10
960.8956936230843
 20
538.0946032639349
 30
0.0
 10
960.8956936230843
 20
531.2243289815032
 30
0.0
 10
960.8956936230843
 20
531.2243289815032
 30
0.0
  0
SPLINE
  5
26B
330
1F
100
AcDbEntity
  8
layer 1
 62
     7
370
    -3
100
AcDbSpline
210
0.0
220
0.0
230
1.0
 70
    11
 71
     3
 72
    28
 73
    24
 74
     0
 42
0.0000000001
 43
0.0000000001
 40
0.0
 40
0.0
 40
0.0
 40
0.0
 40
0.1428571428571428
 40
0.1428571428571428
 40
0.1428571428571428
 40
0.1428571428571428
 40
0.2857142857142857
 40
0.2857142857142857
 40
0.2857142857142857
 40
0.2857142857142857
 40
0.4285714285714285
 40
0.4285714285714285
 40
0.4285714285714285
 40
0.4285714285714285
 40
0.5714285714285714
 40
0.5714285714285714
 40
0.5714285714285714
 40
0.5714285714285714
 40
0.7142857142857144
 40
0.7142857142857144
 40
0.7142857142857144
 40
0.7142857142857144
 40
1.0
 40
1.0
 40
1.0
 40
1.0
 10
963.6788074273054
 20
535.6484958754615
 30
0.0
 10
963.6788074273054
 20
535.6484958754615
 30
0.0
 10
963.4605044818814
 20
536.947965550594
 30
0.0
 10
963.4605044818814
 20
536.947965550594
 30
0.0
 10
963.4605044818814
 20
536.947965550594
 30
0.0
 10
963.4605044818814
 20
536.947965550594
 30
0.0
 10
963.4605044818814
 20
538.0659472710988
 30
0.0
 10
963.4605044818814
 20
538.0659472710988
 30
0.0
 10
963.4605044818814
 20
538.0659472710988
 30
0.0
 10
963.4605044818814
 20
538.0659472710988
 30
0.0
 10
964.3580937574842
 20
538.0659472710988
 30
0.0
 10
964.3580937574842
 20
538.0659472710988
 30
0.0
 10
964.3580937574842
 20
538.0659472710988
 30
0.0
 10
964.3580937574842
 20
538.0659472710988
 30
0.0
 10
964.3580937574842
 20
536.947965550594
 30
0.0
 10
964.3580937574842
 20
536.947965550594
 30
0.0
 10
964.3580937574842
 20
536.947965550594
 30
0.0
 10
964.3580937574842
 20
536.947965550594
 30
0.0
 10
964.1605863068607
 20
535.6484958754615
 30
0.0
 10
964.1605863068607
 20
535.6484958754615
 30
0.0
 10
964.1605863068607
 20
535.6484958754615
 30
0.0
 10
964.1605863068607
 20
535.6484958754615
 30
0.0
 10
963.6788074273054
 20
535.6484958754615
 30
0.0
 10
963.6788074273054
 20
535.6484958754615
 30
0.0
  0
SPLINE
  5
26C
330
1F
100
AcDbEntity
  8
layer 1
 62
     7
370
    -3
100
AcDbSpline
210
0.0
220
0.0
230
1.0
 70
    11
 71
     3
 72
    28
 73
    24
 74
     0
 42
0.0000000001
 43
0.0000000001
 40
0.0
 40
0.0
 40
0.0
 40
0.0
 40
0.1428571428571428
 40
0.1428571428571428
 40
0.1428571428571428
 40
0.1428571428571428
 40
0.2857142857142857
 40
0.2857142857142857
 40
0.2857142857142857
 40
0.2857142857142857
 40
0.4285714285714285
 40
0.4285714285714285
 40
0.4285714285714285
 40
0.4285714285714285
 40
0.5714285714285714
 40
0.5714285714285714
 40
0.5714285714285714
 40
0.5714285714285714
 40
0.7142857142857144
 40
0.7142857142857144
 40
0.7142857142857144
 40
0.7142857142857144
 40
1.0
 40
1.0
 40
1.0
 40
1.0
 10
965.1285220648778
 20
535.6484958754615
 30
0.0
 10
965.1285220648778
 20
535.6484958754615
 30
0.0
 10
964.9145971183589
 20
536.947965550594
 30
0.0
 10
964.9145971183589
 20
536.947965550594
 30
0.0
 10
964.9145971183589
 20
536.947965550594
 30
0.0
 10
964.9145971183589
 20
536.947965550594
 30
0.0
 10
964.9145971183589
 20
538.0659472710988
 30
0.0
 10
964.9145971183589
 20
538.0659472710988
 30
0.0
 10
964.9145971183589
 20
538.0659472710988
 30
0.0
 10
964.9145971183589
 20
538.0659472710988
 30
0.0
 10
965.8121863939609
 20
538.0659472710988
 30
0.0
 10
965.8121863939609
 20
538.0659472710988
 30
0.0
 10
965.8121863939609
 20
538.0659472710988
 30
0.0
 10
965.8121863939609
 20
538.0659472710988
 30
0.0
 10
965.8121863939609
 20
536.947965550594
 30
0.0
 10
965.8121863939609
 20
536.947965550594
 30
0.0
 10
965.8121863939609
 20
536.947965550594
 30
0.0
 10
965.8121863939609
 20
536.947965550594
 30
0.0
 10
965.6013459466713
 20
535.6484958754615
 30
0.0
 10
965.6013459466713
 20
535.6484958754615
 30
0.0
 10
965.6013459466713
 20
535.6484958754615
 30
0.0
 10
965.6013459466713
 20
535.6484958754615
 30
0.0
 10
965.1285220648778
 20
535.6484958754615
 30
0.0
 10
965.1285220648778
 20
535.6484958754615
 30
0.0
  0
MTEXT
  5
2ED
330
1F
100
AcDbEntity
  8
0
100
AcDbMText
 10
922.4491183378173
 20
448.6523923934949
 30
0.0
 40
6.0
 41
279.2182074954931
 46
0.0
 71
     1
 72
     5
  1
{\fSimHei|b0|i0|c0|p49;Please check actual template against physical sinkunite for most\Paccurate cut!}
 73
     1
 44
1.0
  0
MTEXT
  5
2EE
330
1F
100
AcDbEntity
  8
0
100
AcDbMText
 10
920.0314081433702
 20
420.0713331336866
 30
0.0
 40
6.0
 41
279.2182074954931
 46
0.0
 71
     1
 72
     5
  1
{\fSimHei|b0|i0|c0|p49;Note:cutout template is provided as a guide only and should be\Pchecked against actual sink to determine correct fit.}
 73
     1
 44
1.0
  0
MTEXT
  5
2EF
330
1F
100
AcDbEntity
  8
0
100
AcDbMText
 10
918.2970204897756
 20
607.0230411552595
 30
0.0
 40
6.0
 41
279.2182074954931
 46
0.0
 71
     1
 72
     5
  1
{\fSimHei|b0|i0|c0|p49;Undermount template for the granite sink}
 73
     1
 44
1.0
  0
MTEXT
  5
2F0
330
1F
100
AcDbEntity
  8
0
100
AcDbMText
 10
920.2534592165402
 20
575.5017506104019
 30
0.0
 40
6.0
 41
279.2182074954931
 46
0.0
 71
     1
 72
     5
  1
{\fSimHei|b0|i0|c0|p49;Drawing}
 73
     1
 44
1.0
  0
LINE
  5
370
330
1F
100
AcDbEntity
  8
0
100
AcDbLine
 10
973.9090963697339
 20
532.9572205482804
 30
0.0
 11
973.9090963697339
 21
565.4288384303758
 31
0.0
  0
LWPOLYLINE
  5
371
330
1F
100
AcDbEntity
  8
0
100
AcDbPolyline
 90
        8
 70
     1
 43
0.0
 10
975.409096369734
 20
565.4288384303757
 10
1046.609096369734
 20
565.4288384303758
 42
-0.4142135623730956
 10
1048.109096369734
 20
563.9288384303759
 10
1048.109096369734
 20
501.9288384303759
 42
-0.4142135623730948
 10
1046.609096369734
 20
500.4288384303759
 10
975.409096369734
 20
500.4288384303758
 42
-0.4142135623730951
 10
973.9090963697339
 20
501.9288384303758
 10
973.9090963697339
 20
563.9288384303758
 42
-0.4142135623730951
  0
LWPOLYLINE
  5
38C
330
1F
100
AcDbEntity
  8
0
100
AcDbPolyline
 90
        8
 70
     1
 43
0.0
 10
970.1090963697341
 20
571.0288384303758
 10
1051.909096369734
 20
571.0288384303757
 42
-0.4142135623730951
 10
1053.709096369734
 20
569.2288384303758
 10
1053.709096369734
 20
496.6288384303759
 42
-0.4142135623730948
 10
1051.909096369734
 20
494.8288384303758
 10
970.1090963697341
 20
494.8288384303758
 42
-0.4142135623730951
 10
968.309096369734
 20
496.6288384303758
 10
968.309096369734
 20
569.2288384303759
 42
-0.4142135623730951
  0
CIRCLE
  5
3B9
330
1F
100
AcDbEntity
  8
0
100
AcDbCircle
 10
1010.408473244889
 20
532.9572205482804
 30
0.0
 40
13.29999999999995
  0
CIRCLE
  5
3BA
330
1F
100
AcDbEntity
  8
0
100
AcDbCircle
 10
1010.408473244889
 20
532.9572205482804
 30
0.0
 40
16.59999999999991
  0
LINE
  5
3EF
330
1F
100
AcDbEntity
  8
0
100
AcDbLine
 10
880.6519486840207
 20
625.8116893939295
 30
0.0
 11
880.6519486840207
 21
700.1823657590018
 31
0.0
  0
LINE
  5
3F0
330
1F
100
AcDbEntity
  8
0
100
AcDbLine
 10
1278.651948684021
 20
625.8116893936692
 30
0.0
 11
1278.651948684021
 21
700.1823657590018
 31
0.0
  0
SOLID
  5
3F3
330
1F
100
AcDbEntity
  8
0
100
AcDbTrace
 10
880.8319486840206
 20
700.0323657590017
 30
0.0
 11
880.8319486840206
 21
699.9723657590018
 31
0.0
 12
880.6519486840207
 22
700.0023657590018
 32
0.0
 13
880.6519486840207
 23
700.0023657590018
 33
0.0
  0
SOLID
  5
3F4
330
1F
100
AcDbEntity
  8
0
100
AcDbTrace
 10
1278.471948684021
 20
700.0323657590017
 30
0.0
 11
1278.471948684021
 21
699.9723657590018
 31
0.0
 12
1278.651948684021
 22
700.0023657590018
 32
0.0
 13
1278.651948684021
 23
700.0023657590018
 33
0.0
  0
MTEXT
  5
3F5
330
1F
100
AcDbEntity
  8
0
100
AcDbMText
 10
1079.651948684021
 20
700.0023657590018
 30
0.0
 40
20.0
 41
0.0
 46
0.0
 71
     5
 72
     1
  1
\A1;398
 73
     1
 44
1.0
  0
LINE
  5
3F6
330
1F
100
AcDbEntity
  8
0
100
AcDbLine
 10
889.0832640605667
 20
661.1201535075467
 30
0.0
 11
827.7749723837937
 21
661.1201535075467
 31
0.0
  0
LINE
  5
3F7
330
1F
100
AcDbEntity
  8
0
100
AcDbLine
 10
894.280007046389
 20
312.8702405700258
 30
0.0
 11
827.7749723837937
 21
312.8702405700258
 31
0.0
  0
SOLID
  5
3FA
330
1F
100
AcDbEntity
  8
0
100
AcDbTrace
 10
827.9249723837935
 20
660.9401535075468
 30
0.0
 11
827.9849723837935
 21
660.9401535075468
 31
0.0
 12
827.9549723837936
 22
661.1201535075467
 32
0.0
 13
827.9549723837936
 23
661.1201535075467
 33
0.0
  0
SOLID
  5
3FB
330
1F
100
AcDbEntity
  8
0
100
AcDbTrace
 10
827.9249723837935
 20
313.0502405700258
 30
0.0
 11
827.9849723837935
 21
313.0502405700258
 31
0.0
 12
827.9549723837936
 22
312.8702405700258
 32
0.0
 13
827.9549723837936
 23
312.8702405700258
 33
0.0
  0
MTEXT
  5
3FC
330
1F
100
AcDbEntity
  8
0
100
AcDbMText
 10
827.9549723837934
 20
486.9951970387864
 30
0.0
 40
30.0
 41
0.0
 46
0.0
 71
     5
 72
     1
  1
\A1;348
 73
     1
 44
1.0
  0
LINE
  5
3FD
330
1F
100
AcDbEntity
  8
0
100
AcDbLine
 10
880.6519486840207
 20
700.1823657590018
 30
0.0
 11
1029.719599384232
 21
700.1823657590018
 31
0.0
  0
LINE
  5
3FE
330
1F
100
AcDbEntity
  8
0
100
AcDbLine
 10
1278.471948684021
 20
700.0323657590017
 30
0.0
 11
1123.222691324923
 21
700.0323657590017
 31
0.0
  0
LINE
  5
3FF
330
1F
100
AcDbEntity
  8
0
100
AcDbLine
 10
827.9849723837935
 20
660.9401535075468
 30
0.0
 11
827.9849723837935
 21
530.908396729209
 31
0.0
  0
LINE
  5
400
330
1F
100
AcDbEntity
  8
0
100
AcDbLine
 10
827.9249723837935
 20
313.0502405700258
 30
0.0
 11
827.9249723837935
 21
444.0166756532553
 31
0.0
  0
ENDSEC
  0
SECTION
  2
OBJECTS
  0
DICTIONARY
  5
C
330
0
100
AcDbDictionary
281
     1
  3
ACAD_COLOR
350
2AE
  3
ACAD_DETAILVIEWSTYLE
350
2A8
  3
ACAD_GROUP
350
D
  3
ACAD_LAYOUT
350
1A
  3
ACAD_MATERIAL
350
43
  3
ACAD_MLEADERSTYLE
350
6B
  3
ACAD_MLINESTYLE
350
17
  3
ACAD_PLOTSETTINGS
350
19
  3
ACAD_PLOTSTYLENAME
350
E
  3
ACAD_SCALELIST
350
47
  3
ACAD_SECTIONVIEWSTYLE
350
2A9
  3
ACAD_TABLESTYLE
350
69
  3
ACAD_VISUALSTYLE
350
2A
  3
ACDB_RECOMPOSE_DATA
350
2A5
  3
AcDbVariableDictionary
350
26D
  0
SUN
  5
6D
330
29
100
AcDbSun
 90
        1
290
     1
 63
     7
421
 16777215
 40
1.0
291
     1
 91
  2455826
 92
 54000000
292
     0
 70
     0
 71
   256
280
     1
  0
DICTIONARY
  5
2B1
330
10
100
AcDbDictionary
280
     1
281
     1
  3
ADSK_XREC_LAYER_RECONCILED
360
2B2
  0
DICTIONARY
  5
2B3
330
6F
100
AcDbDictionary
280
     1
281
     1
  3
ADSK_XREC_LAYER_RECONCILED
360
2B4
  0
DICTIONARY
  5
38D
330
1F
100
AcDbDictionary
280
     1
281
     1
  3
ACAD_SORTENTS
360
38E
  0
DICTIONARY
  5
2AE
102
{ACAD_REACTORS
330
C
102
}
330
C
100
AcDbDictionary
281
     1
  0
DICTIONARY
  5
2A8
102
{ACAD_REACTORS
330
C
102
}
330
C
100
AcDbDictionary
281
     1
  0
DICTIONARY
  5
D
102
{ACAD_REACTORS
330
C
102
}
330
C
100
AcDbDictionary
281
     1
  0
DICTIONARY
  5
1A
102
{ACAD_REACTORS
330
C
102
}
330
C
100
AcDbDictionary
281
     1
  3
Layout1
350
1E
  3
Layout2
350
26
  3
Model
350
22
  0
DICTIONARY
  5
43
102
{ACAD_REACTORS
330
C
102
}
330
C
100
AcDbDictionary
281
     1
  3
ByBlock
350
45
  3
ByLayer
350
44
  3
Global
350
46
  0
DICTIONARY
  5
6B
102
{ACAD_REACTORS
330
C
102
}
330
C
100
AcDbDictionary
281
     1
  3
Standard
350
6C
  0
DICTIONARY
  5
17
102
{ACAD_REACTORS
330
C
102
}
330
C
100
AcDbDictionary
281
     1
  3
Standard
350
18
  0
DICTIONARY
  5
19
102
{ACAD_REACTORS
330
C
102
}
330
C
100
AcDbDictionary
281
     1
  0
ACDBDICTIONARYWDFLT
  5
E
102
{ACAD_REACTORS
330
C
102
}
330
C
100
AcDbDictionary
281
     1
  3
Normal
350
F
100
AcDbDictionaryWithDefault
340
F
  0
DICTIONARY
  5
47
102
{ACAD_REACTORS
330
C
102
}
330
C
100
AcDbDictionary
281
     1
  3
A0
350
48
  3
A1
350
49
  3
A2
350
4A
  3
A3
350
4B
  3
A4
350
4C
  3
A5
350
4D
  3
A6
350
4E
  3
A7
350
4F
  3
A8
350
50
  3
A9
350
51
  3
B0
350
52
  3
B1
350
53
  3
B2
350
54
  3
B3
350
55
  3
B4
350
56
  3
B5
350
57
  3
B6
350
58
  3
B7
350
59
  3
B8
350
5A
  3
B9
350
5B
  3
C0
350
5C
  3
C1
350
5D
  3
C2
350
5E
  3
C3
350
5F
  3
C4
350
60
  3
C5
350
61
  3
C6
350
62
  3
C7
350
63
  3
C8
350
64
  3
C9
350
65
  3
D0
350
66
  3
D1
350
67
  3
D2
350
68
  0
DICTIONARY
  5
2A9
102
{ACAD_REACTORS
330
C
102
}
330
C
100
AcDbDictionary
281
     1
  0
DICTIONARY
  5
69
102
{ACAD_REACTORS
330
C
102
}
330
C
100
AcDbDictionary
281
     1
  3
Standard
350
6A
  0
DICTIONARY
  5
2A
102
{ACAD_REACTORS
330
C
102
}
330
C
100
AcDbDictionary
281
     1
  3
2dWireframe
350
2F
  3
3D Hidden
350
2AD
  3
3dWireframe
350
2AC
  3
Basic
350
32
  3
Brighten
350
36
  3
ColorChange
350
3A
  3
Conceptual
350
34
  3
Dim
350
35
  3
EdgeColorOff
350
3D
  3
Facepattern
350
39
  3
Flat
350
2B
  3
FlatWithEdges
350
2C
  3
Gouraud
350
2D
  3
GouraudWithEdges
350
2E
  3
Hidden
350
31
  3
JitterOff
350
3B
  3
Linepattern
350
38
  3
OverhangOff
350
3C
  3
Realistic
350
33
  3
Shaded
350
42
  3
Shaded with edges
350
41
  3
Shades of Gray
350
3E
  3
Sketchy
350
3F
  3
Thicken
350
37
  3
Wireframe
350
30
  3
X-Ray
350
40
  0
XRECORD
  5
2A5
102
{ACAD_REACTORS
330
C
102
}
330
C
100
AcDbXrecord
280
     1
 90
        1
330
6A
  0
DICTIONARY
  5
26D
102
{ACAD_REACTORS
330
C
102
}
330
C
100
AcDbDictionary
281
     1
  3
CANNOSCALE
350
26E
  3
CMLEADERSTYLE
350
2A7
  3
CTABLESTYLE
350
2A6
  3
XCLIPFRAME
350
26F
  0
XRECORD
  5
2B2
102
{ACAD_REACTORS
330
2B1
102
}
330
2B1
100
AcDbXrecord
280
     1
290
     1
  0
XRECORD
  5
2B4
102
{ACAD_REACTORS
330
2B3
102
}
330
2B3
100
AcDbXrecord
280
     1
290
     1
  0
SORTENTSTABLE
  5
38E
102
{ACAD_REACTORS
330
38D
102
}
330
38D
100
AcDbSortentsTable
330
1F
331
22D
  5
22D
331
20B
  5
20B
331
1F2
  5
1F2
331
1D0
  5
1D0
331
23E
  5
23E
331
21C
  5
21C
331
203
  5
203
331
1E1
  5
1E1
331
1BF
  5
1BF
331
1AE
  5
1AE
331
19D
  5
19D
331
370
  5
370
331
22B
  5
22B
331
209
  5
209
331
1F0
  5
1F0
331
3FB
  5
3FB
331
25E
  5
25E
331
23C
  5
23C
331
21A
  5
21A
331
201
  5
201
331
1DF
  5
1DF
331
1BD
  5
1BD
331
1CE
  5
1CE
331
1AC
  5
1AC
331
229
  5
229
331
25C
  5
25C
331
23A
  5
23A
331
218
  5
218
331
1FF
  5
1FF
331
1DD
  5
1DD
331
1BB
  5
1BB
331
1EE
  5
1EE
331
1CC
  5
1CC
331
1AA
  5
1AA
331
2EF
  5
2EF
331
26B
  5
26B
331
3F7
  5
3F7
331
25A
  5
25A
331
238
  5
238
331
216
  5
216
331
1FD
  5
1FD
331
1DB
  5
1DB
331
1B9
  5
1B9
331
227
  5
227
331
1EC
  5
1EC
331
1CA
  5
1CA
331
1A8
  5
1A8
331
38C
  5
38C
331
2ED
  5
2ED
331
269
  5
269
331
3F5
  5
3F4
331
236
  5
236
331
214
  5
214
331
1FB
  5
1FB
331
1D9
  5
1D9
331
1B7
  5
1B7
331
225
  5
225
331
1EA
  5
1EA
331
1C8
  5
1C8
331
1A6
  5
1A6
331
3F3
  5
3F2
331
234
  5
234
331
212
  5
212
331
1F9
  5
1F9
331
1D7
  5
1D7
331
1B5
  5
1B5
331
245
  5
245
331
223
  5
223
331
1E8
  5
1E8
331
1C6
  5
1C6
331
1A4
  5
1A4
331
232
  5
232
331
210
  5
210
331
1F7
  5
1F7
331
1D5
  5
1D5
331
1B3
  5
1B3
331
243
  5
243
331
221
  5
221
331
1E6
  5
1E6
331
1C4
  5
1C4
331
1A2
  5
1A2
331
3EF
  5
3D5
331
230
  5
230
331
20E
  5
20E
331
1F5
  5
1F5
331
1D3
  5
1D3
331
1B1
  5
1B1
331
3B9
  5
3B9
331
241
  5
241
331
21F
  5
21F
331
206
  5
206
331
1E4
  5
1E4
331
1C2
  5
1C2
331
1A0
  5
1A0
331
22E
  5
22E
331
20C
  5
20C
331
1F3
  5
1F3
331
1D1
  5
1D1
331
23F
  5
23F
331
21D
  5
21D
331
204
  5
204
331
1E2
  5
1E2
331
1C0
  5
1C0
331
1AF
  5
1AF
331
19E
  5
19E
331
70
  5
70
331
371
  5
371
331
22C
  5
22C
331
20A
  5
20A
331
1F1
  5
1F1
331
3FC
  5
3FC
331
25F
  5
25F
331
23D
  5
23D
331
21B
  5
21B
331
202
  5
202
331
1E0
  5
1E0
331
1BE
  5
1BE
331
1CF
  5
1CF
331
1AD
  5
1AD
331
22A
  5
22A
331
208
  5
208
331
3FA
  5
3FA
331
25D
  5
25D
331
23B
  5
23B
331
219
  5
219
331
200
  5
200
331
1DE
  5
1DE
331
1BC
  5
1BC
331
1EF
  5
1EF
331
1CD
  5
1CD
331
1AB
  5
1AB
331
2F0
  5
2F0
331
26C
  5
26C
331
228
  5
228
331
25B
  5
25B
331
239
  5
239
331
217
  5
217
331
1FE
  5
1FE
331
1DC
  5
1DC
331
1BA
  5
1BA
331
1ED
  5
1ED
331
1CB
  5
1CB
331
1A9
  5
1A9
331
2EE
  5
2EE
331
26A
  5
26A
331
3F6
  5
3F6
331
237
  5
237
331
215
  5
215
331
1FC
  5
1FC
331
1DA
  5
1DA
331
1B8
  5
1B8
331
226
  5
226
331
1EB
  5
1EB
331
1C9
  5
1C9
331
1A7
  5
1A7
331
268
  5
268
331
3F4
  5
3F3
331
235
  5
235
331
213
  5
213
331
1FA
  5
1FA
331
1D8
  5
1D8
331
1B6
  5
1B6
331
224
  5
224
331
1E9
  5
1E9
331
1C7
  5
1C7
331
1A5
  5
1A5
331
233
  5
233
331
211
  5
211
331
1F8
  5
1F8
331
1D6
  5
1D6
331
1B4
  5
1B4
331
244
  5
244
331
222
  5
222
331
1E7
  5
1E7
331
1C5
  5
1C5
331
1A3
  5
1A3
331
3F0
  5
3EF
331
231
  5
231
331
20F
  5
20F
331
1F6
  5
1F6
331
1D4
  5
1D4
331
1B2
  5
1B2
331
3BA
  5
3BA
331
242
  5
242
331
220
  5
220
331
207
  5
207
331
1E5
  5
1E5
331
1C3
  5
1C3
331
1A1
  5
1A1
331
22F
  5
22F
331
20D
  5
20D
331
1F4
  5
1F4
331
1D2
  5
1D2
331
1B0
  5
1B0
331
240
  5
240
331
21E
  5
21E
331
205
  5
205
331
1E3
  5
1E3
331
1C1
  5
1C1
331
19F
  5
19F
  0
LAYOUT
  5
1E
102
{ACAD_REACTORS
330
1A
102
}
330
1A
100
AcDbPlotSettings
  1

  2
none_device
  4

  6

 40
0.0
 41
0.0
 42
0.0
 43
0.0
 44
0.0
 45
0.0
 46
0.0
 47
0.0
 48
0.0
 49
0.0
140
0.0
141
0.0
142
1.0
143
1.0
 70
   688
 72
     0
 73
     0
 74
     5
  7

 75
    16
147
1.0
 76
     0
 77
     2
 78
   300
148
0.0
149
0.0
100
AcDbLayout
  1
Layout1
 70
     1
 71
     1
 10
0.0
 20
0.0
 11
12.0
 21
9.0
 12
0.0
 22
0.0
 32
0.0
 14
1.000000000000000E+20
 24
1.000000000000000E+20
 34
1.000000000000000E+20
 15
-1.000000000000000E+20
 25
-1.000000000000000E+20
 35
-1.000000000000000E+20
146
0.0
 13
0.0
 23
0.0
 33
0.0
 16
1.0
 26
0.0
 36
0.0
 17
0.0
 27
1.0
 37
0.0
 76
     0
330
1B
  0
LAYOUT
  5
26
102
{ACAD_REACTORS
330
1A
102
}
330
1A
100
AcDbPlotSettings
  1

  2
none_device
  4

  6

 40
0.0
 41
0.0
 42
0.0
 43
0.0
 44
0.0
 45
0.0
 46
0.0
 47
0.0
 48
0.0
 49
0.0
140
0.0
141
0.0
142
1.0
143
1.0
 70
   688
 72
     0
 73
     0
 74
     5
  7

 75
    16
147
1.0
 76
     0
 77
     2
 78
   300
148
0.0
149
0.0
100
AcDbLayout
  1
Layout2
 70
     1
 71
     2
 10
0.0
 20
0.0
 11
0.0
 21
0.0
 12
0.0
 22
0.0
 32
0.0
 14
0.0
 24
0.0
 34
0.0
 15
0.0
 25
0.0
 35
0.0
146
0.0
 13
0.0
 23
0.0
 33
0.0
 16
1.0
 26
0.0
 36
0.0
 17
0.0
 27
1.0
 37
0.0
 76
     0
330
23
  0
LAYOUT
  5
22
102
{ACAD_REACTORS
330
1A
102
}
330
1A
100
AcDbPlotSettings
  1

  2
none_device
  4
Letter_(8.50_x_11.00_Inches)
  6

 40
6.349999999999999
 41
6.349999999999999
 42
6.350005079999999
 43
6.350005079999999
 44
215.9
 45
279.4
 46
0.0
 47
0.0
 48
0.0
 49
0.0
140
0.0
141
0.0
142
1.0
143
1.0
 70
  1712
 72
     0
 73
     0
 74
     0
  7

 75
     0
147
1.0
 76
     0
 77
     2
 78
   300
148
0.0
149
0.0
100
AcDbLayout
  1
Model
 70
     1
 71
     0
 10
0.0
 20
0.0
 11
12.0
 21
9.0
 12
0.0
 22
0.0
 32
0.0
 14
-27.99554
 24
-19.88231
 34
0.0
 15
22.72254
 25
24.56385
 35
0.0
146
0.0
 13
0.0
 23
0.0
 33
0.0
 16
1.0
 26
0.0
 36
0.0
 17
0.0
 27
1.0
 37
0.0
 76
     0
330
1F
331
29
  0
MATERIAL
  5
45
102
{ACAD_REACTORS
330
43
102
}
330
43
100
AcDbMaterial
  1
ByBlock
  0
MATERIAL
  5
44
102
{ACAD_REACTORS
330
43
102
}
330
43
100
AcDbMaterial
  1
ByLayer
  0
MATERIAL
  5
46
102
{ACAD_REACTORS
330
43
102
}
330
43
100
AcDbMaterial
  1
Global
  0
MLEADERSTYLE
  5
6C
102
{ACAD_XDICTIONARY
360
2A3
102
}
102
{ACAD_REACTORS
330
6B
102
}
330
6B
100
AcDbMLeaderStyle
170
     2
171
     1
172
     0
 90
        2
 40
0.0
 41
0.0
173
     1
 91
-1056964608
340
14
 92
       -2
290
     1
 42
0.09
291
     1
 43
0.36
  3
Standard
 44
0.18
300

342
11
174
     1
178
     6
175
     1
176
     0
 93
-1056964608
 45
0.18
292
     0
297
     0
 46
0.18
 94
-1056964608
 47
1.0
 49
1.0
140
1.0
293
     1
141
0.0
294
     1
177
     0
142
1.0
295
     0
296
     0
143
0.125
1001
ACAD_MLEADERVER
1070
     2
  0
MLINESTYLE
  5
18
102
{ACAD_REACTORS
330
17
102
}
330
17
100
AcDbMlineStyle
  2
STANDARD
 70
     0
  3

 62
   256
 51
90.0
 52
90.0
 71
     2
 49
0.5
 62
   256
  6
BYLAYER
 49
-0.5
 62
   256
  6
BYLAYER
  0
ACDBPLACEHOLDER
  5
F
102
{ACAD_REACTORS
330
E
102
}
330
E
  0
SCALE
  5
48
102
{ACAD_REACTORS
330
47
102
}
330
47
100
AcDbScale
 70
     0
300
1:1
140
1.0
141
1.0
290
     1
  0
SCALE
  5
49
102
{ACAD_REACTORS
330
47
102
}
330
47
100
AcDbScale
 70
     0
300
1:2
140
1.0
141
2.0
290
     0
  0
SCALE
  5
4A
102
{ACAD_REACTORS
330
47
102
}
330
47
100
AcDbScale
 70
     0
300
1:4
140
1.0
141
4.0
290
     0
  0
SCALE
  5
4B
102
{ACAD_REACTORS
330
47
102
}
330
47
100
AcDbScale
 70
     0
300
1:5
140
1.0
141
5.0
290
     0
  0
SCALE
  5
4C
102
{ACAD_REACTORS
330
47
102
}
330
47
100
AcDbScale
 70
     0
300
1:8
140
1.0
141
8.0
290
     0
  0
SCALE
  5
4D
102
{ACAD_REACTORS
330
47
102
}
330
47
100
AcDbScale
 70
     0
300
1:10
140
1.0
141
10.0
290
     0
  0
SCALE
  5
4E
102
{ACAD_REACTORS
330
47
102
}
330
47
100
AcDbScale
 70
     0
300
1:16
140
1.0
141
16.0
290
     0
  0
SCALE
  5
4F
102
{ACAD_REACTORS
330
47
102
}
330
47
100
AcDbScale
 70
     0
300
1:20
140
1.0
141
20.0
290
     0
  0
SCALE
  5
50
102
{ACAD_REACTORS
330
47
102
}
330
47
100
AcDbScale
 70
     0
300
1:30
140
1.0
141
30.0
290
     0
  0
SCALE
  5
51
102
{ACAD_REACTORS
330
47
102
}
330
47
100
AcDbScale
 70
     0
300
1:40
140
1.0
141
40.0
290
     0
  0
SCALE
  5
52
102
{ACAD_REACTORS
330
47
102
}
330
47
100
AcDbScale
 70
     0
300
1:50
140
1.0
141
50.0
290
     0
  0
SCALE
  5
53
102
{ACAD_REACTORS
330
47
102
}
330
47
100
AcDbScale
 70
     0
300
1:100
140
1.0
141
100.0
290
     0
  0
SCALE
  5
54
102
{ACAD_REACTORS
330
47
102
}
330
47
100
AcDbScale
 70
     0
300
2:1
140
2.0
141
1.0
290
     0
  0
SCALE
  5
55
102
{ACAD_REACTORS
330
47
102
}
330
47
100
AcDbScale
 70
     0
300
4:1
140
4.0
141
1.0
290
     0
  0
SCALE
  5
56
102
{ACAD_REACTORS
330
47
102
}
330
47
100
AcDbScale
 70
     0
300
8:1
140
8.0
141
1.0
290
     0
  0
SCALE
  5
57
102
{ACAD_REACTORS
330
47
102
}
330
47
100
AcDbScale
 70
     0
300
10:1
140
10.0
141
1.0
290
     0
  0
SCALE
  5
58
102
{ACAD_REACTORS
330
47
102
}
330
47
100
AcDbScale
 70
     0
300
100:1
140
100.0
141
1.0
290
     0
  0
SCALE
  5
59
102
{ACAD_REACTORS
330
47
102
}
330
47
100
AcDbScale
 70
     0
300
1/128" = 1'-0"
140
0.0078125
141
12.0
290
     0
  0
SCALE
  5
5A
102
{ACAD_REACTORS
330
47
102
}
330
47
100
AcDbScale
 70
     0
300
1/64" = 1'-0"
140
0.015625
141
12.0
290
     0
  0
SCALE
  5
5B
102
{ACAD_REACTORS
330
47
102
}
330
47
100
AcDbScale
 70
     0
300
1/32" = 1'-0"
140
0.03125
141
12.0
290
     0
  0
SCALE
  5
5C
102
{ACAD_REACTORS
330
47
102
}
330
47
100
AcDbScale
 70
     0
300
1/16" = 1'-0"
140
0.0625
141
12.0
290
     0
  0
SCALE
  5
5D
102
{ACAD_REACTORS
330
47
102
}
330
47
100
AcDbScale
 70
     0
300
3/32" = 1'-0"
140
0.09375
141
12.0
290
     0
  0
SCALE
  5
5E
102
{ACAD_REACTORS
330
47
102
}
330
47
100
AcDbScale
 70
     0
300
1/8" = 1'-0"
140
0.125
141
12.0
290
     0
  0
SCALE
  5
5F
102
{ACAD_REACTORS
330
47
102
}
330
47
100
AcDbScale
 70
     0
300
3/16" = 1'-0"
140
0.1875
141
12.0
290
     0
  0
SCALE
  5
60
102
{ACAD_REACTORS
330
47
102
}
330
47
100
AcDbScale
 70
     0
300
1/4" = 1'-0"
140
0.25
141
12.0
290
     0
  0
SCALE
  5
61
102
{ACAD_REACTORS
330
47
102
}
330
47
100
AcDbScale
 70
     0
300
3/8" = 1'-0"
140
0.375
141
12.0
290
     0
  0
SCALE
  5
62
102
{ACAD_REACTORS
330
47
102
}
330
47
100
AcDbScale
 70
     0
300
1/2" = 1'-0"
140
0.5
141
12.0
290
     0
  0
SCALE
  5
63
102
{ACAD_REACTORS
330
47
102
}
330
47
100
AcDbScale
 70
     0
300
3/4" = 1'-0"
140
0.75
141
12.0
290
     0
  0
SCALE
  5
64
102
{ACAD_REACTORS
330
47
102
}
330
47
100
AcDbScale
 70
     0
300
1" = 1'-0"
140
1.0
141
12.0
290
     0
  0
SCALE
  5
65
102
{ACAD_REACTORS
330
47
102
}
330
47
100
AcDbScale
 70
     0
300
1-1/2" = 1'-0"
140
1.5
141
12.0
290
     0
  0
SCALE
  5
66
102
{ACAD_REACTORS
330
47
102
}
330
47
100
AcDbScale
 70
     0
300
3" = 1'-0"
140
3.0
141
12.0
290
     0
  0
SCALE
  5
67
102
{ACAD_REACTORS
330
47
102
}
330
47
100
AcDbScale
 70
     0
300
6" = 1'-0"
140
6.0
141
12.0
290
     0
  0
SCALE
  5
68
102
{ACAD_REACTORS
330
47
102
}
330
47
100
AcDbScale
 70
     0
300
1'-0" = 1'-0"
140
12.0
141
12.0
290
     0
  0
TABLESTYLE
  5
6A
102
{ACAD_XDICTIONARY
360
2A0
102
}
102
{ACAD_REACTORS
330
69
102
}
330
69
100
AcDbTableStyle
  3
Standard
 70
     0
 71
     0
 40
0.06
 41
0.06
280
     0
281
     0
  7
Standard
140
0.18
170
     2
 62
     0
 63
     7
283
     0
 90
        4
 91
        0
  1

274
    -2
284
     1
 64
     0
275
    -2
285
     1
 65
     0
276
    -2
286
     1
 66
     0
277
    -2
287
     1
 67
     0
278
    -2
288
     1
 68
     0
279
    -2
289
     1
 69
     0
  7
Standard
140
0.25
170
     5
 62
     0
 63
     7
283
     0
 90
        4
 91
        0
  1

274
    -2
284
     1
 64
     0
275
    -2
285
     1
 65
     0
276
    -2
286
     1
 66
     0
277
    -2
287
     1
 67
     0
278
    -2
288
     1
 68
     0
279
    -2
289
     1
 69
     0
  7
Standard
140
0.18
170
     5
 62
     0
 63
     7
283
     0
 90
        4
 91
        0
  1

274
    -2
284
     1
 64
     0
275
    -2
285
     1
 65
     0
276
    -2
286
     1
 66
     0
277
    -2
287
     1
 67
     0
278
    -2
288
     1
 68
     0
279
    -2
289
     1
 69
     0
  0
VISUALSTYLE
  5
2F
102
{ACAD_XDICTIONARY
360
278
102
}
102
{ACAD_REACTORS
330
2A
102
}
330
2A
100
AcDbVisualStyle
  2
2dWireframe
 70
     4
 71
     0
 72
     2
 73
     0
 90
        0
 40
-0.6
 41
-30.0
 62
     5
 63
     7
421
 16777215
 74
     1
 91
        4
 64
     7
 65
   257
 75
     1
175
     1
 42
1.0
 92
        0
 66
   257
 43
1.0
 76
     1
 77
     6
 78
     2
 67
     7
 79
     5
170
     0
171
     0
290
     0
174
     0
 93
        1
 44
0.0
173
     0
291
     0
 45
0.0
  0
VISUALSTYLE
  5
2AD
102
{ACAD_REACTORS
330
2A
102
}
330
2A
100
AcDbVisualStyle
  2
3D Hidden
 70
     6
 71
     1
 72
     2
 73
     2
 90
        0
 40
-0.6
 41
-30.0
 62
     5
 63
     7
421
 16777215
 74
     2
 91
        2
 64
     7
 65
   257
 75
     2
175
     1
 42
40.0
 92
        0
 66
   257
 43
1.0
 76
     1
 77
     6
 78
     2
 67
     7
 79
     3
170
     0
171
     0
290
     0
174
     0
 93
        1
 44
0.0
173
     0
291
     0
 45
0.0
  0
VISUALSTYLE
  5
2AC
102
{ACAD_REACTORS
330
2A
102
}
330
2A
100
AcDbVisualStyle
  2
3dWireframe
 70
     5
 71
     0
 72
     2
 73
     0
 90
        0
 40
-0.6
 41
-30.0
 62
     5
 63
     7
421
 16777215
 74
     1
 91
        4
 64
     7
 65
   257
 75
     1
175
     1
 42
1.0
 92
        0
 66
   257
 43
1.0
 76
     1
 77
     6
 78
     2
 67
     7
 79
     5
170
     0
171
     0
290
     0
174
     0
 93
        1
 44
0.0
173
     0
291
     0
 45
0.0
  0
VISUALSTYLE
  5
32
102
{ACAD_XDICTIONARY
360
27E
102
}
102
{ACAD_REACTORS
330
2A
102
}
330
2A
100
AcDbVisualStyle
  2
Basic
 70
     7
 71
     1
 72
     0
 73
     1
 90
        0
 40
-0.6
 41
-30.0
 62
     5
 63
     7
421
 16777215
 74
     0
 91
        4
 64
     7
 65
   257
 75
     1
175
     1
 42
1.0
 92
        8
 66
     7
 43
1.0
 76
     1
 77
     6
 78
     2
 67
     7
 79
     5
170
     0
171
     0
290
     0
174
     0
 93
        1
 44
0.0
173
     0
291
     1
 45
0.0
  0
VISUALSTYLE
  5
36
102
{ACAD_XDICTIONARY
360
286
102
}
102
{ACAD_REACTORS
330
2A
102
}
330
2A
100
AcDbVisualStyle
  2
Brighten
 70
    12
 71
     2
 72
     2
 73
     0
 90
        0
 40
-0.6
 41
-30.0
 62
     5
 63
     7
421
 16777215
 74
     1
 91
        4
 64
     7
 65
   257
 75
     1
175
     1
 42
1.0
 92
        8
 66
     7
 43
1.0
 76
     1
 77
     6
 78
     2
 67
     7
 79
     5
170
     0
171
     0
290
     0
174
     0
 93
        1
 44
50.0
173
     0
291
     1
 45
0.0
  0
VISUALSTYLE
  5
3A
102
{ACAD_XDICTIONARY
360
28E
102
}
102
{ACAD_REACTORS
330
2A
102
}
330
2A
100
AcDbVisualStyle
  2
ColorChange
 70
    16
 71
     2
 72
     2
 73
     3
 90
        0
 40
-0.6
 41
-30.0
 62
     5
 63
     8
421
  8421504
 74
     1
 91
        4
 64
     7
 65
   257
 75
     1
175
     1
 42
1.0
 92
        8
 66
     8
424
  8421504
 43
1.0
 76
     1
 77
     6
 78
     2
 67
     7
 79
     5
170
     0
171
     0
290
     0
174
     0
 93
        1
 44
0.0
173
     0
291
     1
 45
0.0
  0
VISUALSTYLE
  5
34
102
{ACAD_XDICTIONARY
360
282
102
}
102
{ACAD_REACTORS
330
2A
102
}
330
2A
100
AcDbVisualStyle
  2
Conceptual
 70
     9
 71
     3
 72
     2
 73
     0
 90
        0
 40
-0.6
 41
-30.0
 62
     5
 63
     7
421
 16777215
 74
     2
 91
        2
 64
     7
 65
   257
 75
     1
175
     1
 42
179.0
 92
        8
 66
     7
 43
1.0
 76
     1
 77
     6
 78
     2
 67
     7
 79
     3
170
     0
171
     0
290
     0
174
     0
 93
        1
 44
0.0
173
     0
291
     0
 45
0.0
  0
VISUALSTYLE
  5
35
102
{ACAD_XDICTIONARY
360
284
102
}
102
{ACAD_REACTORS
330
2A
102
}
330
2A
100
AcDbVisualStyle
  2
Dim
 70
    11
 71
     2
 72
     2
 73
     0
 90
        0
 40
-0.6
 41
-30.0
 62
     5
 63
     7
421
 16777215
 74
     1
 91
        4
 64
     7
 65
   257
 75
     1
175
     1
 42
1.0
 92
        8
 66
     7
 43
1.0
 76
     1
 77
     6
 78
     2
 67
     7
 79
     5
170
     0
171
     0
290
     0
174
     0
 93
        1
 44
-50.0
173
     0
291
     1
 45
0.0
  0
VISUALSTYLE
  5
3D
102
{ACAD_XDICTIONARY
360
294
102
}
102
{ACAD_REACTORS
330
2A
102
}
330
2A
100
AcDbVisualStyle
  2
EdgeColorOff
 70
    22
 71
     2
 72
     2
 73
     0
 90
        0
 40
-0.6
 41
-30.0
 62
     5
 63
     7
421
 16777215
 74
     1
 91
        4
 64
     7
 65
   257
 75
     1
175
     1
 42
1.0
 92
        8
 66
     7
 43
1.0
 76
     1
 77
     6
 78
     2
 67
     7
 79
     5
170
     0
171
     0
290
     0
174
     0
 93
        1
 44
0.0
173
     0
291
     1
 45
0.0
  0
VISUALSTYLE
  5
39
102
{ACAD_XDICTIONARY
360
28C
102
}
102
{ACAD_REACTORS
330
2A
102
}
330
2A
100
AcDbVisualStyle
  2
Facepattern
 70
    15
 71
     2
 72
     2
 73
     0
 90
        0
 40
-0.6
 41
-30.0
 62
     5
 63
     7
421
 16777215
 74
     1
 91
        4
 64
     7
 65
   257
 75
     1
175
     1
 42
1.0
 92
        8
 66
     7
 43
1.0
 76
     1
 77
     6
 78
     2
 67
     7
 79
     5
170
     0
171
     0
290
     0
174
     0
 93
        1
 44
0.0
173
     0
291
     1
 45
0.0
  0
VISUALSTYLE
  5
2B
102
{ACAD_XDICTIONARY
360
270
102
}
102
{ACAD_REACTORS
330
2A
102
}
330
2A
100
AcDbVisualStyle
  2
Flat
 70
     0
 71
     2
 72
     1
 73
     1
 90
        2
 40
-0.6
 41
30.0
 62
     5
 63
     7
421
 16777215
 74
     0
 91
        0
 64
     7
 65
   257
 75
     1
175
     1
 42
1.0
 92
        8
 66
     7
 43
1.0
 76
     1
 77
     6
 78
     2
 67
     7
 79
     5
170
     0
171
     0
290
     0
174
     0
 93
       13
 44
0.0
173
     0
291
     1
 45
0.0
  0
VISUALSTYLE
  5
2C
102
{ACAD_XDICTIONARY
360
272
102
}
102
{ACAD_REACTORS
330
2A
102
}
330
2A
100
AcDbVisualStyle
  2
FlatWithEdges
 70
     1
 71
     2
 72
     1
 73
     1
 90
        2
 40
-0.6
 41
30.0
 62
     5
 63
     7
421
 16777215
 74
     1
 91
        0
 64
     7
 65
   257
 75
     1
175
     1
 42
1.0
 92
        0
 66
   257
 43
1.0
 76
     1
 77
     6
 78
     2
 67
     7
 79
     5
170
     0
171
     0
290
     0
174
     0
 93
       13
 44
0.0
173
     0
291
     1
 45
0.0
  0
VISUALSTYLE
  5
2D
102
{ACAD_XDICTIONARY
360
274
102
}
102
{ACAD_REACTORS
330
2A
102
}
330
2A
100
AcDbVisualStyle
  2
Gouraud
 70
     2
 71
     2
 72
     2
 73
     1
 90
        2
 40
-0.6
 41
30.0
 62
     5
 63
     7
421
 16777215
 74
     0
 91
        0
 64
     7
 65
   257
 75
     1
175
     1
 42
1.0
 92
        0
 66
     7
 43
1.0
 76
     1
 77
     6
 78
     2
 67
     7
 79
     5
170
     0
171
     0
290
     0
174
     0
 93
       13
 44
0.0
173
     0
291
     1
 45
0.0
  0
VISUALSTYLE
  5
2E
102
{ACAD_XDICTIONARY
360
276
102
}
102
{ACAD_REACTORS
330
2A
102
}
330
2A
100
AcDbVisualStyle
  2
GouraudWithEdges
 70
     3
 71
     2
 72
     2
 73
     1
 90
        2
 40
-0.6
 41
30.0
 62
     5
 63
     7
421
 16777215
 74
     1
 91
        0
 64
     7
 65
   257
 75
     1
175
     1
 42
1.0
 92
        0
 66
   257
 43
1.0
 76
     1
 77
     6
 78
     2
 67
     7
 79
     5
170
     0
171
     0
290
     0
174
     0
 93
       13
 44
0.0
173
     0
291
     1
 45
0.0
  0
VISUALSTYLE
  5
31
102
{ACAD_XDICTIONARY
360
27C
102
}
102
{ACAD_REACTORS
330
2A
102
}
330
2A
100
AcDbVisualStyle
  2
Hidden
 70
     6
 71
     1
 72
     2
 73
     2
 90
        0
 40
-0.6
 41
-30.0
 62
     5
 63
     7
421
 16777215
 74
     2
 91
        2
 64
     7
 65
   257
 75
     2
175
     1
 42
40.0
 92
        0
 66
   257
 43
1.0
 76
     1
 77
     6
 78
     2
 67
     7
 79
     3
170
     0
171
     0
290
     0
174
     0
 93
        1
 44
0.0
173
     0
291
     0
 45
0.0
  0
VISUALSTYLE
  5
3B
102
{ACAD_XDICTIONARY
360
290
102
}
102
{ACAD_REACTORS
330
2A
102
}
330
2A
100
AcDbVisualStyle
  2
JitterOff
 70
    20
 71
     2
 72
     2
 73
     0
 90
        0
 40
-0.6
 41
-30.0
 62
     5
 63
     7
421
 16777215
 74
     1
 91
        4
 64
     7
 65
   257
 75
     1
175
     1
 42
1.0
 92
       10
 66
     7
 43
1.0
 76
     1
 77
     6
 78
     2
 67
     7
 79
     5
170
     0
171
     0
290
     0
174
     0
 93
        1
 44
0.0
173
     0
291
     1
 45
0.0
  0
VISUALSTYLE
  5
38
102
{ACAD_XDICTIONARY
360
28A
102
}
102
{ACAD_REACTORS
330
2A
102
}
330
2A
100
AcDbVisualStyle
  2
Linepattern
 70
    14
 71
     2
 72
     2
 73
     0
 90
        0
 40
-0.6
 41
-30.0
 62
     5
 63
     7
421
 16777215
 74
     1
 91
        4
 64
     7
 65
   257
 75
     7
175
     7
 42
1.0
 92
        8
 66
     7
 43
1.0
 76
     1
 77
     6
 78
     2
 67
     7
 79
     5
170
     0
171
     0
290
     0
174
     0
 93
        1
 44
0.0
173
     0
291
     1
 45
0.0
  0
VISUALSTYLE
  5
3C
102
{ACAD_XDICTIONARY
360
292
102
}
102
{ACAD_REACTORS
330
2A
102
}
330
2A
100
AcDbVisualStyle
  2
OverhangOff
 70
    21
 71
     2
 72
     2
 73
     0
 90
        0
 40
-0.6
 41
-30.0
 62
     5
 63
     7
421
 16777215
 74
     1
 91
        4
 64
     7
 65
   257
 75
     1
175
     1
 42
1.0
 92
        9
 66
     7
 43
1.0
 76
     1
 77
     6
 78
     2
 67
     7
 79
     5
170
     0
171
     0
290
     0
174
     0
 93
        1
 44
0.0
173
     0
291
     1
 45
0.0
  0
VISUALSTYLE
  5
33
102
{ACAD_XDICTIONARY
360
280
102
}
102
{ACAD_REACTORS
330
2A
102
}
330
2A
100
AcDbVisualStyle
  2
Realistic
 70
     8
 71
     2
 72
     3
 73
     0
 90
        2
 40
-0.6
 41
30.0
 62
     5
 63
     7
421
 16777215
 74
     0
 91
        0
 64
     7
 65
   257
 75
     1
175
     1
 42
1.0
 92
        8
 66
   257
 43
1.0
 76
     1
 77
     6
 78
     2
 67
     7
 79
     3
170
     0
171
     0
290
     0
174
     0
 93
       13
 44
0.0
173
     0
291
     0
 45
0.0
  0
VISUALSTYLE
  5
42
102
{ACAD_XDICTIONARY
360
29E
102
}
102
{ACAD_REACTORS
330
2A
102
}
330
2A
100
AcDbVisualStyle
  2
Shaded
 70
    27
 71
     2
 72
     2
 73
     1
 90
        2
 40
-0.6
 41
30.0
 62
     5
 63
     7
421
 16777215
 74
     0
 91
        4
 64
     7
 65
   257
 75
     1
175
     1
 42
1.0
 92
        8
 66
   257
 43
1.0
 76
     1
 77
     6
 78
     2
 67
     8
425
  7895160
 79
     3
170
     0
171
     0
290
     0
174
     0
 93
        5
 44
0.0
173
     0
291
     0
 45
0.0
  0
VISUALSTYLE
  5
41
102
{ACAD_XDICTIONARY
360
29C
102
}
102
{ACAD_REACTORS
330
2A
102
}
330
2A
100
AcDbVisualStyle
  2
Shaded with edges
 70
    26
 71
     2
 72
     2
 73
     1
 90
        2
 40
-0.6
 41
30.0
 62
     5
 63
     7
421
 16777215
 74
     1
 91
       10
 64
     7
 65
   257
 75
     2
175
     1
 42
1.0
 92
        8
 66
   257
 43
1.0
 76
     1
 77
     6
 78
     2
 67
     7
 79
     3
170
     0
171
     0
290
     0
174
     0
 93
        5
 44
0.0
173
     0
291
     0
 45
0.0
  0
VISUALSTYLE
  5
3E
102
{ACAD_XDICTIONARY
360
296
102
}
102
{ACAD_REACTORS
330
2A
102
}
330
2A
100
AcDbVisualStyle
  2
Shades of Gray
 70
    23
 71
     2
 72
     2
 73
     3
 90
        0
 40
-0.6
 41
-30.0
 62
     5
 63
     7
421
 16777215
 74
     2
 91
        2
 64
     7
 65
     7
 75
     1
175
     1
 42
40.0
 92
        8
 66
     7
 43
1.0
 76
     1
 77
     6
 78
     2
 67
     7
 79
     3
170
     0
171
     0
290
     0
174
     0
 93
        1
 44
0.0
173
     0
291
     0
 45
0.0
  0
VISUALSTYLE
  5
3F
102
{ACAD_XDICTIONARY
360
298
102
}
102
{ACAD_REACTORS
330
2A
102
}
330
2A
100
AcDbVisualStyle
  2
Sketchy
 70
    24
 71
     1
 72
     2
 73
     2
 90
        0
 40
-0.6
 41
-30.0
 62
     5
 63
     7
421
 16777215
 74
     2
 91
        2
 64
     7
 65
     7
 75
     1
175
     1
 42
40.0
 92
       11
 66
     7
 43
1.0
 76
     1
 77
     6
 78
     2
 67
     7
 79
     6
170
     0
171
     0
290
     0
174
     0
 93
        1
 44
0.0
173
     0
291
     0
 45
0.0
  0
VISUALSTYLE
  5
37
102
{ACAD_XDICTIONARY
360
288
102
}
102
{ACAD_REACTORS
330
2A
102
}
330
2A
100
AcDbVisualStyle
  2
Thicken
 70
    13
 71
     2
 72
     2
 73
     0
 90
        0
 40
-0.6
 41
-30.0
 62
     5
 63
     7
421
 16777215
 74
     1
 91
        4
 64
     7
 65
   257
 75
     1
175
     1
 42
1.0
 92
       12
 66
     7
 43
1.0
 76
     1
 77
     6
 78
     2
 67
     7
 79
     5
170
     0
171
     0
290
     0
174
     0
 93
        1
 44
0.0
173
     0
291
     1
 45
0.0
  0
VISUALSTYLE
  5
30
102
{ACAD_XDICTIONARY
360
27A
102
}
102
{ACAD_REACTORS
330
2A
102
}
330
2A
100
AcDbVisualStyle
  2
Wireframe
 70
     5
 71
     0
 72
     2
 73
     0
 90
        0
 40
-0.6
 41
-30.0
 62
     5
 63
     7
421
 16777215
 74
     1
 91
        4
 64
     7
 65
   257
 75
     1
175
     1
 42
1.0
 92
        0
 66
   257
 43
1.0
 76
     1
 77
     6
 78
     2
 67
     7
 79
     3
170
     0
171
     0
290
     0
174
     0
 93
        1
 44
0.0
173
     0
291
     0
 45
0.0
  0
VISUALSTYLE
  5
40
102
{ACAD_XDICTIONARY
360
29A
102
}
102
{ACAD_REACTORS
330
2A
102
}
330
2A
100
AcDbVisualStyle
  2
X-Ray
 70
    25
 71
     2
 72
     2
 73
     1
 90
        1
 40
0.5
 41
-30.0
 62
     5
 63
     7
421
 16777215
 74
     1
 91
        0
 64
     7
 65
   257
 75
     1
175
     1
 42
1.0
 92
        8
 66
     7
 43
1.0
 76
     1
 77
     6
 78
     2
 67
     7
 79
     3
170
     0
171
     0
290
     0
174
     0
 93
       13
 44
0.0
173
     0
291
     0
 45
0.0
  0
DICTIONARYVAR
  5
26E
102
{ACAD_REACTORS
330
26D
102
}
330
26D
100
DictionaryVariables
280
     0
  1
1:1
  0
DICTIONARYVAR
  5
2A7
102
{ACAD_REACTORS
330
26D
102
}
330
26D
100
DictionaryVariables
280
     0
  1
STANDARD
  0
DICTIONARYVAR
  5
2A6
102
{ACAD_REACTORS
330
26D
102
}
330
26D
100
DictionaryVariables
280
     0
  1
STANDARD
  0
DICTIONARYVAR
  5
26F
102
{ACAD_REACTORS
330
26D
102
}
330
26D
100
DictionaryVariables
280
     0
  1
2
  0
DICTIONARY
  5
2A3
330
6C
100
AcDbDictionary
280
     1
281
     1
  3
ACAD_XREC_ROUNDTRIP
360
2A4
  0
DICTIONARY
  5
2A0
330
6A
100
AcDbDictionary
280
     1
281
     1
  3
ACAD_ROUNDTRIP_2008_TABLESTYLE_CELLSTYLEMAP
360
414
  0
DICTIONARY
  5
278
330
2F
100
AcDbDictionary
280
     1
281
     1
  3
ACAD_XREC_ROUNDTRIP
360
279
  0
DICTIONARY
  5
27E
330
32
100
AcDbDictionary
280
     1
281
     1
  3
ACAD_XREC_ROUNDTRIP
360
27F
  0
DICTIONARY
  5
286
330
36
100
AcDbDictionary
280
     1
281
     1
  3
ACAD_XREC_ROUNDTRIP
360
287
  0
DICTIONARY
  5
28E
330
3A
100
AcDbDictionary
280
     1
281
     1
  3
ACAD_XREC_ROUNDTRIP
360
28F
  0
DICTIONARY
  5
282
330
34
100
AcDbDictionary
280
     1
281
     1
  3
ACAD_XREC_ROUNDTRIP
360
283
  0
DICTIONARY
  5
284
330
35
100
AcDbDictionary
280
     1
281
     1
  3
ACAD_XREC_ROUNDTRIP
360
285
  0
DICTIONARY
  5
294
330
3D
100
AcDbDictionary
280
     1
281
     1
  3
ACAD_XREC_ROUNDTRIP
360
295
  0
DICTIONARY
  5
28C
330
39
100
AcDbDictionary
280
     1
281
     1
  3
ACAD_XREC_ROUNDTRIP
360
28D
  0
DICTIONARY
  5
270
330
2B
100
AcDbDictionary
280
     1
281
     1
  3
ACAD_XREC_ROUNDTRIP
360
271
  0
DICTIONARY
  5
272
330
2C
100
AcDbDictionary
280
     1
281
     1
  3
ACAD_XREC_ROUNDTRIP
360
273
  0
DICTIONARY
  5
274
330
2D
100
AcDbDictionary
280
     1
281
     1
  3
ACAD_XREC_ROUNDTRIP
360
275
  0
DICTIONARY
  5
276
330
2E
100
AcDbDictionary
280
     1
281
     1
  3
ACAD_XREC_ROUNDTRIP
360
277
  0
DICTIONARY
  5
27C
330
31
100
AcDbDictionary
280
     1
281
     1
  3
ACAD_XREC_ROUNDTRIP
360
27D
  0
DICTIONARY
  5
290
330
3B
100
AcDbDictionary
280
     1
281
     1
  3
ACAD_XREC_ROUNDTRIP
360
291
  0
DICTIONARY
  5
28A
330
38
100
AcDbDictionary
280
     1
281
     1
  3
ACAD_XREC_ROUNDTRIP
360
28B
  0
DICTIONARY
  5
292
330
3C
100
AcDbDictionary
280
     1
281
     1
  3
ACAD_XREC_ROUNDTRIP
360
293
  0
DICTIONARY
  5
280
330
33
100
AcDbDictionary
280
     1
281
     1
  3
ACAD_XREC_ROUNDTRIP
360
281
  0
DICTIONARY
  5
29E
330
42
100
AcDbDictionary
280
     1
281
     1
  3
ACAD_XREC_ROUNDTRIP
360
29F
  0
DICTIONARY
  5
29C
330
41
100
AcDbDictionary
280
     1
281
     1
  3
ACAD_XREC_ROUNDTRIP
360
29D
  0
DICTIONARY
  5
296
330
3E
100
AcDbDictionary
280
     1
281
     1
  3
ACAD_XREC_ROUNDTRIP
360
297
  0
DICTIONARY
  5
298
330
3F
100
AcDbDictionary
280
     1
281
     1
  3
ACAD_XREC_ROUNDTRIP
360
299
  0
DICTIONARY
  5
288
330
37
100
AcDbDictionary
280
     1
281
     1
  3
ACAD_XREC_ROUNDTRIP
360
289
  0
DICTIONARY
  5
27A
330
30
100
AcDbDictionary
280
     1
281
     1
  3
ACAD_XREC_ROUNDTRIP
360
27B
  0
DICTIONARY
  5
29A
330
40
100
AcDbDictionary
280
     1
281
     1
  3
ACAD_XREC_ROUNDTRIP
360
29B
  0
XRECORD
  5
2A4
102
{ACAD_REACTORS
330
2A3
102
}
330
2A3
100
AcDbXrecord
280
     1
102
ACAD_ROUNDTRIP_2010_MLEADER_STYLE
  0
CELLSTYLEMAP
  5
414
102
{ACAD_REACTORS
330
2A0
102
}
330
2A0
100
AcDbCellStyleMap
 90
        3
300
CELLSTYLE
  1
TABLEFORMAT_BEGIN
 90
        5
170
     1
 91
        0
 92
    32768
 62
   257
 93
        1
300
CONTENTFORMAT
  1
CONTENTFORMAT_BEGIN
 90
        0
 91
        0
 92
        4
 93
        0
300

 40
0.0
140
1.0
 94
        5
 62
     0
340
11
144
0.25
309
CONTENTFORMAT_END
171
     1
301
MARGIN
  1
CELLMARGIN_BEGIN
 40
0.06
 40
0.06
 40
0.06
 40
0.06
 40
0.18
 40
0.18
309
CELLMARGIN_END
 94
        6
 95
        1
302
GRIDFORMAT
  1
GRIDFORMAT_BEGIN
 90
        0
 91
        1
 62
     0
 92
       -2
340
14
 93
        0
 40
0.045
309
GRIDFORMAT_END
 95
        2
302
GRIDFORMAT
  1
GRIDFORMAT_BEGIN
 90
        0
 91
        1
 62
     0
 92
       -2
340
14
 93
        0
 40
0.045
309
GRIDFORMAT_END
 95
        4
302
GRIDFORMAT
  1
GRIDFORMAT_BEGIN
 90
        0
 91
        1
 62
     0
 92
       -2
340
14
 93
        0
 40
0.045
309
GRIDFORMAT_END
 95
        8
302
GRIDFORMAT
  1
GRIDFORMAT_BEGIN
 90
        0
 91
        1
 62
     0
 92
       -2
340
14
 93
        0
 40
0.045
309
GRIDFORMAT_END
 95
       16
302
GRIDFORMAT
  1
GRIDFORMAT_BEGIN
 90
        0
 91
        1
 62
     0
 92
       -2
340
14
 93
        0
 40
0.045
309
GRIDFORMAT_END
 95
       32
302
GRIDFORMAT
  1
GRIDFORMAT_BEGIN
 90
        0
 91
        1
 62
     0
 92
       -2
340
14
 93
        0
 40
0.045
309
GRIDFORMAT_END
309
TABLEFORMAT_END
  1
CELLSTYLE_BEGIN
 90
        1
 91
        1
300
_TITLE
309
CELLSTYLE_END
300
CELLSTYLE
  1
TABLEFORMAT_BEGIN
 90
        5
170
     1
 91
        0
 92
        0
 62
   257
 93
        1
300
CONTENTFORMAT
  1
CONTENTFORMAT_BEGIN
 90
        0
 91
        0
 92
        4
 93
        0
300

 40
0.0
140
1.0
 94
        5
 62
     0
340
11
144
0.18
309
CONTENTFORMAT_END
171
     1
301
MARGIN
  1
CELLMARGIN_BEGIN
 40
0.06
 40
0.06
 40
0.06
 40
0.06
 40
0.18
 40
0.18
309
CELLMARGIN_END
 94
        6
 95
        1
302
GRIDFORMAT
  1
GRIDFORMAT_BEGIN
 90
        0
 91
        1
 62
     0
 92
       -2
340
14
 93
        0
 40
0.045
309
GRIDFORMAT_END
 95
        2
302
GRIDFORMAT
  1
GRIDFORMAT_BEGIN
 90
        0
 91
        1
 62
     0
 92
       -2
340
14
 93
        0
 40
0.045
309
GRIDFORMAT_END
 95
        4
302
GRIDFORMAT
  1
GRIDFORMAT_BEGIN
 90
        0
 91
        1
 62
     0
 92
       -2
340
14
 93
        0
 40
0.045
309
GRIDFORMAT_END
 95
        8
302
GRIDFORMAT
  1
GRIDFORMAT_BEGIN
 90
        0
 91
        1
 62
     0
 92
       -2
340
14
 93
        0
 40
0.045
309
GRIDFORMAT_END
 95
       16
302
GRIDFORMAT
  1
GRIDFORMAT_BEGIN
 90
        0
 91
        1
 62
     0
 92
       -2
340
14
 93
        0
 40
0.045
309
GRIDFORMAT_END
 95
       32
302
GRIDFORMAT
  1
GRIDFORMAT_BEGIN
 90
        0
 91
        1
 62
     0
 92
       -2
340
14
 93
        0
 40
0.045
309
GRIDFORMAT_END
309
TABLEFORMAT_END
  1
CELLSTYLE_BEGIN
 90
        2
 91
        1
300
_HEADER
309
CELLSTYLE_END
300
CELLSTYLE
  1
TABLEFORMAT_BEGIN
 90
        5
170
     1
 91
        0
 92
        0
 62
   257
 93
        1
300
CONTENTFORMAT
  1
CONTENTFORMAT_BEGIN
 90
        0
 91
        0
 92
        4
 93
        0
300

 40
0.0
140
1.0
 94
        2
 62
     0
340
11
144
0.18
309
CONTENTFORMAT_END
171
     1
301
MARGIN
  1
CELLMARGIN_BEGIN
 40
0.06
 40
0.06
 40
0.06
 40
0.06
 40
0.18
 40
0.18
309
CELLMARGIN_END
 94
        6
 95
        1
302
GRIDFORMAT
  1
GRIDFORMAT_BEGIN
 90
        0
 91
        1
 62
     0
 92
       -2
340
14
 93
        0
 40
0.045
309
GRIDFORMAT_END
 95
        2
302
GRIDFORMAT
  1
GRIDFORMAT_BEGIN
 90
        0
 91
        1
 62
     0
 92
       -2
340
14
 93
        0
 40
0.045
309
GRIDFORMAT_END
 95
        4
302
GRIDFORMAT
  1
GRIDFORMAT_BEGIN
 90
        0
 91
        1
 62
     0
 92
       -2
340
14
 93
        0
 40
0.045
309
GRIDFORMAT_END
 95
        8
302
GRIDFORMAT
  1
GRIDFORMAT_BEGIN
 90
        0
 91
        1
 62
     0
 92
       -2
340
14
 93
        0
 40
0.045
309
GRIDFORMAT_END
 95
       16
302
GRIDFORMAT
  1
GRIDFORMAT_BEGIN
 90
        0
 91
        1
 62
     0
 92
       -2
340
14
 93
        0
 40
0.045
309
GRIDFORMAT_END
 95
       32
302
GRIDFORMAT
  1
GRIDFORMAT_BEGIN
 90
        0
 91
        1
 62
     0
 92
       -2
340
14
 93
        0
 40
0.045
309
GRIDFORMAT_END
309
TABLEFORMAT_END
  1
CELLSTYLE_BEGIN
 90
        3
 91
        2
300
_DATA
309
CELLSTYLE_END
  0
XRECORD
  5
279
102
{ACAD_REACTORS
330
278
102
}
330
278
100
AcDbXrecord
280
     1
102
RTVSPropertyOp0
 70
     1
102
RTVSPropertyOp1
 70
     1
102
RTVSPropertyOp2
 70
     1
102
RTVSPropertyOp3
 70
     1
102
RTVSPropertyOp4
 70
     1
102
RTVSPropertyOp5
 70
     1
102
RTVSPropertyOp6
 70
     1
102
RTVSPropertyOp7
 70
     1
102
RTVSPropertyOp8
 70
     1
102
RTVSPropertyOp9
 70
     1
102
RTVSPropertyOp10
 70
     1
102
RTVSPropertyOp11
 70
     1
102
RTVSPropertyOp12
 70
     1
102
RTVSPropertyOp13
 70
     1
102
RTVSPropertyOp14
 70
     1
102
RTVSPropertyOp15
 70
     1
102
RTVSPropertyOp16
 70
     1
102
RTVSPropertyOp17
 70
     1
102
RTVSPropertyOp18
 70
     1
102
RTVSPropertyOp19
 70
     1
102
RTVSPropertyOp20
 70
     1
102
RTVSPropertyOp21
 70
     1
102
RTVSPropertyOp22
 70
     1
102
RTVSPropertyOp23
 70
     1
102
RTVSPropertyOp24
 70
     1
102
RTVSPropertyOp25
 70
     1
102
RTVSPropertyOp26
 70
     1
102
RTVSPropertyOp27
 70
     1
102
RTVSPropertyOp28
 70
     1
102
RTVSPropertyOp29
 70
     1
102
RTVSPropertyOp30
 70
     1
102
RTVSPropertyOp31
 70
     1
102
RTVSPropertyOp32
 70
     1
102
RTVSPropertyOp33
 70
     1
102
RTVSPropertyOp34
 70
     1
102
RTVSPropertyOp35
 70
     1
102
RTVSPropertyOp36
 70
     1
102
RTVSPropertyOp37
 70
     1
102
RTVSPropertyOp38
 70
     1
102
RTVSPropertyOp39
 70
     1
102
RTVSPropertyOp40
 70
     1
102
RTVSPropertyOp41
 70
     1
102
RTVSPropertyOp42
 70
     1
102
RTVSPropertyOp43
 70
     1
102
RTVSPropertyOp44
 70
     1
102
RTVSPropertyOp45
 70
     1
102
RTVSPropertyOp46
 70
     1
102
RTVSPropertyOp47
 70
     1
102
RTVSPropertyOp48
 70
     1
102
RTVSPropertyOp49
 70
     1
102
RTVSPropertyOp50
 70
     1
102
RTVSPropertyOp51
 70
     0
102
RTVSPropertyOp52
 70
     0
102
RTVSPropertyOp53
 70
     1
102
RTVSPropertyOp54
 70
     1
102
RTVSPropertyOp55
 70
     1
102
RTVSPropertyOp56
 70
     1
102
RTVSPropertyOp57
 70
     1
102
RTVSPost2010Prop28
280
     1
102
RTVSPost2010PropOp28
 70
     1
102
RTVSPost2010Prop29
280
     1
102
RTVSPost2010PropOp29
 70
     1
102
RTVSPost2010Prop30
280
     0
102
RTVSPost2010PropOp30
 70
     1
102
RTVSPost2010Prop31
280
     0
102
RTVSPost2010PropOp31
 70
     1
102
RTVSPost2010Prop32
280
     0
102
RTVSPost2010PropOp32
 70
     1
102
RTVSPost2010Prop33
280
     0
102
RTVSPost2010PropOp33
 70
     1
102
RTVSPost2010Prop34
280
     0
102
RTVSPost2010PropOp34
 70
     1
102
RTVSPost2010Prop35
280
     0
102
RTVSPost2010PropOp35
 70
     1
102
RTVSPost2010Prop36
280
     0
102
RTVSPost2010PropOp36
 70
     1
102
RTVSPost2010Prop37
 90
       50
102
RTVSPost2010PropOp37
 70
     1
102
RTVSPost2010Prop38
140
0.0
102
RTVSPost2010PropOp38
 70
     1
102
RTVSPost2010Prop39
140
1.0
102
RTVSPost2010PropOp39
 70
     1
102
RTVSPost2010Prop40
 90
        0
102
RTVSPost2010PropOp40
 70
     1
102
RTVSPost2010Prop41ColorIndex
 90
       18
102
RTVSPost2010Prop41ColorRGB
 90
        0
102
RTVSPost2010PropOp41
 70
     1
102
RTVSPost2010Prop42
 90
       50
102
RTVSPost2010PropOp42
 70
     1
102
RTVSPost2010Prop43
 90
        3
102
RTVSPost2010PropOp43
 70
     1
102
RTVSPost2010Prop44ColorIndex
 90
        5
102
RTVSPost2010Prop44ColorRGB
 90
      255
102
RTVSPost2010PropOp44
 70
     1
102
RTVSPost2010Prop45
280
     0
102
RTVSPost2010PropOp45
 70
     1
102
RTVSPost2010Prop46
 90
       50
102
RTVSPost2010PropOp46
 70
     1
102
RTVSPost2010Prop47
 90
       50
102
RTVSPost2010PropOp47
 70
     1
102
RTVSPost2010Prop48
 90
       50
102
RTVSPost2010PropOp48
 70
     1
102
RTVSPost2010Prop49
280
     0
102
RTVSPost2010PropOp49
 70
     1
102
RTVSPost2010Prop50
 90
       50
102
RTVSPost2010PropOp50
 70
     1
102
RTVSPost2010Prop51ColorIndex
 90
      256
102
RTVSPost2010Prop51ColorRGB
 90
-16777216
102
RTVSPost2010PropOp51
 70
     0
102
RTVSPost2010Prop52
140
1.0
102
RTVSPost2010PropOp52
 70
     0
102
RTVSPost2010Prop53
 90
        2
102
RTVSPost2010PropOp53
 70
     1
102
RTVSPost2010Prop54
  1
strokes_ogs.tif
102
RTVSPost2010PropOp54
 70
     1
102
RTVSPost2010Prop55
280
     0
102
RTVSPost2010PropOp55
 70
     1
102
RTVSPost2010Prop56
140
1.0
102
RTVSPost2010PropOp56
 70
     1
102
RTVSPost2010Prop57
140
1.0
102
RTVSPost2010PropOp57
 70
     1
  0
XRECORD
  5
27F
102
{ACAD_REACTORS
330
27E
102
}
330
27E
100
AcDbXrecord
280
     1
102
RTVSPropertyOp0
 70
     1
102
RTVSPropertyOp1
 70
     1
102
RTVSPropertyOp2
 70
     1
102
RTVSPropertyOp3
 70
     1
102
RTVSPropertyOp4
 70
     1
102
RTVSPropertyOp5
 70
     1
102
RTVSPropertyOp6
 70
     1
102
RTVSPropertyOp7
 70
     1
102
RTVSPropertyOp8
 70
     1
102
RTVSPropertyOp9
 70
     1
102
RTVSPropertyOp10
 70
     1
102
RTVSPropertyOp11
 70
     1
102
RTVSPropertyOp12
 70
     1
102
RTVSPropertyOp13
 70
     1
102
RTVSPropertyOp14
 70
     1
102
RTVSPropertyOp15
 70
     1
102
RTVSPropertyOp16
 70
     1
102
RTVSPropertyOp17
 70
     1
102
RTVSPropertyOp18
 70
     1
102
RTVSPropertyOp19
 70
     1
102
RTVSPropertyOp20
 70
     1
102
RTVSPropertyOp21
 70
     1
102
RTVSPropertyOp22
 70
     1
102
RTVSPropertyOp23
 70
     1
102
RTVSPropertyOp24
 70
     1
102
RTVSPropertyOp25
 70
     1
102
RTVSPropertyOp26
 70
     1
102
RTVSPropertyOp27
 70
     1
102
RTVSPropertyOp28
 70
     1
102
RTVSPropertyOp29
 70
     1
102
RTVSPropertyOp30
 70
     1
102
RTVSPropertyOp31
 70
     1
102
RTVSPropertyOp32
 70
     1
102
RTVSPropertyOp33
 70
     1
102
RTVSPropertyOp34
 70
     1
102
RTVSPropertyOp35
 70
     1
102
RTVSPropertyOp36
 70
     1
102
RTVSPropertyOp37
 70
     1
102
RTVSPropertyOp38
 70
     1
102
RTVSPropertyOp39
 70
     1
102
RTVSPropertyOp40
 70
     1
102
RTVSPropertyOp41
 70
     1
102
RTVSPropertyOp42
 70
     1
102
RTVSPropertyOp43
 70
     1
102
RTVSPropertyOp44
 70
     1
102
RTVSPropertyOp45
 70
     1
102
RTVSPropertyOp46
 70
     1
102
RTVSPropertyOp47
 70
     1
102
RTVSPropertyOp48
 70
     1
102
RTVSPropertyOp49
 70
     1
102
RTVSPropertyOp50
 70
     1
102
RTVSPropertyOp51
 70
     0
102
RTVSPropertyOp52
 70
     0
102
RTVSPropertyOp53
 70
     1
102
RTVSPropertyOp54
 70
     1
102
RTVSPropertyOp55
 70
     1
102
RTVSPropertyOp56
 70
     1
102
RTVSPropertyOp57
 70
     1
102
RTVSPost2010Prop28
280
     0
102
RTVSPost2010PropOp28
 70
     1
102
RTVSPost2010Prop29
280
     1
102
RTVSPost2010PropOp29
 70
     1
102
RTVSPost2010Prop30
280
     1
102
RTVSPost2010PropOp30
 70
     1
102
RTVSPost2010Prop31
280
     0
102
RTVSPost2010PropOp31
 70
     1
102
RTVSPost2010Prop32
280
     0
102
RTVSPost2010PropOp32
 70
     1
102
RTVSPost2010Prop33
280
     0
102
RTVSPost2010PropOp33
 70
     1
102
RTVSPost2010Prop34
280
     0
102
RTVSPost2010PropOp34
 70
     1
102
RTVSPost2010Prop35
280
     0
102
RTVSPost2010PropOp35
 70
     1
102
RTVSPost2010Prop36
280
     0
102
RTVSPost2010PropOp36
 70
     1
102
RTVSPost2010Prop37
 90
       50
102
RTVSPost2010PropOp37
 70
     1
102
RTVSPost2010Prop38
140
0.0
102
RTVSPost2010PropOp38
 70
     1
102
RTVSPost2010Prop39
140
1.0
102
RTVSPost2010PropOp39
 70
     1
102
RTVSPost2010Prop40
 90
        0
102
RTVSPost2010PropOp40
 70
     1
102
RTVSPost2010Prop41ColorIndex
 90
       18
102
RTVSPost2010Prop41ColorRGB
 90
        0
102
RTVSPost2010PropOp41
 70
     1
102
RTVSPost2010Prop42
 90
       50
102
RTVSPost2010PropOp42
 70
     1
102
RTVSPost2010Prop43
 90
        3
102
RTVSPost2010PropOp43
 70
     1
102
RTVSPost2010Prop44ColorIndex
 90
        5
102
RTVSPost2010Prop44ColorRGB
 90
      255
102
RTVSPost2010PropOp44
 70
     1
102
RTVSPost2010Prop45
280
     0
102
RTVSPost2010PropOp45
 70
     1
102
RTVSPost2010Prop46
 90
       50
102
RTVSPost2010PropOp46
 70
     1
102
RTVSPost2010Prop47
 90
       50
102
RTVSPost2010PropOp47
 70
     1
102
RTVSPost2010Prop48
 90
       50
102
RTVSPost2010PropOp48
 70
     1
102
RTVSPost2010Prop49
280
     0
102
RTVSPost2010PropOp49
 70
     1
102
RTVSPost2010Prop50
 90
       50
102
RTVSPost2010PropOp50
 70
     1
102
RTVSPost2010Prop51ColorIndex
 90
      256
102
RTVSPost2010Prop51ColorRGB
 90
-16777216
102
RTVSPost2010PropOp51
 70
     0
102
RTVSPost2010Prop52
140
1.0
102
RTVSPost2010PropOp52
 70
     0
102
RTVSPost2010Prop53
 90
        2
102
RTVSPost2010PropOp53
 70
     1
102
RTVSPost2010Prop54
  1
strokes_ogs.tif
102
RTVSPost2010PropOp54
 70
     1
102
RTVSPost2010Prop55
280
     0
102
RTVSPost2010PropOp55
 70
     1
102
RTVSPost2010Prop56
140
1.0
102
RTVSPost2010PropOp56
 70
     1
102
RTVSPost2010Prop57
140
1.0
102
RTVSPost2010PropOp57
 70
     1
  0
XRECORD
  5
287
102
{ACAD_REACTORS
330
286
102
}
330
286
100
AcDbXrecord
280
     1
102
RTVSPropertyOp0
 70
     1
102
RTVSPropertyOp1
 70
     1
102
RTVSPropertyOp2
 70
     1
102
RTVSPropertyOp3
 70
     1
102
RTVSPropertyOp4
 70
     1
102
RTVSPropertyOp5
 70
     1
102
RTVSPropertyOp6
 70
     1
102
RTVSPropertyOp7
 70
     1
102
RTVSPropertyOp8
 70
     1
102
RTVSPropertyOp9
 70
     1
102
RTVSPropertyOp10
 70
     1
102
RTVSPropertyOp11
 70
     1
102
RTVSPropertyOp12
 70
     1
102
RTVSPropertyOp13
 70
     1
102
RTVSPropertyOp14
 70
     1
102
RTVSPropertyOp15
 70
     1
102
RTVSPropertyOp16
 70
     1
102
RTVSPropertyOp17
 70
     1
102
RTVSPropertyOp18
 70
     1
102
RTVSPropertyOp19
 70
     1
102
RTVSPropertyOp20
 70
     1
102
RTVSPropertyOp21
 70
     1
102
RTVSPropertyOp22
 70
     1
102
RTVSPropertyOp23
 70
     1
102
RTVSPropertyOp24
 70
     1
102
RTVSPropertyOp25
 70
     1
102
RTVSPropertyOp26
 70
     1
102
RTVSPropertyOp27
 70
     1
102
RTVSPropertyOp28
 70
     1
102
RTVSPropertyOp29
 70
     1
102
RTVSPropertyOp30
 70
     1
102
RTVSPropertyOp31
 70
     1
102
RTVSPropertyOp32
 70
     1
102
RTVSPropertyOp33
 70
     1
102
RTVSPropertyOp34
 70
     1
102
RTVSPropertyOp35
 70
     1
102
RTVSPropertyOp36
 70
     1
102
RTVSPropertyOp37
 70
     1
102
RTVSPropertyOp38
 70
     1
102
RTVSPropertyOp39
 70
     1
102
RTVSPropertyOp40
 70
     1
102
RTVSPropertyOp41
 70
     1
102
RTVSPropertyOp42
 70
     1
102
RTVSPropertyOp43
 70
     1
102
RTVSPropertyOp44
 70
     1
102
RTVSPropertyOp45
 70
     1
102
RTVSPropertyOp46
 70
     1
102
RTVSPropertyOp47
 70
     1
102
RTVSPropertyOp48
 70
     1
102
RTVSPropertyOp49
 70
     1
102
RTVSPropertyOp50
 70
     1
102
RTVSPropertyOp51
 70
     0
102
RTVSPropertyOp52
 70
     0
102
RTVSPropertyOp53
 70
     1
102
RTVSPropertyOp54
 70
     1
102
RTVSPropertyOp55
 70
     1
102
RTVSPropertyOp56
 70
     1
102
RTVSPropertyOp57
 70
     1
102
RTVSPost2010Prop28
280
     0
102
RTVSPost2010PropOp28
 70
     1
102
RTVSPost2010Prop29
280
     1
102
RTVSPost2010PropOp29
 70
     1
102
RTVSPost2010Prop30
280
     1
102
RTVSPost2010PropOp30
 70
     1
102
RTVSPost2010Prop31
280
     0
102
RTVSPost2010PropOp31
 70
     1
102
RTVSPost2010Prop32
280
     0
102
RTVSPost2010PropOp32
 70
     1
102
RTVSPost2010Prop33
280
     0
102
RTVSPost2010PropOp33
 70
     1
102
RTVSPost2010Prop34
280
     0
102
RTVSPost2010PropOp34
 70
     1
102
RTVSPost2010Prop35
280
     0
102
RTVSPost2010PropOp35
 70
     1
102
RTVSPost2010Prop36
280
     0
102
RTVSPost2010PropOp36
 70
     1
102
RTVSPost2010Prop37
 90
       50
102
RTVSPost2010PropOp37
 70
     1
102
RTVSPost2010Prop38
140
0.0
102
RTVSPost2010PropOp38
 70
     1
102
RTVSPost2010Prop39
140
1.0
102
RTVSPost2010PropOp39
 70
     1
102
RTVSPost2010Prop40
 90
        0
102
RTVSPost2010PropOp40
 70
     1
102
RTVSPost2010Prop41ColorIndex
 90
       18
102
RTVSPost2010Prop41ColorRGB
 90
        0
102
RTVSPost2010PropOp41
 70
     1
102
RTVSPost2010Prop42
 90
       50
102
RTVSPost2010PropOp42
 70
     1
102
RTVSPost2010Prop43
 90
        3
102
RTVSPost2010PropOp43
 70
     1
102
RTVSPost2010Prop44ColorIndex
 90
        5
102
RTVSPost2010Prop44ColorRGB
 90
      255
102
RTVSPost2010PropOp44
 70
     1
102
RTVSPost2010Prop45
280
     0
102
RTVSPost2010PropOp45
 70
     1
102
RTVSPost2010Prop46
 90
       50
102
RTVSPost2010PropOp46
 70
     1
102
RTVSPost2010Prop47
 90
       50
102
RTVSPost2010PropOp47
 70
     1
102
RTVSPost2010Prop48
 90
       50
102
RTVSPost2010PropOp48
 70
     1
102
RTVSPost2010Prop49
280
     0
102
RTVSPost2010PropOp49
 70
     1
102
RTVSPost2010Prop50
 90
       50
102
RTVSPost2010PropOp50
 70
     1
102
RTVSPost2010Prop51ColorIndex
 90
      256
102
RTVSPost2010Prop51ColorRGB
 90
-16777216
102
RTVSPost2010PropOp51
 70
     0
102
RTVSPost2010Prop52
140
1.0
102
RTVSPost2010PropOp52
 70
     0
102
RTVSPost2010Prop53
 90
        2
102
RTVSPost2010PropOp53
 70
     1
102
RTVSPost2010Prop54
  1
strokes_ogs.tif
102
RTVSPost2010PropOp54
 70
     1
102
RTVSPost2010Prop55
280
     0
102
RTVSPost2010PropOp55
 70
     1
102
RTVSPost2010Prop56
140
1.0
102
RTVSPost2010PropOp56
 70
     1
102
RTVSPost2010Prop57
140
1.0
102
RTVSPost2010PropOp57
 70
     1
  0
XRECORD
  5
28F
102
{ACAD_REACTORS
330
28E
102
}
330
28E
100
AcDbXrecord
280
     1
102
RTVSPropertyOp0
 70
     1
102
RTVSPropertyOp1
 70
     1
102
RTVSPropertyOp2
 70
     1
102
RTVSPropertyOp3
 70
     1
102
RTVSPropertyOp4
 70
     1
102
RTVSPropertyOp5
 70
     1
102
RTVSPropertyOp6
 70
     1
102
RTVSPropertyOp7
 70
     1
102
RTVSPropertyOp8
 70
     1
102
RTVSPropertyOp9
 70
     1
102
RTVSPropertyOp10
 70
     1
102
RTVSPropertyOp11
 70
     1
102
RTVSPropertyOp12
 70
     1
102
RTVSPropertyOp13
 70
     1
102
RTVSPropertyOp14
 70
     1
102
RTVSPropertyOp15
 70
     1
102
RTVSPropertyOp16
 70
     1
102
RTVSPropertyOp17
 70
     1
102
RTVSPropertyOp18
 70
     1
102
RTVSPropertyOp19
 70
     1
102
RTVSPropertyOp20
 70
     1
102
RTVSPropertyOp21
 70
     1
102
RTVSPropertyOp22
 70
     1
102
RTVSPropertyOp23
 70
     1
102
RTVSPropertyOp24
 70
     1
102
RTVSPropertyOp25
 70
     1
102
RTVSPropertyOp26
 70
     1
102
RTVSPropertyOp27
 70
     1
102
RTVSPropertyOp28
 70
     1
102
RTVSPropertyOp29
 70
     1
102
RTVSPropertyOp30
 70
     1
102
RTVSPropertyOp31
 70
     1
102
RTVSPropertyOp32
 70
     1
102
RTVSPropertyOp33
 70
     1
102
RTVSPropertyOp34
 70
     1
102
RTVSPropertyOp35
 70
     1
102
RTVSPropertyOp36
 70
     1
102
RTVSPropertyOp37
 70
     1
102
RTVSPropertyOp38
 70
     1
102
RTVSPropertyOp39
 70
     1
102
RTVSPropertyOp40
 70
     1
102
RTVSPropertyOp41
 70
     1
102
RTVSPropertyOp42
 70
     1
102
RTVSPropertyOp43
 70
     1
102
RTVSPropertyOp44
 70
     1
102
RTVSPropertyOp45
 70
     1
102
RTVSPropertyOp46
 70
     1
102
RTVSPropertyOp47
 70
     1
102
RTVSPropertyOp48
 70
     1
102
RTVSPropertyOp49
 70
     1
102
RTVSPropertyOp50
 70
     1
102
RTVSPropertyOp51
 70
     0
102
RTVSPropertyOp52
 70
     0
102
RTVSPropertyOp53
 70
     1
102
RTVSPropertyOp54
 70
     1
102
RTVSPropertyOp55
 70
     1
102
RTVSPropertyOp56
 70
     1
102
RTVSPropertyOp57
 70
     1
102
RTVSPost2010Prop28
280
     0
102
RTVSPost2010PropOp28
 70
     1
102
RTVSPost2010Prop29
280
     1
102
RTVSPost2010PropOp29
 70
     1
102
RTVSPost2010Prop30
280
     1
102
RTVSPost2010PropOp30
 70
     1
102
RTVSPost2010Prop31
280
     0
102
RTVSPost2010PropOp31
 70
     1
102
RTVSPost2010Prop32
280
     0
102
RTVSPost2010PropOp32
 70
     1
102
RTVSPost2010Prop33
280
     0
102
RTVSPost2010PropOp33
 70
     1
102
RTVSPost2010Prop34
280
     0
102
RTVSPost2010PropOp34
 70
     1
102
RTVSPost2010Prop35
280
     0
102
RTVSPost2010PropOp35
 70
     1
102
RTVSPost2010Prop36
280
     0
102
RTVSPost2010PropOp36
 70
     1
102
RTVSPost2010Prop37
 90
       50
102
RTVSPost2010PropOp37
 70
     1
102
RTVSPost2010Prop38
140
0.0
102
RTVSPost2010PropOp38
 70
     1
102
RTVSPost2010Prop39
140
1.0
102
RTVSPost2010PropOp39
 70
     1
102
RTVSPost2010Prop40
 90
        0
102
RTVSPost2010PropOp40
 70
     1
102
RTVSPost2010Prop41ColorIndex
 90
       18
102
RTVSPost2010Prop41ColorRGB
 90
        0
102
RTVSPost2010PropOp41
 70
     1
102
RTVSPost2010Prop42
 90
       50
102
RTVSPost2010PropOp42
 70
     1
102
RTVSPost2010Prop43
 90
        3
102
RTVSPost2010PropOp43
 70
     1
102
RTVSPost2010Prop44ColorIndex
 90
        5
102
RTVSPost2010Prop44ColorRGB
 90
      255
102
RTVSPost2010PropOp44
 70
     1
102
RTVSPost2010Prop45
280
     0
102
RTVSPost2010PropOp45
 70
     1
102
RTVSPost2010Prop46
 90
       50
102
RTVSPost2010PropOp46
 70
     1
102
RTVSPost2010Prop47
 90
       50
102
RTVSPost2010PropOp47
 70
     1
102
RTVSPost2010Prop48
 90
       50
102
RTVSPost2010PropOp48
 70
     1
102
RTVSPost2010Prop49
280
     0
102
RTVSPost2010PropOp49
 70
     1
102
RTVSPost2010Prop50
 90
       50
102
RTVSPost2010PropOp50
 70
     1
102
RTVSPost2010Prop51ColorIndex
 90
      256
102
RTVSPost2010Prop51ColorRGB
 90
-16777216
102
RTVSPost2010PropOp51
 70
     0
102
RTVSPost2010Prop52
140
1.0
102
RTVSPost2010PropOp52
 70
     0
102
RTVSPost2010Prop53
 90
        2
102
RTVSPost2010PropOp53
 70
     1
102
RTVSPost2010Prop54
  1
strokes_ogs.tif
102
RTVSPost2010PropOp54
 70
     1
102
RTVSPost2010Prop55
280
     0
102
RTVSPost2010PropOp55
 70
     1
102
RTVSPost2010Prop56
140
1.0
102
RTVSPost2010PropOp56
 70
     1
102
RTVSPost2010Prop57
140
1.0
102
RTVSPost2010PropOp57
 70
     1
  0
XRECORD
  5
283
102
{ACAD_REACTORS
330
282
102
}
330
282
100
AcDbXrecord
280
     1
102
RTVSPropertyOp0
 70
     1
102
RTVSPropertyOp1
 70
     1
102
RTVSPropertyOp2
 70
     1
102
RTVSPropertyOp3
 70
     1
102
RTVSPropertyOp4
 70
     1
102
RTVSPropertyOp5
 70
     1
102
RTVSPropertyOp6
 70
     1
102
RTVSPropertyOp7
 70
     1
102
RTVSPropertyOp8
 70
     1
102
RTVSPropertyOp9
 70
     1
102
RTVSPropertyOp10
 70
     1
102
RTVSPropertyOp11
 70
     1
102
RTVSPropertyOp12
 70
     1
102
RTVSPropertyOp13
 70
     1
102
RTVSPropertyOp14
 70
     1
102
RTVSPropertyOp15
 70
     1
102
RTVSPropertyOp16
 70
     1
102
RTVSPropertyOp17
 70
     1
102
RTVSPropertyOp18
 70
     1
102
RTVSPropertyOp19
 70
     1
102
RTVSPropertyOp20
 70
     1
102
RTVSPropertyOp21
 70
     1
102
RTVSPropertyOp22
 70
     1
102
RTVSPropertyOp23
 70
     1
102
RTVSPropertyOp24
 70
     1
102
RTVSPropertyOp25
 70
     1
102
RTVSPropertyOp26
 70
     1
102
RTVSPropertyOp27
 70
     1
102
RTVSPropertyOp28
 70
     1
102
RTVSPropertyOp29
 70
     1
102
RTVSPropertyOp30
 70
     1
102
RTVSPropertyOp31
 70
     1
102
RTVSPropertyOp32
 70
     1
102
RTVSPropertyOp33
 70
     1
102
RTVSPropertyOp34
 70
     1
102
RTVSPropertyOp35
 70
     1
102
RTVSPropertyOp36
 70
     1
102
RTVSPropertyOp37
 70
     1
102
RTVSPropertyOp38
 70
     1
102
RTVSPropertyOp39
 70
     1
102
RTVSPropertyOp40
 70
     1
102
RTVSPropertyOp41
 70
     1
102
RTVSPropertyOp42
 70
     1
102
RTVSPropertyOp43
 70
     1
102
RTVSPropertyOp44
 70
     1
102
RTVSPropertyOp45
 70
     1
102
RTVSPropertyOp46
 70
     1
102
RTVSPropertyOp47
 70
     1
102
RTVSPropertyOp48
 70
     1
102
RTVSPropertyOp49
 70
     1
102
RTVSPropertyOp50
 70
     1
102
RTVSPropertyOp51
 70
     0
102
RTVSPropertyOp52
 70
     0
102
RTVSPropertyOp53
 70
     1
102
RTVSPropertyOp54
 70
     1
102
RTVSPropertyOp55
 70
     1
102
RTVSPropertyOp56
 70
     1
102
RTVSPropertyOp57
 70
     1
102
RTVSPost2010Prop28
280
     0
102
RTVSPost2010PropOp28
 70
     1
102
RTVSPost2010Prop29
280
     1
102
RTVSPost2010PropOp29
 70
     1
102
RTVSPost2010Prop30
280
     1
102
RTVSPost2010PropOp30
 70
     1
102
RTVSPost2010Prop31
280
     0
102
RTVSPost2010PropOp31
 70
     1
102
RTVSPost2010Prop32
280
     0
102
RTVSPost2010PropOp32
 70
     1
102
RTVSPost2010Prop33
280
     0
102
RTVSPost2010PropOp33
 70
     1
102
RTVSPost2010Prop34
280
     0
102
RTVSPost2010PropOp34
 70
     1
102
RTVSPost2010Prop35
280
     0
102
RTVSPost2010PropOp35
 70
     1
102
RTVSPost2010Prop36
280
     0
102
RTVSPost2010PropOp36
 70
     1
102
RTVSPost2010Prop37
 90
       50
102
RTVSPost2010PropOp37
 70
     1
102
RTVSPost2010Prop38
140
0.0
102
RTVSPost2010PropOp38
 70
     1
102
RTVSPost2010Prop39
140
1.0
102
RTVSPost2010PropOp39
 70
     1
102
RTVSPost2010Prop40
 90
        0
102
RTVSPost2010PropOp40
 70
     1
102
RTVSPost2010Prop41ColorIndex
 90
       18
102
RTVSPost2010Prop41ColorRGB
 90
        0
102
RTVSPost2010PropOp41
 70
     1
102
RTVSPost2010Prop42
 90
       50
102
RTVSPost2010PropOp42
 70
     1
102
RTVSPost2010Prop43
 90
        3
102
RTVSPost2010PropOp43
 70
     1
102
RTVSPost2010Prop44ColorIndex
 90
        5
102
RTVSPost2010Prop44ColorRGB
 90
      255
102
RTVSPost2010PropOp44
 70
     1
102
RTVSPost2010Prop45
280
     0
102
RTVSPost2010PropOp45
 70
     1
102
RTVSPost2010Prop46
 90
       50
102
RTVSPost2010PropOp46
 70
     1
102
RTVSPost2010Prop47
 90
       50
102
RTVSPost2010PropOp47
 70
     1
102
RTVSPost2010Prop48
 90
       50
102
RTVSPost2010PropOp48
 70
     1
102
RTVSPost2010Prop49
280
     0
102
RTVSPost2010PropOp49
 70
     1
102
RTVSPost2010Prop50
 90
       50
102
RTVSPost2010PropOp50
 70
     1
102
RTVSPost2010Prop51ColorIndex
 90
      256
102
RTVSPost2010Prop51ColorRGB
 90
-16777216
102
RTVSPost2010PropOp51
 70
     0
102
RTVSPost2010Prop52
140
1.0
102
RTVSPost2010PropOp52
 70
     0
102
RTVSPost2010Prop53
 90
        2
102
RTVSPost2010PropOp53
 70
     1
102
RTVSPost2010Prop54
  1
strokes_ogs.tif
102
RTVSPost2010PropOp54
 70
     1
102
RTVSPost2010Prop55
280
     0
102
RTVSPost2010PropOp55
 70
     1
102
RTVSPost2010Prop56
140
1.0
102
RTVSPost2010PropOp56
 70
     1
102
RTVSPost2010Prop57
140
1.0
102
RTVSPost2010PropOp57
 70
     1
  0
XRECORD
  5
285
102
{ACAD_REACTORS
330
284
102
}
330
284
100
AcDbXrecord
280
     1
102
RTVSPropertyOp0
 70
     1
102
RTVSPropertyOp1
 70
     1
102
RTVSPropertyOp2
 70
     1
102
RTVSPropertyOp3
 70
     1
102
RTVSPropertyOp4
 70
     1
102
RTVSPropertyOp5
 70
     1
102
RTVSPropertyOp6
 70
     1
102
RTVSPropertyOp7
 70
     1
102
RTVSPropertyOp8
 70
     1
102
RTVSPropertyOp9
 70
     1
102
RTVSPropertyOp10
 70
     1
102
RTVSPropertyOp11
 70
     1
102
RTVSPropertyOp12
 70
     1
102
RTVSPropertyOp13
 70
     1
102
RTVSPropertyOp14
 70
     1
102
RTVSPropertyOp15
 70
     1
102
RTVSPropertyOp16
 70
     1
102
RTVSPropertyOp17
 70
     1
102
RTVSPropertyOp18
 70
     1
102
RTVSPropertyOp19
 70
     1
102
RTVSPropertyOp20
 70
     1
102
RTVSPropertyOp21
 70
     1
102
RTVSPropertyOp22
 70
     1
102
RTVSPropertyOp23
 70
     1
102
RTVSPropertyOp24
 70
     1
102
RTVSPropertyOp25
 70
     1
102
RTVSPropertyOp26
 70
     1
102
RTVSPropertyOp27
 70
     1
102
RTVSPropertyOp28
 70
     1
102
RTVSPropertyOp29
 70
     1
102
RTVSPropertyOp30
 70
     1
102
RTVSPropertyOp31
 70
     1
102
RTVSPropertyOp32
 70
     1
102
RTVSPropertyOp33
 70
     1
102
RTVSPropertyOp34
 70
     1
102
RTVSPropertyOp35
 70
     1
102
RTVSPropertyOp36
 70
     1
102
RTVSPropertyOp37
 70
     1
102
RTVSPropertyOp38
 70
     1
102
RTVSPropertyOp39
 70
     1
102
RTVSPropertyOp40
 70
     1
102
RTVSPropertyOp41
 70
     1
102
RTVSPropertyOp42
 70
     1
102
RTVSPropertyOp43
 70
     1
102
RTVSPropertyOp44
 70
     1
102
RTVSPropertyOp45
 70
     1
102
RTVSPropertyOp46
 70
     1
102
RTVSPropertyOp47
 70
     1
102
RTVSPropertyOp48
 70
     1
102
RTVSPropertyOp49
 70
     1
102
RTVSPropertyOp50
 70
     1
102
RTVSPropertyOp51
 70
     0
102
RTVSPropertyOp52
 70
     0
102
RTVSPropertyOp53
 70
     1
102
RTVSPropertyOp54
 70
     1
102
RTVSPropertyOp55
 70
     1
102
RTVSPropertyOp56
 70
     1
102
RTVSPropertyOp57
 70
     1
102
RTVSPost2010Prop28
280
     0
102
RTVSPost2010PropOp28
 70
     1
102
RTVSPost2010Prop29
280
     1
102
RTVSPost2010PropOp29
 70
     1
102
RTVSPost2010Prop30
280
     1
102
RTVSPost2010PropOp30
 70
     1
102
RTVSPost2010Prop31
280
     0
102
RTVSPost2010PropOp31
 70
     1
102
RTVSPost2010Prop32
280
     0
102
RTVSPost2010PropOp32
 70
     1
102
RTVSPost2010Prop33
280
     0
102
RTVSPost2010PropOp33
 70
     1
102
RTVSPost2010Prop34
280
     0
102
RTVSPost2010PropOp34
 70
     1
102
RTVSPost2010Prop35
280
     0
102
RTVSPost2010PropOp35
 70
     1
102
RTVSPost2010Prop36
280
     0
102
RTVSPost2010PropOp36
 70
     1
102
RTVSPost2010Prop37
 90
       50
102
RTVSPost2010PropOp37
 70
     1
102
RTVSPost2010Prop38
140
0.0
102
RTVSPost2010PropOp38
 70
     1
102
RTVSPost2010Prop39
140
1.0
102
RTVSPost2010PropOp39
 70
     1
102
RTVSPost2010Prop40
 90
        0
102
RTVSPost2010PropOp40
 70
     1
102
RTVSPost2010Prop41ColorIndex
 90
       18
102
RTVSPost2010Prop41ColorRGB
 90
        0
102
RTVSPost2010PropOp41
 70
     1
102
RTVSPost2010Prop42
 90
       50
102
RTVSPost2010PropOp42
 70
     1
102
RTVSPost2010Prop43
 90
        3
102
RTVSPost2010PropOp43
 70
     1
102
RTVSPost2010Prop44ColorIndex
 90
        5
102
RTVSPost2010Prop44ColorRGB
 90
      255
102
RTVSPost2010PropOp44
 70
     1
102
RTVSPost2010Prop45
280
     0
102
RTVSPost2010PropOp45
 70
     1
102
RTVSPost2010Prop46
 90
       50
102
RTVSPost2010PropOp46
 70
     1
102
RTVSPost2010Prop47
 90
       50
102
RTVSPost2010PropOp47
 70
     1
102
RTVSPost2010Prop48
 90
       50
102
RTVSPost2010PropOp48
 70
     1
102
RTVSPost2010Prop49
280
     0
102
RTVSPost2010PropOp49
 70
     1
102
RTVSPost2010Prop50
 90
       50
102
RTVSPost2010PropOp50
 70
     1
102
RTVSPost2010Prop51ColorIndex
 90
      256
102
RTVSPost2010Prop51ColorRGB
 90
-16777216
102
RTVSPost2010PropOp51
 70
     0
102
RTVSPost2010Prop52
140
1.0
102
RTVSPost2010PropOp52
 70
     0
102
RTVSPost2010Prop53
 90
        2
102
RTVSPost2010PropOp53
 70
     1
102
RTVSPost2010Prop54
  1
strokes_ogs.tif
102
RTVSPost2010PropOp54
 70
     1
102
RTVSPost2010Prop55
280
     0
102
RTVSPost2010PropOp55
 70
     1
102
RTVSPost2010Prop56
140
1.0
102
RTVSPost2010PropOp56
 70
     1
102
RTVSPost2010Prop57
140
1.0
102
RTVSPost2010PropOp57
 70
     1
  0
XRECORD
  5
295
102
{ACAD_REACTORS
330
294
102
}
330
294
100
AcDbXrecord
280
     1
102
RTVSPropertyOp0
 70
     0
102
RTVSPropertyOp1
 70
     0
102
RTVSPropertyOp2
 70
     0
102
RTVSPropertyOp3
 70
     0
102
RTVSPropertyOp4
 70
     0
102
RTVSPropertyOp5
 70
     0
102
RTVSPropertyOp6
 70
     0
102
RTVSPropertyOp7
 70
     0
102
RTVSPropertyOp8
 70
     0
102
RTVSPropertyOp9
 70
     0
102
RTVSPropertyOp10
 70
     0
102
RTVSPropertyOp11
 70
     0
102
RTVSPropertyOp12
 70
     0
102
RTVSPropertyOp13
 70
     0
102
RTVSPropertyOp14
 70
     2
102
RTVSPropertyOp15
 70
     0
102
RTVSPropertyOp16
 70
     0
102
RTVSPropertyOp17
 70
     0
102
RTVSPropertyOp18
 70
     0
102
RTVSPropertyOp19
 70
     0
102
RTVSPropertyOp20
 70
     0
102
RTVSPropertyOp21
 70
     0
102
RTVSPropertyOp22
 70
     0
102
RTVSPropertyOp23
 70
     0
102
RTVSPropertyOp24
 70
     0
102
RTVSPropertyOp25
 70
     0
102
RTVSPropertyOp26
 70
     0
102
RTVSPropertyOp27
 70
     0
102
RTVSPropertyOp28
 70
     0
102
RTVSPropertyOp29
 70
     0
102
RTVSPropertyOp30
 70
     0
102
RTVSPropertyOp31
 70
     0
102
RTVSPropertyOp32
 70
     0
102
RTVSPropertyOp33
 70
     0
102
RTVSPropertyOp34
 70
     0
102
RTVSPropertyOp35
 70
     0
102
RTVSPropertyOp36
 70
     0
102
RTVSPropertyOp37
 70
     0
102
RTVSPropertyOp38
 70
     0
102
RTVSPropertyOp39
 70
     0
102
RTVSPropertyOp40
 70
     0
102
RTVSPropertyOp41
 70
     0
102
RTVSPropertyOp42
 70
     0
102
RTVSPropertyOp43
 70
     0
102
RTVSPropertyOp44
 70
     0
102
RTVSPropertyOp45
 70
     0
102
RTVSPropertyOp46
 70
     0
102
RTVSPropertyOp47
 70
     0
102
RTVSPropertyOp48
 70
     0
102
RTVSPropertyOp49
 70
     0
102
RTVSPropertyOp50
 70
     0
102
RTVSPropertyOp51
 70
     0
102
RTVSPropertyOp52
 70
     0
102
RTVSPropertyOp53
 70
     0
102
RTVSPropertyOp54
 70
     0
102
RTVSPropertyOp55
 70
     0
102
RTVSPropertyOp56
 70
     0
102
RTVSPropertyOp57
 70
     0
102
RTVSPost2010Prop28
280
     0
102
RTVSPost2010PropOp28
 70
     0
102
RTVSPost2010Prop29
280
     1
102
RTVSPost2010PropOp29
 70
     0
102
RTVSPost2010Prop30
280
     1
102
RTVSPost2010PropOp30
 70
     0
102
RTVSPost2010Prop31
280
     0
102
RTVSPost2010PropOp31
 70
     0
102
RTVSPost2010Prop32
280
     0
102
RTVSPost2010PropOp32
 70
     0
102
RTVSPost2010Prop33
280
     0
102
RTVSPost2010PropOp33
 70
     0
102
RTVSPost2010Prop34
280
     0
102
RTVSPost2010PropOp34
 70
     0
102
RTVSPost2010Prop35
280
     0
102
RTVSPost2010PropOp35
 70
     0
102
RTVSPost2010Prop36
280
     0
102
RTVSPost2010PropOp36
 70
     0
102
RTVSPost2010Prop37
 90
       50
102
RTVSPost2010PropOp37
 70
     0
102
RTVSPost2010Prop38
140
0.0
102
RTVSPost2010PropOp38
 70
     0
102
RTVSPost2010Prop39
140
1.0
102
RTVSPost2010PropOp39
 70
     0
102
RTVSPost2010Prop40
 90
        0
102
RTVSPost2010PropOp40
 70
     0
102
RTVSPost2010Prop41ColorIndex
 90
       18
102
RTVSPost2010Prop41ColorRGB
 90
        0
102
RTVSPost2010PropOp41
 70
     0
102
RTVSPost2010Prop42
 90
       50
102
RTVSPost2010PropOp42
 70
     0
102
RTVSPost2010Prop43
 90
        3
102
RTVSPost2010PropOp43
 70
     0
102
RTVSPost2010Prop44ColorIndex
 90
        5
102
RTVSPost2010Prop44ColorRGB
 90
      255
102
RTVSPost2010PropOp44
 70
     0
102
RTVSPost2010Prop45
280
     0
102
RTVSPost2010PropOp45
 70
     0
102
RTVSPost2010Prop46
 90
       50
102
RTVSPost2010PropOp46
 70
     0
102
RTVSPost2010Prop47
 90
       50
102
RTVSPost2010PropOp47
 70
     0
102
RTVSPost2010Prop48
 90
       50
102
RTVSPost2010PropOp48
 70
     0
102
RTVSPost2010Prop49
280
     0
102
RTVSPost2010PropOp49
 70
     0
102
RTVSPost2010Prop50
 90
       50
102
RTVSPost2010PropOp50
 70
     0
102
RTVSPost2010Prop51ColorIndex
 90
      256
102
RTVSPost2010Prop51ColorRGB
 90
-16777216
102
RTVSPost2010PropOp51
 70
     0
102
RTVSPost2010Prop52
140
1.0
102
RTVSPost2010PropOp52
 70
     0
102
RTVSPost2010Prop53
 90
        2
102
RTVSPost2010PropOp53
 70
     0
102
RTVSPost2010Prop54
  1
strokes_ogs.tif
102
RTVSPost2010PropOp54
 70
     0
102
RTVSPost2010Prop55
280
     0
102
RTVSPost2010PropOp55
 70
     0
102
RTVSPost2010Prop56
140
1.0
102
RTVSPost2010PropOp56
 70
     0
102
RTVSPost2010Prop57
140
1.0
102
RTVSPost2010PropOp57
 70
     0
  0
XRECORD
  5
28D
102
{ACAD_REACTORS
330
28C
102
}
330
28C
100
AcDbXrecord
280
     1
102
RTVSPropertyOp0
 70
     1
102
RTVSPropertyOp1
 70
     1
102
RTVSPropertyOp2
 70
     1
102
RTVSPropertyOp3
 70
     1
102
RTVSPropertyOp4
 70
     1
102
RTVSPropertyOp5
 70
     1
102
RTVSPropertyOp6
 70
     1
102
RTVSPropertyOp7
 70
     1
102
RTVSPropertyOp8
 70
     1
102
RTVSPropertyOp9
 70
     1
102
RTVSPropertyOp10
 70
     1
102
RTVSPropertyOp11
 70
     1
102
RTVSPropertyOp12
 70
     1
102
RTVSPropertyOp13
 70
     1
102
RTVSPropertyOp14
 70
     1
102
RTVSPropertyOp15
 70
     1
102
RTVSPropertyOp16
 70
     1
102
RTVSPropertyOp17
 70
     1
102
RTVSPropertyOp18
 70
     1
102
RTVSPropertyOp19
 70
     1
102
RTVSPropertyOp20
 70
     1
102
RTVSPropertyOp21
 70
     1
102
RTVSPropertyOp22
 70
     1
102
RTVSPropertyOp23
 70
     1
102
RTVSPropertyOp24
 70
     1
102
RTVSPropertyOp25
 70
     1
102
RTVSPropertyOp26
 70
     1
102
RTVSPropertyOp27
 70
     1
102
RTVSPropertyOp28
 70
     1
102
RTVSPropertyOp29
 70
     1
102
RTVSPropertyOp30
 70
     1
102
RTVSPropertyOp31
 70
     1
102
RTVSPropertyOp32
 70
     1
102
RTVSPropertyOp33
 70
     1
102
RTVSPropertyOp34
 70
     1
102
RTVSPropertyOp35
 70
     1
102
RTVSPropertyOp36
 70
     1
102
RTVSPropertyOp37
 70
     1
102
RTVSPropertyOp38
 70
     1
102
RTVSPropertyOp39
 70
     1
102
RTVSPropertyOp40
 70
     1
102
RTVSPropertyOp41
 70
     1
102
RTVSPropertyOp42
 70
     1
102
RTVSPropertyOp43
 70
     1
102
RTVSPropertyOp44
 70
     1
102
RTVSPropertyOp45
 70
     1
102
RTVSPropertyOp46
 70
     1
102
RTVSPropertyOp47
 70
     1
102
RTVSPropertyOp48
 70
     1
102
RTVSPropertyOp49
 70
     1
102
RTVSPropertyOp50
 70
     1
102
RTVSPropertyOp51
 70
     0
102
RTVSPropertyOp52
 70
     0
102
RTVSPropertyOp53
 70
     1
102
RTVSPropertyOp54
 70
     1
102
RTVSPropertyOp55
 70
     1
102
RTVSPropertyOp56
 70
     1
102
RTVSPropertyOp57
 70
     1
102
RTVSPost2010Prop28
280
     0
102
RTVSPost2010PropOp28
 70
     1
102
RTVSPost2010Prop29
280
     1
102
RTVSPost2010PropOp29
 70
     1
102
RTVSPost2010Prop30
280
     1
102
RTVSPost2010PropOp30
 70
     1
102
RTVSPost2010Prop31
280
     0
102
RTVSPost2010PropOp31
 70
     1
102
RTVSPost2010Prop32
280
     0
102
RTVSPost2010PropOp32
 70
     1
102
RTVSPost2010Prop33
280
     0
102
RTVSPost2010PropOp33
 70
     1
102
RTVSPost2010Prop34
280
     0
102
RTVSPost2010PropOp34
 70
     1
102
RTVSPost2010Prop35
280
     0
102
RTVSPost2010PropOp35
 70
     1
102
RTVSPost2010Prop36
280
     0
102
RTVSPost2010PropOp36
 70
     1
102
RTVSPost2010Prop37
 90
       50
102
RTVSPost2010PropOp37
 70
     1
102
RTVSPost2010Prop38
140
0.0
102
RTVSPost2010PropOp38
 70
     1
102
RTVSPost2010Prop39
140
1.0
102
RTVSPost2010PropOp39
 70
     1
102
RTVSPost2010Prop40
 90
        0
102
RTVSPost2010PropOp40
 70
     1
102
RTVSPost2010Prop41ColorIndex
 90
       18
102
RTVSPost2010Prop41ColorRGB
 90
        0
102
RTVSPost2010PropOp41
 70
     1
102
RTVSPost2010Prop42
 90
       50
102
RTVSPost2010PropOp42
 70
     1
102
RTVSPost2010Prop43
 90
        3
102
RTVSPost2010PropOp43
 70
     1
102
RTVSPost2010Prop44ColorIndex
 90
        5
102
RTVSPost2010Prop44ColorRGB
 90
      255
102
RTVSPost2010PropOp44
 70
     1
102
RTVSPost2010Prop45
280
     0
102
RTVSPost2010PropOp45
 70
     1
102
RTVSPost2010Prop46
 90
       50
102
RTVSPost2010PropOp46
 70
     1
102
RTVSPost2010Prop47
 90
       50
102
RTVSPost2010PropOp47
 70
     1
102
RTVSPost2010Prop48
 90
       50
102
RTVSPost2010PropOp48
 70
     1
102
RTVSPost2010Prop49
280
     0
102
RTVSPost2010PropOp49
 70
     1
102
RTVSPost2010Prop50
 90
       50
102
RTVSPost2010PropOp50
 70
     1
102
RTVSPost2010Prop51ColorIndex
 90
      256
102
RTVSPost2010Prop51ColorRGB
 90
-16777216
102
RTVSPost2010PropOp51
 70
     0
102
RTVSPost2010Prop52
140
1.0
102
RTVSPost2010PropOp52
 70
     0
102
RTVSPost2010Prop53
 90
        2
102
RTVSPost2010PropOp53
 70
     1
102
RTVSPost2010Prop54
  1
strokes_ogs.tif
102
RTVSPost2010PropOp54
 70
     1
102
RTVSPost2010Prop55
280
     0
102
RTVSPost2010PropOp55
 70
     1
102
RTVSPost2010Prop56
140
1.0
102
RTVSPost2010PropOp56
 70
     1
102
RTVSPost2010Prop57
140
1.0
102
RTVSPost2010PropOp57
 70
     1
  0
XRECORD
  5
271
102
{ACAD_REACTORS
330
270
102
}
330
270
100
AcDbXrecord
280
     1
102
RTVSPropertyOp0
 70
     1
102
RTVSPropertyOp1
 70
     1
102
RTVSPropertyOp2
 70
     1
102
RTVSPropertyOp3
 70
     1
102
RTVSPropertyOp4
 70
     1
102
RTVSPropertyOp5
 70
     1
102
RTVSPropertyOp6
 70
     1
102
RTVSPropertyOp7
 70
     1
102
RTVSPropertyOp8
 70
     1
102
RTVSPropertyOp9
 70
     1
102
RTVSPropertyOp10
 70
     1
102
RTVSPropertyOp11
 70
     1
102
RTVSPropertyOp12
 70
     1
102
RTVSPropertyOp13
 70
     1
102
RTVSPropertyOp14
 70
     1
102
RTVSPropertyOp15
 70
     1
102
RTVSPropertyOp16
 70
     1
102
RTVSPropertyOp17
 70
     1
102
RTVSPropertyOp18
 70
     1
102
RTVSPropertyOp19
 70
     1
102
RTVSPropertyOp20
 70
     1
102
RTVSPropertyOp21
 70
     1
102
RTVSPropertyOp22
 70
     1
102
RTVSPropertyOp23
 70
     1
102
RTVSPropertyOp24
 70
     1
102
RTVSPropertyOp25
 70
     1
102
RTVSPropertyOp26
 70
     1
102
RTVSPropertyOp27
 70
     1
102
RTVSPropertyOp28
 70
     1
102
RTVSPropertyOp29
 70
     1
102
RTVSPropertyOp30
 70
     1
102
RTVSPropertyOp31
 70
     1
102
RTVSPropertyOp32
 70
     1
102
RTVSPropertyOp33
 70
     1
102
RTVSPropertyOp34
 70
     1
102
RTVSPropertyOp35
 70
     1
102
RTVSPropertyOp36
 70
     1
102
RTVSPropertyOp37
 70
     1
102
RTVSPropertyOp38
 70
     1
102
RTVSPropertyOp39
 70
     1
102
RTVSPropertyOp40
 70
     1
102
RTVSPropertyOp41
 70
     1
102
RTVSPropertyOp42
 70
     1
102
RTVSPropertyOp43
 70
     1
102
RTVSPropertyOp44
 70
     1
102
RTVSPropertyOp45
 70
     1
102
RTVSPropertyOp46
 70
     1
102
RTVSPropertyOp47
 70
     1
102
RTVSPropertyOp48
 70
     1
102
RTVSPropertyOp49
 70
     1
102
RTVSPropertyOp50
 70
     1
102
RTVSPropertyOp51
 70
     0
102
RTVSPropertyOp52
 70
     0
102
RTVSPropertyOp53
 70
     1
102
RTVSPropertyOp54
 70
     1
102
RTVSPropertyOp55
 70
     1
102
RTVSPropertyOp56
 70
     1
102
RTVSPropertyOp57
 70
     1
102
RTVSPost2010Prop28
280
     0
102
RTVSPost2010PropOp28
 70
     1
102
RTVSPost2010Prop29
280
     1
102
RTVSPost2010PropOp29
 70
     1
102
RTVSPost2010Prop30
280
     1
102
RTVSPost2010PropOp30
 70
     1
102
RTVSPost2010Prop31
280
     0
102
RTVSPost2010PropOp31
 70
     1
102
RTVSPost2010Prop32
280
     0
102
RTVSPost2010PropOp32
 70
     1
102
RTVSPost2010Prop33
280
     0
102
RTVSPost2010PropOp33
 70
     1
102
RTVSPost2010Prop34
280
     0
102
RTVSPost2010PropOp34
 70
     1
102
RTVSPost2010Prop35
280
     0
102
RTVSPost2010PropOp35
 70
     1
102
RTVSPost2010Prop36
280
     0
102
RTVSPost2010PropOp36
 70
     1
102
RTVSPost2010Prop37
 90
       50
102
RTVSPost2010PropOp37
 70
     1
102
RTVSPost2010Prop38
140
0.0
102
RTVSPost2010PropOp38
 70
     1
102
RTVSPost2010Prop39
140
1.0
102
RTVSPost2010PropOp39
 70
     1
102
RTVSPost2010Prop40
 90
        0
102
RTVSPost2010PropOp40
 70
     1
102
RTVSPost2010Prop41ColorIndex
 90
       18
102
RTVSPost2010Prop41ColorRGB
 90
        0
102
RTVSPost2010PropOp41
 70
     1
102
RTVSPost2010Prop42
 90
       50
102
RTVSPost2010PropOp42
 70
     1
102
RTVSPost2010Prop43
 90
        3
102
RTVSPost2010PropOp43
 70
     1
102
RTVSPost2010Prop44ColorIndex
 90
        5
102
RTVSPost2010Prop44ColorRGB
 90
      255
102
RTVSPost2010PropOp44
 70
     1
102
RTVSPost2010Prop45
280
     0
102
RTVSPost2010PropOp45
 70
     1
102
RTVSPost2010Prop46
 90
       50
102
RTVSPost2010PropOp46
 70
     1
102
RTVSPost2010Prop47
 90
       50
102
RTVSPost2010PropOp47
 70
     1
102
RTVSPost2010Prop48
 90
       50
102
RTVSPost2010PropOp48
 70
     1
102
RTVSPost2010Prop49
280
     0
102
RTVSPost2010PropOp49
 70
     1
102
RTVSPost2010Prop50
 90
       50
102
RTVSPost2010PropOp50
 70
     1
102
RTVSPost2010Prop51ColorIndex
 90
      256
102
RTVSPost2010Prop51ColorRGB
 90
-16777216
102
RTVSPost2010PropOp51
 70
     0
102
RTVSPost2010Prop52
140
1.0
102
RTVSPost2010PropOp52
 70
     0
102
RTVSPost2010Prop53
 90
        2
102
RTVSPost2010PropOp53
 70
     1
102
RTVSPost2010Prop54
  1
strokes_ogs.tif
102
RTVSPost2010PropOp54
 70
     1
102
RTVSPost2010Prop55
280
     0
102
RTVSPost2010PropOp55
 70
     1
102
RTVSPost2010Prop56
140
1.0
102
RTVSPost2010PropOp56
 70
     1
102
RTVSPost2010Prop57
140
1.0
102
RTVSPost2010PropOp57
 70
     1
  0
XRECORD
  5
273
102
{ACAD_REACTORS
330
272
102
}
330
272
100
AcDbXrecord
280
     1
102
RTVSPropertyOp0
 70
     1
102
RTVSPropertyOp1
 70
     1
102
RTVSPropertyOp2
 70
     1
102
RTVSPropertyOp3
 70
     1
102
RTVSPropertyOp4
 70
     1
102
RTVSPropertyOp5
 70
     1
102
RTVSPropertyOp6
 70
     1
102
RTVSPropertyOp7
 70
     1
102
RTVSPropertyOp8
 70
     1
102
RTVSPropertyOp9
 70
     1
102
RTVSPropertyOp10
 70
     1
102
RTVSPropertyOp11
 70
     1
102
RTVSPropertyOp12
 70
     1
102
RTVSPropertyOp13
 70
     1
102
RTVSPropertyOp14
 70
     1
102
RTVSPropertyOp15
 70
     1
102
RTVSPropertyOp16
 70
     1
102
RTVSPropertyOp17
 70
     1
102
RTVSPropertyOp18
 70
     1
102
RTVSPropertyOp19
 70
     1
102
RTVSPropertyOp20
 70
     1
102
RTVSPropertyOp21
 70
     1
102
RTVSPropertyOp22
 70
     1
102
RTVSPropertyOp23
 70
     1
102
RTVSPropertyOp24
 70
     1
102
RTVSPropertyOp25
 70
     1
102
RTVSPropertyOp26
 70
     1
102
RTVSPropertyOp27
 70
     1
102
RTVSPropertyOp28
 70
     1
102
RTVSPropertyOp29
 70
     1
102
RTVSPropertyOp30
 70
     1
102
RTVSPropertyOp31
 70
     1
102
RTVSPropertyOp32
 70
     1
102
RTVSPropertyOp33
 70
     1
102
RTVSPropertyOp34
 70
     1
102
RTVSPropertyOp35
 70
     1
102
RTVSPropertyOp36
 70
     1
102
RTVSPropertyOp37
 70
     1
102
RTVSPropertyOp38
 70
     1
102
RTVSPropertyOp39
 70
     1
102
RTVSPropertyOp40
 70
     1
102
RTVSPropertyOp41
 70
     1
102
RTVSPropertyOp42
 70
     1
102
RTVSPropertyOp43
 70
     1
102
RTVSPropertyOp44
 70
     1
102
RTVSPropertyOp45
 70
     1
102
RTVSPropertyOp46
 70
     1
102
RTVSPropertyOp47
 70
     1
102
RTVSPropertyOp48
 70
     1
102
RTVSPropertyOp49
 70
     1
102
RTVSPropertyOp50
 70
     1
102
RTVSPropertyOp51
 70
     0
102
RTVSPropertyOp52
 70
     0
102
RTVSPropertyOp53
 70
     1
102
RTVSPropertyOp54
 70
     1
102
RTVSPropertyOp55
 70
     1
102
RTVSPropertyOp56
 70
     1
102
RTVSPropertyOp57
 70
     1
102
RTVSPost2010Prop28
280
     0
102
RTVSPost2010PropOp28
 70
     1
102
RTVSPost2010Prop29
280
     1
102
RTVSPost2010PropOp29
 70
     1
102
RTVSPost2010Prop30
280
     1
102
RTVSPost2010PropOp30
 70
     1
102
RTVSPost2010Prop31
280
     0
102
RTVSPost2010PropOp31
 70
     1
102
RTVSPost2010Prop32
280
     0
102
RTVSPost2010PropOp32
 70
     1
102
RTVSPost2010Prop33
280
     0
102
RTVSPost2010PropOp33
 70
     1
102
RTVSPost2010Prop34
280
     0
102
RTVSPost2010PropOp34
 70
     1
102
RTVSPost2010Prop35
280
     0
102
RTVSPost2010PropOp35
 70
     1
102
RTVSPost2010Prop36
280
     0
102
RTVSPost2010PropOp36
 70
     1
102
RTVSPost2010Prop37
 90
       50
102
RTVSPost2010PropOp37
 70
     1
102
RTVSPost2010Prop38
140
0.0
102
RTVSPost2010PropOp38
 70
     1
102
RTVSPost2010Prop39
140
1.0
102
RTVSPost2010PropOp39
 70
     1
102
RTVSPost2010Prop40
 90
        0
102
RTVSPost2010PropOp40
 70
     1
102
RTVSPost2010Prop41ColorIndex
 90
       18
102
RTVSPost2010Prop41ColorRGB
 90
        0
102
RTVSPost2010PropOp41
 70
     1
102
RTVSPost2010Prop42
 90
       50
102
RTVSPost2010PropOp42
 70
     1
102
RTVSPost2010Prop43
 90
        3
102
RTVSPost2010PropOp43
 70
     1
102
RTVSPost2010Prop44ColorIndex
 90
        5
102
RTVSPost2010Prop44ColorRGB
 90
      255
102
RTVSPost2010PropOp44
 70
     1
102
RTVSPost2010Prop45
280
     0
102
RTVSPost2010PropOp45
 70
     1
102
RTVSPost2010Prop46
 90
       50
102
RTVSPost2010PropOp46
 70
     1
102
RTVSPost2010Prop47
 90
       50
102
RTVSPost2010PropOp47
 70
     1
102
RTVSPost2010Prop48
 90
       50
102
RTVSPost2010PropOp48
 70
     1
102
RTVSPost2010Prop49
280
     0
102
RTVSPost2010PropOp49
 70
     1
102
RTVSPost2010Prop50
 90
       50
102
RTVSPost2010PropOp50
 70
     1
102
RTVSPost2010Prop51ColorIndex
 90
      256
102
RTVSPost2010Prop51ColorRGB
 90
-16777216
102
RTVSPost2010PropOp51
 70
     0
102
RTVSPost2010Prop52
140
1.0
102
RTVSPost2010PropOp52
 70
     0
102
RTVSPost2010Prop53
 90
        2
102
RTVSPost2010PropOp53
 70
     1
102
RTVSPost2010Prop54
  1
strokes_ogs.tif
102
RTVSPost2010PropOp54
 70
     1
102
RTVSPost2010Prop55
280
     0
102
RTVSPost2010PropOp55
 70
     1
102
RTVSPost2010Prop56
140
1.0
102
RTVSPost2010PropOp56
 70
     1
102
RTVSPost2010Prop57
140
1.0
102
RTVSPost2010PropOp57
 70
     1
  0
XRECORD
  5
275
102
{ACAD_REACTORS
330
274
102
}
330
274
100
AcDbXrecord
280
     1
102
RTVSPropertyOp0
 70
     1
102
RTVSPropertyOp1
 70
     1
102
RTVSPropertyOp2
 70
     1
102
RTVSPropertyOp3
 70
     1
102
RTVSPropertyOp4
 70
     1
102
RTVSPropertyOp5
 70
     1
102
RTVSPropertyOp6
 70
     1
102
RTVSPropertyOp7
 70
     1
102
RTVSPropertyOp8
 70
     1
102
RTVSPropertyOp9
 70
     1
102
RTVSPropertyOp10
 70
     1
102
RTVSPropertyOp11
 70
     1
102
RTVSPropertyOp12
 70
     1
102
RTVSPropertyOp13
 70
     1
102
RTVSPropertyOp14
 70
     1
102
RTVSPropertyOp15
 70
     1
102
RTVSPropertyOp16
 70
     1
102
RTVSPropertyOp17
 70
     1
102
RTVSPropertyOp18
 70
     1
102
RTVSPropertyOp19
 70
     1
102
RTVSPropertyOp20
 70
     1
102
RTVSPropertyOp21
 70
     1
102
RTVSPropertyOp22
 70
     1
102
RTVSPropertyOp23
 70
     1
102
RTVSPropertyOp24
 70
     1
102
RTVSPropertyOp25
 70
     1
102
RTVSPropertyOp26
 70
     1
102
RTVSPropertyOp27
 70
     1
102
RTVSPropertyOp28
 70
     1
102
RTVSPropertyOp29
 70
     1
102
RTVSPropertyOp30
 70
     1
102
RTVSPropertyOp31
 70
     1
102
RTVSPropertyOp32
 70
     1
102
RTVSPropertyOp33
 70
     1
102
RTVSPropertyOp34
 70
     1
102
RTVSPropertyOp35
 70
     1
102
RTVSPropertyOp36
 70
     1
102
RTVSPropertyOp37
 70
     1
102
RTVSPropertyOp38
 70
     1
102
RTVSPropertyOp39
 70
     1
102
RTVSPropertyOp40
 70
     1
102
RTVSPropertyOp41
 70
     1
102
RTVSPropertyOp42
 70
     1
102
RTVSPropertyOp43
 70
     1
102
RTVSPropertyOp44
 70
     1
102
RTVSPropertyOp45
 70
     1
102
RTVSPropertyOp46
 70
     1
102
RTVSPropertyOp47
 70
     1
102
RTVSPropertyOp48
 70
     1
102
RTVSPropertyOp49
 70
     1
102
RTVSPropertyOp50
 70
     1
102
RTVSPropertyOp51
 70
     0
102
RTVSPropertyOp52
 70
     0
102
RTVSPropertyOp53
 70
     1
102
RTVSPropertyOp54
 70
     1
102
RTVSPropertyOp55
 70
     1
102
RTVSPropertyOp56
 70
     1
102
RTVSPropertyOp57
 70
     1
102
RTVSPost2010Prop28
280
     0
102
RTVSPost2010PropOp28
 70
     1
102
RTVSPost2010Prop29
280
     1
102
RTVSPost2010PropOp29
 70
     1
102
RTVSPost2010Prop30
280
     1
102
RTVSPost2010PropOp30
 70
     1
102
RTVSPost2010Prop31
280
     0
102
RTVSPost2010PropOp31
 70
     1
102
RTVSPost2010Prop32
280
     0
102
RTVSPost2010PropOp32
 70
     1
102
RTVSPost2010Prop33
280
     0
102
RTVSPost2010PropOp33
 70
     1
102
RTVSPost2010Prop34
280
     0
102
RTVSPost2010PropOp34
 70
     1
102
RTVSPost2010Prop35
280
     0
102
RTVSPost2010PropOp35
 70
     1
102
RTVSPost2010Prop36
280
     0
102
RTVSPost2010PropOp36
 70
     1
102
RTVSPost2010Prop37
 90
       50
102
RTVSPost2010PropOp37
 70
     1
102
RTVSPost2010Prop38
140
0.0
102
RTVSPost2010PropOp38
 70
     1
102
RTVSPost2010Prop39
140
1.0
102
RTVSPost2010PropOp39
 70
     1
102
RTVSPost2010Prop40
 90
        0
102
RTVSPost2010PropOp40
 70
     1
102
RTVSPost2010Prop41ColorIndex
 90
       18
102
RTVSPost2010Prop41ColorRGB
 90
        0
102
RTVSPost2010PropOp41
 70
     1
102
RTVSPost2010Prop42
 90
       50
102
RTVSPost2010PropOp42
 70
     1
102
RTVSPost2010Prop43
 90
        3
102
RTVSPost2010PropOp43
 70
     1
102
RTVSPost2010Prop44ColorIndex
 90
        5
102
RTVSPost2010Prop44ColorRGB
 90
      255
102
RTVSPost2010PropOp44
 70
     1
102
RTVSPost2010Prop45
280
     0
102
RTVSPost2010PropOp45
 70
     1
102
RTVSPost2010Prop46
 90
       50
102
RTVSPost2010PropOp46
 70
     1
102
RTVSPost2010Prop47
 90
       50
102
RTVSPost2010PropOp47
 70
     1
102
RTVSPost2010Prop48
 90
       50
102
RTVSPost2010PropOp48
 70
     1
102
RTVSPost2010Prop49
280
     0
102
RTVSPost2010PropOp49
 70
     1
102
RTVSPost2010Prop50
 90
       50
102
RTVSPost2010PropOp50
 70
     1
102
RTVSPost2010Prop51ColorIndex
 90
      256
102
RTVSPost2010Prop51ColorRGB
 90
-16777216
102
RTVSPost2010PropOp51
 70
     0
102
RTVSPost2010Prop52
140
1.0
102
RTVSPost2010PropOp52
 70
     0
102
RTVSPost2010Prop53
 90
        2
102
RTVSPost2010PropOp53
 70
     1
102
RTVSPost2010Prop54
  1
strokes_ogs.tif
102
RTVSPost2010PropOp54
 70
     1
102
RTVSPost2010Prop55
280
     0
102
RTVSPost2010PropOp55
 70
     1
102
RTVSPost2010Prop56
140
1.0
102
RTVSPost2010PropOp56
 70
     1
102
RTVSPost2010Prop57
140
1.0
102
RTVSPost2010PropOp57
 70
     1
  0
XRECORD
  5
277
102
{ACAD_REACTORS
330
276
102
}
330
276
100
AcDbXrecord
280
     1
102
RTVSPropertyOp0
 70
     1
102
RTVSPropertyOp1
 70
     1
102
RTVSPropertyOp2
 70
     1
102
RTVSPropertyOp3
 70
     1
102
RTVSPropertyOp4
 70
     1
102
RTVSPropertyOp5
 70
     1
102
RTVSPropertyOp6
 70
     1
102
RTVSPropertyOp7
 70
     1
102
RTVSPropertyOp8
 70
     1
102
RTVSPropertyOp9
 70
     1
102
RTVSPropertyOp10
 70
     1
102
RTVSPropertyOp11
 70
     1
102
RTVSPropertyOp12
 70
     1
102
RTVSPropertyOp13
 70
     1
102
RTVSPropertyOp14
 70
     1
102
RTVSPropertyOp15
 70
     1
102
RTVSPropertyOp16
 70
     1
102
RTVSPropertyOp17
 70
     1
102
RTVSPropertyOp18
 70
     1
102
RTVSPropertyOp19
 70
     1
102
RTVSPropertyOp20
 70
     1
102
RTVSPropertyOp21
 70
     1
102
RTVSPropertyOp22
 70
     1
102
RTVSPropertyOp23
 70
     1
102
RTVSPropertyOp24
 70
     1
102
RTVSPropertyOp25
 70
     1
102
RTVSPropertyOp26
 70
     1
102
RTVSPropertyOp27
 70
     1
102
RTVSPropertyOp28
 70
     1
102
RTVSPropertyOp29
 70
     1
102
RTVSPropertyOp30
 70
     1
102
RTVSPropertyOp31
 70
     1
102
RTVSPropertyOp32
 70
     1
102
RTVSPropertyOp33
 70
     1
102
RTVSPropertyOp34
 70
     1
102
RTVSPropertyOp35
 70
     1
102
RTVSPropertyOp36
 70
     1
102
RTVSPropertyOp37
 70
     1
102
RTVSPropertyOp38
 70
     1
102
RTVSPropertyOp39
 70
     1
102
RTVSPropertyOp40
 70
     1
102
RTVSPropertyOp41
 70
     1
102
RTVSPropertyOp42
 70
     1
102
RTVSPropertyOp43
 70
     1
102
RTVSPropertyOp44
 70
     1
102
RTVSPropertyOp45
 70
     1
102
RTVSPropertyOp46
 70
     1
102
RTVSPropertyOp47
 70
     1
102
RTVSPropertyOp48
 70
     1
102
RTVSPropertyOp49
 70
     1
102
RTVSPropertyOp50
 70
     1
102
RTVSPropertyOp51
 70
     0
102
RTVSPropertyOp52
 70
     0
102
RTVSPropertyOp53
 70
     1
102
RTVSPropertyOp54
 70
     1
102
RTVSPropertyOp55
 70
     1
102
RTVSPropertyOp56
 70
     1
102
RTVSPropertyOp57
 70
     1
102
RTVSPost2010Prop28
280
     0
102
RTVSPost2010PropOp28
 70
     1
102
RTVSPost2010Prop29
280
     1
102
RTVSPost2010PropOp29
 70
     1
102
RTVSPost2010Prop30
280
     1
102
RTVSPost2010PropOp30
 70
     1
102
RTVSPost2010Prop31
280
     0
102
RTVSPost2010PropOp31
 70
     1
102
RTVSPost2010Prop32
280
     0
102
RTVSPost2010PropOp32
 70
     1
102
RTVSPost2010Prop33
280
     0
102
RTVSPost2010PropOp33
 70
     1
102
RTVSPost2010Prop34
280
     0
102
RTVSPost2010PropOp34
 70
     1
102
RTVSPost2010Prop35
280
     0
102
RTVSPost2010PropOp35
 70
     1
102
RTVSPost2010Prop36
280
     0
102
RTVSPost2010PropOp36
 70
     1
102
RTVSPost2010Prop37
 90
       50
102
RTVSPost2010PropOp37
 70
     1
102
RTVSPost2010Prop38
140
0.0
102
RTVSPost2010PropOp38
 70
     1
102
RTVSPost2010Prop39
140
1.0
102
RTVSPost2010PropOp39
 70
     1
102
RTVSPost2010Prop40
 90
        0
102
RTVSPost2010PropOp40
 70
     1
102
RTVSPost2010Prop41ColorIndex
 90
       18
102
RTVSPost2010Prop41ColorRGB
 90
        0
102
RTVSPost2010PropOp41
 70
     1
102
RTVSPost2010Prop42
 90
       50
102
RTVSPost2010PropOp42
 70
     1
102
RTVSPost2010Prop43
 90
        3
102
RTVSPost2010PropOp43
 70
     1
102
RTVSPost2010Prop44ColorIndex
 90
        5
102
RTVSPost2010Prop44ColorRGB
 90
      255
102
RTVSPost2010PropOp44
 70
     1
102
RTVSPost2010Prop45
280
     0
102
RTVSPost2010PropOp45
 70
     1
102
RTVSPost2010Prop46
 90
       50
102
RTVSPost2010PropOp46
 70
     1
102
RTVSPost2010Prop47
 90
       50
102
RTVSPost2010PropOp47
 70
     1
102
RTVSPost2010Prop48
 90
       50
102
RTVSPost2010PropOp48
 70
     1
102
RTVSPost2010Prop49
280
     0
102
RTVSPost2010PropOp49
 70
     1
102
RTVSPost2010Prop50
 90
       50
102
RTVSPost2010PropOp50
 70
     1
102
RTVSPost2010Prop51ColorIndex
 90
      256
102
RTVSPost2010Prop51ColorRGB
 90
-16777216
102
RTVSPost2010PropOp51
 70
     0
102
RTVSPost2010Prop52
140
1.0
102
RTVSPost2010PropOp52
 70
     0
102
RTVSPost2010Prop53
 90
        2
102
RTVSPost2010PropOp53
 70
     1
102
RTVSPost2010Prop54
  1
strokes_ogs.tif
102
RTVSPost2010PropOp54
 70
     1
102
RTVSPost2010Prop55
280
     0
102
RTVSPost2010PropOp55
 70
     1
102
RTVSPost2010Prop56
140
1.0
102
RTVSPost2010PropOp56
 70
     1
102
RTVSPost2010Prop57
140
1.0
102
RTVSPost2010PropOp57
 70
     1
  0
XRECORD
  5
27D
102
{ACAD_REACTORS
330
27C
102
}
330
27C
100
AcDbXrecord
280
     1
102
RTVSPropertyOp0
 70
     1
102
RTVSPropertyOp1
 70
     1
102
RTVSPropertyOp2
 70
     1
102
RTVSPropertyOp3
 70
     1
102
RTVSPropertyOp4
 70
     1
102
RTVSPropertyOp5
 70
     1
102
RTVSPropertyOp6
 70
     1
102
RTVSPropertyOp7
 70
     1
102
RTVSPropertyOp8
 70
     1
102
RTVSPropertyOp9
 70
     1
102
RTVSPropertyOp10
 70
     1
102
RTVSPropertyOp11
 70
     1
102
RTVSPropertyOp12
 70
     1
102
RTVSPropertyOp13
 70
     1
102
RTVSPropertyOp14
 70
     1
102
RTVSPropertyOp15
 70
     1
102
RTVSPropertyOp16
 70
     1
102
RTVSPropertyOp17
 70
     1
102
RTVSPropertyOp18
 70
     1
102
RTVSPropertyOp19
 70
     1
102
RTVSPropertyOp20
 70
     1
102
RTVSPropertyOp21
 70
     1
102
RTVSPropertyOp22
 70
     1
102
RTVSPropertyOp23
 70
     1
102
RTVSPropertyOp24
 70
     1
102
RTVSPropertyOp25
 70
     1
102
RTVSPropertyOp26
 70
     1
102
RTVSPropertyOp27
 70
     1
102
RTVSPropertyOp28
 70
     1
102
RTVSPropertyOp29
 70
     1
102
RTVSPropertyOp30
 70
     1
102
RTVSPropertyOp31
 70
     1
102
RTVSPropertyOp32
 70
     1
102
RTVSPropertyOp33
 70
     1
102
RTVSPropertyOp34
 70
     1
102
RTVSPropertyOp35
 70
     1
102
RTVSPropertyOp36
 70
     1
102
RTVSPropertyOp37
 70
     1
102
RTVSPropertyOp38
 70
     1
102
RTVSPropertyOp39
 70
     1
102
RTVSPropertyOp40
 70
     1
102
RTVSPropertyOp41
 70
     1
102
RTVSPropertyOp42
 70
     1
102
RTVSPropertyOp43
 70
     1
102
RTVSPropertyOp44
 70
     1
102
RTVSPropertyOp45
 70
     1
102
RTVSPropertyOp46
 70
     1
102
RTVSPropertyOp47
 70
     1
102
RTVSPropertyOp48
 70
     1
102
RTVSPropertyOp49
 70
     1
102
RTVSPropertyOp50
 70
     1
102
RTVSPropertyOp51
 70
     0
102
RTVSPropertyOp52
 70
     0
102
RTVSPropertyOp53
 70
     1
102
RTVSPropertyOp54
 70
     1
102
RTVSPropertyOp55
 70
     1
102
RTVSPropertyOp56
 70
     1
102
RTVSPropertyOp57
 70
     1
102
RTVSPost2010Prop28
280
     0
102
RTVSPost2010PropOp28
 70
     1
102
RTVSPost2010Prop29
280
     1
102
RTVSPost2010PropOp29
 70
     1
102
RTVSPost2010Prop30
280
     1
102
RTVSPost2010PropOp30
 70
     1
102
RTVSPost2010Prop31
280
     0
102
RTVSPost2010PropOp31
 70
     1
102
RTVSPost2010Prop32
280
     0
102
RTVSPost2010PropOp32
 70
     1
102
RTVSPost2010Prop33
280
     0
102
RTVSPost2010PropOp33
 70
     1
102
RTVSPost2010Prop34
280
     0
102
RTVSPost2010PropOp34
 70
     1
102
RTVSPost2010Prop35
280
     0
102
RTVSPost2010PropOp35
 70
     1
102
RTVSPost2010Prop36
280
     0
102
RTVSPost2010PropOp36
 70
     1
102
RTVSPost2010Prop37
 90
       50
102
RTVSPost2010PropOp37
 70
     1
102
RTVSPost2010Prop38
140
0.0
102
RTVSPost2010PropOp38
 70
     1
102
RTVSPost2010Prop39
140
1.0
102
RTVSPost2010PropOp39
 70
     1
102
RTVSPost2010Prop40
 90
        0
102
RTVSPost2010PropOp40
 70
     1
102
RTVSPost2010Prop41ColorIndex
 90
       18
102
RTVSPost2010Prop41ColorRGB
 90
        0
102
RTVSPost2010PropOp41
 70
     1
102
RTVSPost2010Prop42
 90
       50
102
RTVSPost2010PropOp42
 70
     1
102
RTVSPost2010Prop43
 90
        3
102
RTVSPost2010PropOp43
 70
     1
102
RTVSPost2010Prop44ColorIndex
 90
        5
102
RTVSPost2010Prop44ColorRGB
 90
      255
102
RTVSPost2010PropOp44
 70
     1
102
RTVSPost2010Prop45
280
     0
102
RTVSPost2010PropOp45
 70
     1
102
RTVSPost2010Prop46
 90
       50
102
RTVSPost2010PropOp46
 70
     1
102
RTVSPost2010Prop47
 90
       50
102
RTVSPost2010PropOp47
 70
     1
102
RTVSPost2010Prop48
 90
       50
102
RTVSPost2010PropOp48
 70
     1
102
RTVSPost2010Prop49
280
     0
102
RTVSPost2010PropOp49
 70
     1
102
RTVSPost2010Prop50
 90
       50
102
RTVSPost2010PropOp50
 70
     1
102
RTVSPost2010Prop51ColorIndex
 90
      256
102
RTVSPost2010Prop51ColorRGB
 90
-16777216
102
RTVSPost2010PropOp51
 70
     0
102
RTVSPost2010Prop52
140
1.0
102
RTVSPost2010PropOp52
 70
     0
102
RTVSPost2010Prop53
 90
        2
102
RTVSPost2010PropOp53
 70
     1
102
RTVSPost2010Prop54
  1
strokes_ogs.tif
102
RTVSPost2010PropOp54
 70
     1
102
RTVSPost2010Prop55
280
     0
102
RTVSPost2010PropOp55
 70
     1
102
RTVSPost2010Prop56
140
1.0
102
RTVSPost2010PropOp56
 70
     1
102
RTVSPost2010Prop57
140
1.0
102
RTVSPost2010PropOp57
 70
     1
  0
XRECORD
  5
291
102
{ACAD_REACTORS
330
290
102
}
330
290
100
AcDbXrecord
280
     1
102
RTVSPropertyOp0
 70
     0
102
RTVSPropertyOp1
 70
     0
102
RTVSPropertyOp2
 70
     0
102
RTVSPropertyOp3
 70
     0
102
RTVSPropertyOp4
 70
     0
102
RTVSPropertyOp5
 70
     0
102
RTVSPropertyOp6
 70
     0
102
RTVSPropertyOp7
 70
     0
102
RTVSPropertyOp8
 70
     0
102
RTVSPropertyOp9
 70
     0
102
RTVSPropertyOp10
 70
     0
102
RTVSPropertyOp11
 70
     0
102
RTVSPropertyOp12
 70
     0
102
RTVSPropertyOp13
 70
     0
102
RTVSPropertyOp14
 70
     2
102
RTVSPropertyOp15
 70
     0
102
RTVSPropertyOp16
 70
     0
102
RTVSPropertyOp17
 70
     0
102
RTVSPropertyOp18
 70
     0
102
RTVSPropertyOp19
 70
     0
102
RTVSPropertyOp20
 70
     0
102
RTVSPropertyOp21
 70
     0
102
RTVSPropertyOp22
 70
     0
102
RTVSPropertyOp23
 70
     0
102
RTVSPropertyOp24
 70
     0
102
RTVSPropertyOp25
 70
     0
102
RTVSPropertyOp26
 70
     0
102
RTVSPropertyOp27
 70
     0
102
RTVSPropertyOp28
 70
     0
102
RTVSPropertyOp29
 70
     0
102
RTVSPropertyOp30
 70
     0
102
RTVSPropertyOp31
 70
     0
102
RTVSPropertyOp32
 70
     0
102
RTVSPropertyOp33
 70
     0
102
RTVSPropertyOp34
 70
     0
102
RTVSPropertyOp35
 70
     0
102
RTVSPropertyOp36
 70
     0
102
RTVSPropertyOp37
 70
     0
102
RTVSPropertyOp38
 70
     0
102
RTVSPropertyOp39
 70
     0
102
RTVSPropertyOp40
 70
     0
102
RTVSPropertyOp41
 70
     0
102
RTVSPropertyOp42
 70
     0
102
RTVSPropertyOp43
 70
     0
102
RTVSPropertyOp44
 70
     0
102
RTVSPropertyOp45
 70
     0
102
RTVSPropertyOp46
 70
     0
102
RTVSPropertyOp47
 70
     0
102
RTVSPropertyOp48
 70
     0
102
RTVSPropertyOp49
 70
     0
102
RTVSPropertyOp50
 70
     0
102
RTVSPropertyOp51
 70
     0
102
RTVSPropertyOp52
 70
     0
102
RTVSPropertyOp53
 70
     0
102
RTVSPropertyOp54
 70
     0
102
RTVSPropertyOp55
 70
     0
102
RTVSPropertyOp56
 70
     0
102
RTVSPropertyOp57
 70
     0
102
RTVSPost2010Prop28
280
     0
102
RTVSPost2010PropOp28
 70
     0
102
RTVSPost2010Prop29
280
     1
102
RTVSPost2010PropOp29
 70
     0
102
RTVSPost2010Prop30
280
     1
102
RTVSPost2010PropOp30
 70
     0
102
RTVSPost2010Prop31
280
     0
102
RTVSPost2010PropOp31
 70
     0
102
RTVSPost2010Prop32
280
     0
102
RTVSPost2010PropOp32
 70
     0
102
RTVSPost2010Prop33
280
     0
102
RTVSPost2010PropOp33
 70
     0
102
RTVSPost2010Prop34
280
     0
102
RTVSPost2010PropOp34
 70
     0
102
RTVSPost2010Prop35
280
     0
102
RTVSPost2010PropOp35
 70
     0
102
RTVSPost2010Prop36
280
     0
102
RTVSPost2010PropOp36
 70
     0
102
RTVSPost2010Prop37
 90
       50
102
RTVSPost2010PropOp37
 70
     0
102
RTVSPost2010Prop38
140
0.0
102
RTVSPost2010PropOp38
 70
     0
102
RTVSPost2010Prop39
140
1.0
102
RTVSPost2010PropOp39
 70
     0
102
RTVSPost2010Prop40
 90
        0
102
RTVSPost2010PropOp40
 70
     0
102
RTVSPost2010Prop41ColorIndex
 90
       18
102
RTVSPost2010Prop41ColorRGB
 90
        0
102
RTVSPost2010PropOp41
 70
     0
102
RTVSPost2010Prop42
 90
       50
102
RTVSPost2010PropOp42
 70
     0
102
RTVSPost2010Prop43
 90
        3
102
RTVSPost2010PropOp43
 70
     0
102
RTVSPost2010Prop44ColorIndex
 90
        5
102
RTVSPost2010Prop44ColorRGB
 90
      255
102
RTVSPost2010PropOp44
 70
     0
102
RTVSPost2010Prop45
280
     0
102
RTVSPost2010PropOp45
 70
     0
102
RTVSPost2010Prop46
 90
       50
102
RTVSPost2010PropOp46
 70
     0
102
RTVSPost2010Prop47
 90
       50
102
RTVSPost2010PropOp47
 70
     0
102
RTVSPost2010Prop48
 90
       50
102
RTVSPost2010PropOp48
 70
     0
102
RTVSPost2010Prop49
280
     0
102
RTVSPost2010PropOp49
 70
     0
102
RTVSPost2010Prop50
 90
       50
102
RTVSPost2010PropOp50
 70
     0
102
RTVSPost2010Prop51ColorIndex
 90
      256
102
RTVSPost2010Prop51ColorRGB
 90
-16777216
102
RTVSPost2010PropOp51
 70
     0
102
RTVSPost2010Prop52
140
1.0
102
RTVSPost2010PropOp52
 70
     0
102
RTVSPost2010Prop53
 90
        2
102
RTVSPost2010PropOp53
 70
     0
102
RTVSPost2010Prop54
  1
strokes_ogs.tif
102
RTVSPost2010PropOp54
 70
     0
102
RTVSPost2010Prop55
280
     0
102
RTVSPost2010PropOp55
 70
     0
102
RTVSPost2010Prop56
140
1.0
102
RTVSPost2010PropOp56
 70
     0
102
RTVSPost2010Prop57
140
1.0
102
RTVSPost2010PropOp57
 70
     0
  0
XRECORD
  5
28B
102
{ACAD_REACTORS
330
28A
102
}
330
28A
100
AcDbXrecord
280
     1
102
RTVSPropertyOp0
 70
     1
102
RTVSPropertyOp1
 70
     1
102
RTVSPropertyOp2
 70
     1
102
RTVSPropertyOp3
 70
     1
102
RTVSPropertyOp4
 70
     1
102
RTVSPropertyOp5
 70
     1
102
RTVSPropertyOp6
 70
     1
102
RTVSPropertyOp7
 70
     1
102
RTVSPropertyOp8
 70
     1
102
RTVSPropertyOp9
 70
     1
102
RTVSPropertyOp10
 70
     1
102
RTVSPropertyOp11
 70
     1
102
RTVSPropertyOp12
 70
     1
102
RTVSPropertyOp13
 70
     1
102
RTVSPropertyOp14
 70
     1
102
RTVSPropertyOp15
 70
     1
102
RTVSPropertyOp16
 70
     1
102
RTVSPropertyOp17
 70
     1
102
RTVSPropertyOp18
 70
     1
102
RTVSPropertyOp19
 70
     1
102
RTVSPropertyOp20
 70
     1
102
RTVSPropertyOp21
 70
     1
102
RTVSPropertyOp22
 70
     1
102
RTVSPropertyOp23
 70
     1
102
RTVSPropertyOp24
 70
     1
102
RTVSPropertyOp25
 70
     1
102
RTVSPropertyOp26
 70
     1
102
RTVSPropertyOp27
 70
     1
102
RTVSPropertyOp28
 70
     1
102
RTVSPropertyOp29
 70
     1
102
RTVSPropertyOp30
 70
     1
102
RTVSPropertyOp31
 70
     1
102
RTVSPropertyOp32
 70
     1
102
RTVSPropertyOp33
 70
     1
102
RTVSPropertyOp34
 70
     1
102
RTVSPropertyOp35
 70
     1
102
RTVSPropertyOp36
 70
     1
102
RTVSPropertyOp37
 70
     1
102
RTVSPropertyOp38
 70
     1
102
RTVSPropertyOp39
 70
     1
102
RTVSPropertyOp40
 70
     1
102
RTVSPropertyOp41
 70
     1
102
RTVSPropertyOp42
 70
     1
102
RTVSPropertyOp43
 70
     1
102
RTVSPropertyOp44
 70
     1
102
RTVSPropertyOp45
 70
     1
102
RTVSPropertyOp46
 70
     1
102
RTVSPropertyOp47
 70
     1
102
RTVSPropertyOp48
 70
     1
102
RTVSPropertyOp49
 70
     1
102
RTVSPropertyOp50
 70
     1
102
RTVSPropertyOp51
 70
     0
102
RTVSPropertyOp52
 70
     0
102
RTVSPropertyOp53
 70
     1
102
RTVSPropertyOp54
 70
     1
102
RTVSPropertyOp55
 70
     1
102
RTVSPropertyOp56
 70
     1
102
RTVSPropertyOp57
 70
     1
102
RTVSPost2010Prop28
280
     0
102
RTVSPost2010PropOp28
 70
     1
102
RTVSPost2010Prop29
280
     1
102
RTVSPost2010PropOp29
 70
     1
102
RTVSPost2010Prop30
280
     1
102
RTVSPost2010PropOp30
 70
     1
102
RTVSPost2010Prop31
280
     0
102
RTVSPost2010PropOp31
 70
     1
102
RTVSPost2010Prop32
280
     0
102
RTVSPost2010PropOp32
 70
     1
102
RTVSPost2010Prop33
280
     0
102
RTVSPost2010PropOp33
 70
     1
102
RTVSPost2010Prop34
280
     0
102
RTVSPost2010PropOp34
 70
     1
102
RTVSPost2010Prop35
280
     0
102
RTVSPost2010PropOp35
 70
     1
102
RTVSPost2010Prop36
280
     0
102
RTVSPost2010PropOp36
 70
     1
102
RTVSPost2010Prop37
 90
       50
102
RTVSPost2010PropOp37
 70
     1
102
RTVSPost2010Prop38
140
0.0
102
RTVSPost2010PropOp38
 70
     1
102
RTVSPost2010Prop39
140
1.0
102
RTVSPost2010PropOp39
 70
     1
102
RTVSPost2010Prop40
 90
        0
102
RTVSPost2010PropOp40
 70
     1
102
RTVSPost2010Prop41ColorIndex
 90
       18
102
RTVSPost2010Prop41ColorRGB
 90
        0
102
RTVSPost2010PropOp41
 70
     1
102
RTVSPost2010Prop42
 90
       50
102
RTVSPost2010PropOp42
 70
     1
102
RTVSPost2010Prop43
 90
        3
102
RTVSPost2010PropOp43
 70
     1
102
RTVSPost2010Prop44ColorIndex
 90
        5
102
RTVSPost2010Prop44ColorRGB
 90
      255
102
RTVSPost2010PropOp44
 70
     1
102
RTVSPost2010Prop45
280
     0
102
RTVSPost2010PropOp45
 70
     1
102
RTVSPost2010Prop46
 90
       50
102
RTVSPost2010PropOp46
 70
     1
102
RTVSPost2010Prop47
 90
       50
102
RTVSPost2010PropOp47
 70
     1
102
RTVSPost2010Prop48
 90
       50
102
RTVSPost2010PropOp48
 70
     1
102
RTVSPost2010Prop49
280
     0
102
RTVSPost2010PropOp49
 70
     1
102
RTVSPost2010Prop50
 90
       50
102
RTVSPost2010PropOp50
 70
     1
102
RTVSPost2010Prop51ColorIndex
 90
      256
102
RTVSPost2010Prop51ColorRGB
 90
-16777216
102
RTVSPost2010PropOp51
 70
     0
102
RTVSPost2010Prop52
140
1.0
102
RTVSPost2010PropOp52
 70
     0
102
RTVSPost2010Prop53
 90
        2
102
RTVSPost2010PropOp53
 70
     1
102
RTVSPost2010Prop54
  1
strokes_ogs.tif
102
RTVSPost2010PropOp54
 70
     1
102
RTVSPost2010Prop55
280
     0
102
RTVSPost2010PropOp55
 70
     1
102
RTVSPost2010Prop56
140
1.0
102
RTVSPost2010PropOp56
 70
     1
102
RTVSPost2010Prop57
140
1.0
102
RTVSPost2010PropOp57
 70
     1
  0
XRECORD
  5
293
102
{ACAD_REACTORS
330
292
102
}
330
292
100
AcDbXrecord
280
     1
102
RTVSPropertyOp0
 70
     0
102
RTVSPropertyOp1
 70
     0
102
RTVSPropertyOp2
 70
     0
102
RTVSPropertyOp3
 70
     0
102
RTVSPropertyOp4
 70
     0
102
RTVSPropertyOp5
 70
     0
102
RTVSPropertyOp6
 70
     0
102
RTVSPropertyOp7
 70
     0
102
RTVSPropertyOp8
 70
     0
102
RTVSPropertyOp9
 70
     0
102
RTVSPropertyOp10
 70
     0
102
RTVSPropertyOp11
 70
     0
102
RTVSPropertyOp12
 70
     0
102
RTVSPropertyOp13
 70
     0
102
RTVSPropertyOp14
 70
     2
102
RTVSPropertyOp15
 70
     0
102
RTVSPropertyOp16
 70
     0
102
RTVSPropertyOp17
 70
     0
102
RTVSPropertyOp18
 70
     0
102
RTVSPropertyOp19
 70
     0
102
RTVSPropertyOp20
 70
     0
102
RTVSPropertyOp21
 70
     0
102
RTVSPropertyOp22
 70
     0
102
RTVSPropertyOp23
 70
     0
102
RTVSPropertyOp24
 70
     0
102
RTVSPropertyOp25
 70
     0
102
RTVSPropertyOp26
 70
     0
102
RTVSPropertyOp27
 70
     0
102
RTVSPropertyOp28
 70
     0
102
RTVSPropertyOp29
 70
     0
102
RTVSPropertyOp30
 70
     0
102
RTVSPropertyOp31
 70
     0
102
RTVSPropertyOp32
 70
     0
102
RTVSPropertyOp33
 70
     0
102
RTVSPropertyOp34
 70
     0
102
RTVSPropertyOp35
 70
     0
102
RTVSPropertyOp36
 70
     0
102
RTVSPropertyOp37
 70
     0
102
RTVSPropertyOp38
 70
     0
102
RTVSPropertyOp39
 70
     0
102
RTVSPropertyOp40
 70
     0
102
RTVSPropertyOp41
 70
     0
102
RTVSPropertyOp42
 70
     0
102
RTVSPropertyOp43
 70
     0
102
RTVSPropertyOp44
 70
     0
102
RTVSPropertyOp45
 70
     0
102
RTVSPropertyOp46
 70
     0
102
RTVSPropertyOp47
 70
     0
102
RTVSPropertyOp48
 70
     0
102
RTVSPropertyOp49
 70
     0
102
RTVSPropertyOp50
 70
     0
102
RTVSPropertyOp51
 70
     0
102
RTVSPropertyOp52
 70
     0
102
RTVSPropertyOp53
 70
     0
102
RTVSPropertyOp54
 70
     0
102
RTVSPropertyOp55
 70
     0
102
RTVSPropertyOp56
 70
     0
102
RTVSPropertyOp57
 70
     0
102
RTVSPost2010Prop28
280
     0
102
RTVSPost2010PropOp28
 70
     0
102
RTVSPost2010Prop29
280
     1
102
RTVSPost2010PropOp29
 70
     0
102
RTVSPost2010Prop30
280
     1
102
RTVSPost2010PropOp30
 70
     0
102
RTVSPost2010Prop31
280
     0
102
RTVSPost2010PropOp31
 70
     0
102
RTVSPost2010Prop32
280
     0
102
RTVSPost2010PropOp32
 70
     0
102
RTVSPost2010Prop33
280
     0
102
RTVSPost2010PropOp33
 70
     0
102
RTVSPost2010Prop34
280
     0
102
RTVSPost2010PropOp34
 70
     0
102
RTVSPost2010Prop35
280
     0
102
RTVSPost2010PropOp35
 70
     0
102
RTVSPost2010Prop36
280
     0
102
RTVSPost2010PropOp36
 70
     0
102
RTVSPost2010Prop37
 90
       50
102
RTVSPost2010PropOp37
 70
     0
102
RTVSPost2010Prop38
140
0.0
102
RTVSPost2010PropOp38
 70
     0
102
RTVSPost2010Prop39
140
1.0
102
RTVSPost2010PropOp39
 70
     0
102
RTVSPost2010Prop40
 90
        0
102
RTVSPost2010PropOp40
 70
     0
102
RTVSPost2010Prop41ColorIndex
 90
       18
102
RTVSPost2010Prop41ColorRGB
 90
        0
102
RTVSPost2010PropOp41
 70
     0
102
RTVSPost2010Prop42
 90
       50
102
RTVSPost2010PropOp42
 70
     0
102
RTVSPost2010Prop43
 90
        3
102
RTVSPost2010PropOp43
 70
     0
102
RTVSPost2010Prop44ColorIndex
 90
        5
102
RTVSPost2010Prop44ColorRGB
 90
      255
102
RTVSPost2010PropOp44
 70
     0
102
RTVSPost2010Prop45
280
     0
102
RTVSPost2010PropOp45
 70
     0
102
RTVSPost2010Prop46
 90
       50
102
RTVSPost2010PropOp46
 70
     0
102
RTVSPost2010Prop47
 90
       50
102
RTVSPost2010PropOp47
 70
     0
102
RTVSPost2010Prop48
 90
       50
102
RTVSPost2010PropOp48
 70
     0
102
RTVSPost2010Prop49
280
     0
102
RTVSPost2010PropOp49
 70
     0
102
RTVSPost2010Prop50
 90
       50
102
RTVSPost2010PropOp50
 70
     0
102
RTVSPost2010Prop51ColorIndex
 90
      256
102
RTVSPost2010Prop51ColorRGB
 90
-16777216
102
RTVSPost2010PropOp51
 70
     0
102
RTVSPost2010Prop52
140
1.0
102
RTVSPost2010PropOp52
 70
     0
102
RTVSPost2010Prop53
 90
        2
102
RTVSPost2010PropOp53
 70
     0
102
RTVSPost2010Prop54
  1
strokes_ogs.tif
102
RTVSPost2010PropOp54
 70
     0
102
RTVSPost2010Prop55
280
     0
102
RTVSPost2010PropOp55
 70
     0
102
RTVSPost2010Prop56
140
1.0
102
RTVSPost2010PropOp56
 70
     0
102
RTVSPost2010Prop57
140
1.0
102
RTVSPost2010PropOp57
 70
     0
  0
XRECORD
  5
281
102
{ACAD_REACTORS
330
280
102
}
330
280
100
AcDbXrecord
280
     1
102
RTVSPropertyOp0
 70
     1
102
RTVSPropertyOp1
 70
     1
102
RTVSPropertyOp2
 70
     1
102
RTVSPropertyOp3
 70
     1
102
RTVSPropertyOp4
 70
     1
102
RTVSPropertyOp5
 70
     1
102
RTVSPropertyOp6
 70
     1
102
RTVSPropertyOp7
 70
     1
102
RTVSPropertyOp8
 70
     1
102
RTVSPropertyOp9
 70
     1
102
RTVSPropertyOp10
 70
     1
102
RTVSPropertyOp11
 70
     1
102
RTVSPropertyOp12
 70
     1
102
RTVSPropertyOp13
 70
     1
102
RTVSPropertyOp14
 70
     1
102
RTVSPropertyOp15
 70
     1
102
RTVSPropertyOp16
 70
     1
102
RTVSPropertyOp17
 70
     1
102
RTVSPropertyOp18
 70
     1
102
RTVSPropertyOp19
 70
     1
102
RTVSPropertyOp20
 70
     1
102
RTVSPropertyOp21
 70
     1
102
RTVSPropertyOp22
 70
     1
102
RTVSPropertyOp23
 70
     1
102
RTVSPropertyOp24
 70
     1
102
RTVSPropertyOp25
 70
     1
102
RTVSPropertyOp26
 70
     1
102
RTVSPropertyOp27
 70
     1
102
RTVSPropertyOp28
 70
     1
102
RTVSPropertyOp29
 70
     1
102
RTVSPropertyOp30
 70
     1
102
RTVSPropertyOp31
 70
     1
102
RTVSPropertyOp32
 70
     1
102
RTVSPropertyOp33
 70
     1
102
RTVSPropertyOp34
 70
     1
102
RTVSPropertyOp35
 70
     1
102
RTVSPropertyOp36
 70
     1
102
RTVSPropertyOp37
 70
     1
102
RTVSPropertyOp38
 70
     1
102
RTVSPropertyOp39
 70
     1
102
RTVSPropertyOp40
 70
     1
102
RTVSPropertyOp41
 70
     1
102
RTVSPropertyOp42
 70
     1
102
RTVSPropertyOp43
 70
     1
102
RTVSPropertyOp44
 70
     1
102
RTVSPropertyOp45
 70
     1
102
RTVSPropertyOp46
 70
     1
102
RTVSPropertyOp47
 70
     1
102
RTVSPropertyOp48
 70
     1
102
RTVSPropertyOp49
 70
     1
102
RTVSPropertyOp50
 70
     1
102
RTVSPropertyOp51
 70
     0
102
RTVSPropertyOp52
 70
     0
102
RTVSPropertyOp53
 70
     1
102
RTVSPropertyOp54
 70
     1
102
RTVSPropertyOp55
 70
     1
102
RTVSPropertyOp56
 70
     1
102
RTVSPropertyOp57
 70
     1
102
RTVSPost2010Prop28
280
     0
102
RTVSPost2010PropOp28
 70
     1
102
RTVSPost2010Prop29
280
     1
102
RTVSPost2010PropOp29
 70
     1
102
RTVSPost2010Prop30
280
     1
102
RTVSPost2010PropOp30
 70
     1
102
RTVSPost2010Prop31
280
     0
102
RTVSPost2010PropOp31
 70
     1
102
RTVSPost2010Prop32
280
     0
102
RTVSPost2010PropOp32
 70
     1
102
RTVSPost2010Prop33
280
     0
102
RTVSPost2010PropOp33
 70
     1
102
RTVSPost2010Prop34
280
     0
102
RTVSPost2010PropOp34
 70
     1
102
RTVSPost2010Prop35
280
     0
102
RTVSPost2010PropOp35
 70
     1
102
RTVSPost2010Prop36
280
     0
102
RTVSPost2010PropOp36
 70
     1
102
RTVSPost2010Prop37
 90
       50
102
RTVSPost2010PropOp37
 70
     1
102
RTVSPost2010Prop38
140
0.0
102
RTVSPost2010PropOp38
 70
     1
102
RTVSPost2010Prop39
140
1.0
102
RTVSPost2010PropOp39
 70
     1
102
RTVSPost2010Prop40
 90
        0
102
RTVSPost2010PropOp40
 70
     1
102
RTVSPost2010Prop41ColorIndex
 90
       18
102
RTVSPost2010Prop41ColorRGB
 90
        0
102
RTVSPost2010PropOp41
 70
     1
102
RTVSPost2010Prop42
 90
       50
102
RTVSPost2010PropOp42
 70
     1
102
RTVSPost2010Prop43
 90
        3
102
RTVSPost2010PropOp43
 70
     1
102
RTVSPost2010Prop44ColorIndex
 90
        5
102
RTVSPost2010Prop44ColorRGB
 90
      255
102
RTVSPost2010PropOp44
 70
     1
102
RTVSPost2010Prop45
280
     0
102
RTVSPost2010PropOp45
 70
     1
102
RTVSPost2010Prop46
 90
       50
102
RTVSPost2010PropOp46
 70
     1
102
RTVSPost2010Prop47
 90
       50
102
RTVSPost2010PropOp47
 70
     1
102
RTVSPost2010Prop48
 90
       50
102
RTVSPost2010PropOp48
 70
     1
102
RTVSPost2010Prop49
280
     0
102
RTVSPost2010PropOp49
 70
     1
102
RTVSPost2010Prop50
 90
       50
102
RTVSPost2010PropOp50
 70
     1
102
RTVSPost2010Prop51ColorIndex
 90
      256
102
RTVSPost2010Prop51ColorRGB
 90
-16777216
102
RTVSPost2010PropOp51
 70
     0
102
RTVSPost2010Prop52
140
1.0
102
RTVSPost2010PropOp52
 70
     0
102
RTVSPost2010Prop53
 90
        2
102
RTVSPost2010PropOp53
 70
     1
102
RTVSPost2010Prop54
  1
strokes_ogs.tif
102
RTVSPost2010PropOp54
 70
     1
102
RTVSPost2010Prop55
280
     0
102
RTVSPost2010PropOp55
 70
     1
102
RTVSPost2010Prop56
140
1.0
102
RTVSPost2010PropOp56
 70
     1
102
RTVSPost2010Prop57
140
1.0
102
RTVSPost2010PropOp57
 70
     1
  0
XRECORD
  5
29F
102
{ACAD_REACTORS
330
29E
102
}
330
29E
100
AcDbXrecord
280
     1
102
RTVSPropertyOp0
 70
     1
102
RTVSPropertyOp1
 70
     1
102
RTVSPropertyOp2
 70
     1
102
RTVSPropertyOp3
 70
     1
102
RTVSPropertyOp4
 70
     1
102
RTVSPropertyOp5
 70
     1
102
RTVSPropertyOp6
 70
     1
102
RTVSPropertyOp7
 70
     1
102
RTVSPropertyOp8
 70
     1
102
RTVSPropertyOp9
 70
     1
102
RTVSPropertyOp10
 70
     1
102
RTVSPropertyOp11
 70
     1
102
RTVSPropertyOp12
 70
     1
102
RTVSPropertyOp13
 70
     1
102
RTVSPropertyOp14
 70
     1
102
RTVSPropertyOp15
 70
     1
102
RTVSPropertyOp16
 70
     1
102
RTVSPropertyOp17
 70
     1
102
RTVSPropertyOp18
 70
     1
102
RTVSPropertyOp19
 70
     1
102
RTVSPropertyOp20
 70
     1
102
RTVSPropertyOp21
 70
     1
102
RTVSPropertyOp22
 70
     1
102
RTVSPropertyOp23
 70
     1
102
RTVSPropertyOp24
 70
     1
102
RTVSPropertyOp25
 70
     1
102
RTVSPropertyOp26
 70
     1
102
RTVSPropertyOp27
 70
     1
102
RTVSPropertyOp28
 70
     1
102
RTVSPropertyOp29
 70
     1
102
RTVSPropertyOp30
 70
     1
102
RTVSPropertyOp31
 70
     1
102
RTVSPropertyOp32
 70
     1
102
RTVSPropertyOp33
 70
     1
102
RTVSPropertyOp34
 70
     1
102
RTVSPropertyOp35
 70
     1
102
RTVSPropertyOp36
 70
     1
102
RTVSPropertyOp37
 70
     1
102
RTVSPropertyOp38
 70
     1
102
RTVSPropertyOp39
 70
     1
102
RTVSPropertyOp40
 70
     1
102
RTVSPropertyOp41
 70
     1
102
RTVSPropertyOp42
 70
     1
102
RTVSPropertyOp43
 70
     1
102
RTVSPropertyOp44
 70
     1
102
RTVSPropertyOp45
 70
     1
102
RTVSPropertyOp46
 70
     1
102
RTVSPropertyOp47
 70
     1
102
RTVSPropertyOp48
 70
     1
102
RTVSPropertyOp49
 70
     1
102
RTVSPropertyOp50
 70
     1
102
RTVSPropertyOp51
 70
     0
102
RTVSPropertyOp52
 70
     0
102
RTVSPropertyOp53
 70
     1
102
RTVSPropertyOp54
 70
     1
102
RTVSPropertyOp55
 70
     1
102
RTVSPropertyOp56
 70
     1
102
RTVSPropertyOp57
 70
     1
102
RTVSPost2010Prop28
280
     0
102
RTVSPost2010PropOp28
 70
     1
102
RTVSPost2010Prop29
280
     1
102
RTVSPost2010PropOp29
 70
     1
102
RTVSPost2010Prop30
280
     1
102
RTVSPost2010PropOp30
 70
     1
102
RTVSPost2010Prop31
280
     0
102
RTVSPost2010PropOp31
 70
     1
102
RTVSPost2010Prop32
280
     0
102
RTVSPost2010PropOp32
 70
     1
102
RTVSPost2010Prop33
280
     0
102
RTVSPost2010PropOp33
 70
     1
102
RTVSPost2010Prop34
280
     0
102
RTVSPost2010PropOp34
 70
     1
102
RTVSPost2010Prop35
280
     0
102
RTVSPost2010PropOp35
 70
     1
102
RTVSPost2010Prop36
280
     0
102
RTVSPost2010PropOp36
 70
     1
102
RTVSPost2010Prop37
 90
       50
102
RTVSPost2010PropOp37
 70
     1
102
RTVSPost2010Prop38
140
0.0
102
RTVSPost2010PropOp38
 70
     1
102
RTVSPost2010Prop39
140
1.0
102
RTVSPost2010PropOp39
 70
     1
102
RTVSPost2010Prop40
 90
        0
102
RTVSPost2010PropOp40
 70
     1
102
RTVSPost2010Prop41ColorIndex
 90
       18
102
RTVSPost2010Prop41ColorRGB
 90
        0
102
RTVSPost2010PropOp41
 70
     1
102
RTVSPost2010Prop42
 90
       50
102
RTVSPost2010PropOp42
 70
     1
102
RTVSPost2010Prop43
 90
        3
102
RTVSPost2010PropOp43
 70
     1
102
RTVSPost2010Prop44ColorIndex
 90
        5
102
RTVSPost2010Prop44ColorRGB
 90
      255
102
RTVSPost2010PropOp44
 70
     1
102
RTVSPost2010Prop45
280
     0
102
RTVSPost2010PropOp45
 70
     1
102
RTVSPost2010Prop46
 90
       50
102
RTVSPost2010PropOp46
 70
     1
102
RTVSPost2010Prop47
 90
       50
102
RTVSPost2010PropOp47
 70
     1
102
RTVSPost2010Prop48
 90
       50
102
RTVSPost2010PropOp48
 70
     1
102
RTVSPost2010Prop49
280
     0
102
RTVSPost2010PropOp49
 70
     1
102
RTVSPost2010Prop50
 90
       50
102
RTVSPost2010PropOp50
 70
     1
102
RTVSPost2010Prop51ColorIndex
 90
      256
102
RTVSPost2010Prop51ColorRGB
 90
-16777216
102
RTVSPost2010PropOp51
 70
     0
102
RTVSPost2010Prop52
140
1.0
102
RTVSPost2010PropOp52
 70
     0
102
RTVSPost2010Prop53
 90
        2
102
RTVSPost2010PropOp53
 70
     1
102
RTVSPost2010Prop54
  1
strokes_ogs.tif
102
RTVSPost2010PropOp54
 70
     1
102
RTVSPost2010Prop55
280
     0
102
RTVSPost2010PropOp55
 70
     1
102
RTVSPost2010Prop56
140
1.0
102
RTVSPost2010PropOp56
 70
     1
102
RTVSPost2010Prop57
140
1.0
102
RTVSPost2010PropOp57
 70
     1
  0
XRECORD
  5
29D
102
{ACAD_REACTORS
330
29C
102
}
330
29C
100
AcDbXrecord
280
     1
102
RTVSPropertyOp0
 70
     1
102
RTVSPropertyOp1
 70
     1
102
RTVSPropertyOp2
 70
     1
102
RTVSPropertyOp3
 70
     1
102
RTVSPropertyOp4
 70
     1
102
RTVSPropertyOp5
 70
     1
102
RTVSPropertyOp6
 70
     1
102
RTVSPropertyOp7
 70
     1
102
RTVSPropertyOp8
 70
     1
102
RTVSPropertyOp9
 70
     1
102
RTVSPropertyOp10
 70
     1
102
RTVSPropertyOp11
 70
     1
102
RTVSPropertyOp12
 70
     1
102
RTVSPropertyOp13
 70
     1
102
RTVSPropertyOp14
 70
     1
102
RTVSPropertyOp15
 70
     1
102
RTVSPropertyOp16
 70
     1
102
RTVSPropertyOp17
 70
     1
102
RTVSPropertyOp18
 70
     1
102
RTVSPropertyOp19
 70
     1
102
RTVSPropertyOp20
 70
     1
102
RTVSPropertyOp21
 70
     1
102
RTVSPropertyOp22
 70
     1
102
RTVSPropertyOp23
 70
     1
102
RTVSPropertyOp24
 70
     1
102
RTVSPropertyOp25
 70
     1
102
RTVSPropertyOp26
 70
     1
102
RTVSPropertyOp27
 70
     1
102
RTVSPropertyOp28
 70
     1
102
RTVSPropertyOp29
 70
     1
102
RTVSPropertyOp30
 70
     1
102
RTVSPropertyOp31
 70
     1
102
RTVSPropertyOp32
 70
     1
102
RTVSPropertyOp33
 70
     1
102
RTVSPropertyOp34
 70
     1
102
RTVSPropertyOp35
 70
     1
102
RTVSPropertyOp36
 70
     1
102
RTVSPropertyOp37
 70
     1
102
RTVSPropertyOp38
 70
     1
102
RTVSPropertyOp39
 70
     1
102
RTVSPropertyOp40
 70
     1
102
RTVSPropertyOp41
 70
     1
102
RTVSPropertyOp42
 70
     1
102
RTVSPropertyOp43
 70
     1
102
RTVSPropertyOp44
 70
     1
102
RTVSPropertyOp45
 70
     1
102
RTVSPropertyOp46
 70
     1
102
RTVSPropertyOp47
 70
     1
102
RTVSPropertyOp48
 70
     1
102
RTVSPropertyOp49
 70
     1
102
RTVSPropertyOp50
 70
     1
102
RTVSPropertyOp51
 70
     0
102
RTVSPropertyOp52
 70
     0
102
RTVSPropertyOp53
 70
     1
102
RTVSPropertyOp54
 70
     1
102
RTVSPropertyOp55
 70
     1
102
RTVSPropertyOp56
 70
     1
102
RTVSPropertyOp57
 70
     1
102
RTVSPost2010Prop28
280
     0
102
RTVSPost2010PropOp28
 70
     1
102
RTVSPost2010Prop29
280
     1
102
RTVSPost2010PropOp29
 70
     1
102
RTVSPost2010Prop30
280
     1
102
RTVSPost2010PropOp30
 70
     1
102
RTVSPost2010Prop31
280
     0
102
RTVSPost2010PropOp31
 70
     1
102
RTVSPost2010Prop32
280
     0
102
RTVSPost2010PropOp32
 70
     1
102
RTVSPost2010Prop33
280
     0
102
RTVSPost2010PropOp33
 70
     1
102
RTVSPost2010Prop34
280
     0
102
RTVSPost2010PropOp34
 70
     1
102
RTVSPost2010Prop35
280
     0
102
RTVSPost2010PropOp35
 70
     1
102
RTVSPost2010Prop36
280
     0
102
RTVSPost2010PropOp36
 70
     1
102
RTVSPost2010Prop37
 90
       50
102
RTVSPost2010PropOp37
 70
     1
102
RTVSPost2010Prop38
140
0.0
102
RTVSPost2010PropOp38
 70
     1
102
RTVSPost2010Prop39
140
1.0
102
RTVSPost2010PropOp39
 70
     1
102
RTVSPost2010Prop40
 90
        0
102
RTVSPost2010PropOp40
 70
     1
102
RTVSPost2010Prop41ColorIndex
 90
       18
102
RTVSPost2010Prop41ColorRGB
 90
        0
102
RTVSPost2010PropOp41
 70
     1
102
RTVSPost2010Prop42
 90
       50
102
RTVSPost2010PropOp42
 70
     1
102
RTVSPost2010Prop43
 90
        3
102
RTVSPost2010PropOp43
 70
     1
102
RTVSPost2010Prop44ColorIndex
 90
        5
102
RTVSPost2010Prop44ColorRGB
 90
      255
102
RTVSPost2010PropOp44
 70
     1
102
RTVSPost2010Prop45
280
     0
102
RTVSPost2010PropOp45
 70
     1
102
RTVSPost2010Prop46
 90
       50
102
RTVSPost2010PropOp46
 70
     1
102
RTVSPost2010Prop47
 90
       50
102
RTVSPost2010PropOp47
 70
     1
102
RTVSPost2010Prop48
 90
       50
102
RTVSPost2010PropOp48
 70
     1
102
RTVSPost2010Prop49
280
     0
102
RTVSPost2010PropOp49
 70
     1
102
RTVSPost2010Prop50
 90
       50
102
RTVSPost2010PropOp50
 70
     1
102
RTVSPost2010Prop51ColorIndex
 90
      256
102
RTVSPost2010Prop51ColorRGB
 90
-16777216
102
RTVSPost2010PropOp51
 70
     0
102
RTVSPost2010Prop52
140
1.0
102
RTVSPost2010PropOp52
 70
     0
102
RTVSPost2010Prop53
 90
        2
102
RTVSPost2010PropOp53
 70
     1
102
RTVSPost2010Prop54
  1
strokes_ogs.tif
102
RTVSPost2010PropOp54
 70
     1
102
RTVSPost2010Prop55
280
     0
102
RTVSPost2010PropOp55
 70
     1
102
RTVSPost2010Prop56
140
1.0
102
RTVSPost2010PropOp56
 70
     1
102
RTVSPost2010Prop57
140
1.0
102
RTVSPost2010PropOp57
 70
     1
  0
XRECORD
  5
297
102
{ACAD_REACTORS
330
296
102
}
330
296
100
AcDbXrecord
280
     1
102
RTVSPropertyOp0
 70
     1
102
RTVSPropertyOp1
 70
     1
102
RTVSPropertyOp2
 70
     1
102
RTVSPropertyOp3
 70
     1
102
RTVSPropertyOp4
 70
     1
102
RTVSPropertyOp5
 70
     1
102
RTVSPropertyOp6
 70
     1
102
RTVSPropertyOp7
 70
     1
102
RTVSPropertyOp8
 70
     1
102
RTVSPropertyOp9
 70
     1
102
RTVSPropertyOp10
 70
     1
102
RTVSPropertyOp11
 70
     1
102
RTVSPropertyOp12
 70
     1
102
RTVSPropertyOp13
 70
     1
102
RTVSPropertyOp14
 70
     1
102
RTVSPropertyOp15
 70
     1
102
RTVSPropertyOp16
 70
     1
102
RTVSPropertyOp17
 70
     1
102
RTVSPropertyOp18
 70
     1
102
RTVSPropertyOp19
 70
     1
102
RTVSPropertyOp20
 70
     1
102
RTVSPropertyOp21
 70
     1
102
RTVSPropertyOp22
 70
     1
102
RTVSPropertyOp23
 70
     1
102
RTVSPropertyOp24
 70
     1
102
RTVSPropertyOp25
 70
     1
102
RTVSPropertyOp26
 70
     1
102
RTVSPropertyOp27
 70
     1
102
RTVSPropertyOp28
 70
     1
102
RTVSPropertyOp29
 70
     1
102
RTVSPropertyOp30
 70
     1
102
RTVSPropertyOp31
 70
     1
102
RTVSPropertyOp32
 70
     1
102
RTVSPropertyOp33
 70
     1
102
RTVSPropertyOp34
 70
     1
102
RTVSPropertyOp35
 70
     1
102
RTVSPropertyOp36
 70
     1
102
RTVSPropertyOp37
 70
     1
102
RTVSPropertyOp38
 70
     1
102
RTVSPropertyOp39
 70
     1
102
RTVSPropertyOp40
 70
     1
102
RTVSPropertyOp41
 70
     1
102
RTVSPropertyOp42
 70
     1
102
RTVSPropertyOp43
 70
     1
102
RTVSPropertyOp44
 70
     1
102
RTVSPropertyOp45
 70
     1
102
RTVSPropertyOp46
 70
     1
102
RTVSPropertyOp47
 70
     1
102
RTVSPropertyOp48
 70
     1
102
RTVSPropertyOp49
 70
     1
102
RTVSPropertyOp50
 70
     1
102
RTVSPropertyOp51
 70
     0
102
RTVSPropertyOp52
 70
     0
102
RTVSPropertyOp53
 70
     1
102
RTVSPropertyOp54
 70
     1
102
RTVSPropertyOp55
 70
     1
102
RTVSPropertyOp56
 70
     1
102
RTVSPropertyOp57
 70
     1
102
RTVSPost2010Prop28
280
     0
102
RTVSPost2010PropOp28
 70
     1
102
RTVSPost2010Prop29
280
     1
102
RTVSPost2010PropOp29
 70
     1
102
RTVSPost2010Prop30
280
     1
102
RTVSPost2010PropOp30
 70
     1
102
RTVSPost2010Prop31
280
     0
102
RTVSPost2010PropOp31
 70
     1
102
RTVSPost2010Prop32
280
     0
102
RTVSPost2010PropOp32
 70
     1
102
RTVSPost2010Prop33
280
     0
102
RTVSPost2010PropOp33
 70
     1
102
RTVSPost2010Prop34
280
     0
102
RTVSPost2010PropOp34
 70
     1
102
RTVSPost2010Prop35
280
     0
102
RTVSPost2010PropOp35
 70
     1
102
RTVSPost2010Prop36
280
     0
102
RTVSPost2010PropOp36
 70
     1
102
RTVSPost2010Prop37
 90
       50
102
RTVSPost2010PropOp37
 70
     1
102
RTVSPost2010Prop38
140
0.0
102
RTVSPost2010PropOp38
 70
     1
102
RTVSPost2010Prop39
140
1.0
102
RTVSPost2010PropOp39
 70
     1
102
RTVSPost2010Prop40
 90
        0
102
RTVSPost2010PropOp40
 70
     1
102
RTVSPost2010Prop41ColorIndex
 90
       18
102
RTVSPost2010Prop41ColorRGB
 90
        0
102
RTVSPost2010PropOp41
 70
     1
102
RTVSPost2010Prop42
 90
       50
102
RTVSPost2010PropOp42
 70
     1
102
RTVSPost2010Prop43
 90
        3
102
RTVSPost2010PropOp43
 70
     1
102
RTVSPost2010Prop44ColorIndex
 90
        5
102
RTVSPost2010Prop44ColorRGB
 90
      255
102
RTVSPost2010PropOp44
 70
     1
102
RTVSPost2010Prop45
280
     0
102
RTVSPost2010PropOp45
 70
     1
102
RTVSPost2010Prop46
 90
       50
102
RTVSPost2010PropOp46
 70
     1
102
RTVSPost2010Prop47
 90
       50
102
RTVSPost2010PropOp47
 70
     1
102
RTVSPost2010Prop48
 90
       50
102
RTVSPost2010PropOp48
 70
     1
102
RTVSPost2010Prop49
280
     0
102
RTVSPost2010PropOp49
 70
     1
102
RTVSPost2010Prop50
 90
       50
102
RTVSPost2010PropOp50
 70
     1
102
RTVSPost2010Prop51ColorIndex
 90
      256
102
RTVSPost2010Prop51ColorRGB
 90
-16777216
102
RTVSPost2010PropOp51
 70
     0
102
RTVSPost2010Prop52
140
1.0
102
RTVSPost2010PropOp52
 70
     0
102
RTVSPost2010Prop53
 90
        2
102
RTVSPost2010PropOp53
 70
     1
102
RTVSPost2010Prop54
  1
strokes_ogs.tif
102
RTVSPost2010PropOp54
 70
     1
102
RTVSPost2010Prop55
280
     0
102
RTVSPost2010PropOp55
 70
     1
102
RTVSPost2010Prop56
140
1.0
102
RTVSPost2010PropOp56
 70
     1
102
RTVSPost2010Prop57
140
1.0
102
RTVSPost2010PropOp57
 70
     1
  0
XRECORD
  5
299
102
{ACAD_REACTORS
330
298
102
}
330
298
100
AcDbXrecord
280
     1
102
RTVSPropertyOp0
 70
     1
102
RTVSPropertyOp1
 70
     1
102
RTVSPropertyOp2
 70
     1
102
RTVSPropertyOp3
 70
     1
102
RTVSPropertyOp4
 70
     1
102
RTVSPropertyOp5
 70
     1
102
RTVSPropertyOp6
 70
     1
102
RTVSPropertyOp7
 70
     1
102
RTVSPropertyOp8
 70
     1
102
RTVSPropertyOp9
 70
     1
102
RTVSPropertyOp10
 70
     1
102
RTVSPropertyOp11
 70
     1
102
RTVSPropertyOp12
 70
     1
102
RTVSPropertyOp13
 70
     1
102
RTVSPropertyOp14
 70
     1
102
RTVSPropertyOp15
 70
     1
102
RTVSPropertyOp16
 70
     1
102
RTVSPropertyOp17
 70
     1
102
RTVSPropertyOp18
 70
     1
102
RTVSPropertyOp19
 70
     1
102
RTVSPropertyOp20
 70
     1
102
RTVSPropertyOp21
 70
     1
102
RTVSPropertyOp22
 70
     1
102
RTVSPropertyOp23
 70
     1
102
RTVSPropertyOp24
 70
     1
102
RTVSPropertyOp25
 70
     1
102
RTVSPropertyOp26
 70
     1
102
RTVSPropertyOp27
 70
     1
102
RTVSPropertyOp28
 70
     1
102
RTVSPropertyOp29
 70
     1
102
RTVSPropertyOp30
 70
     1
102
RTVSPropertyOp31
 70
     1
102
RTVSPropertyOp32
 70
     1
102
RTVSPropertyOp33
 70
     1
102
RTVSPropertyOp34
 70
     1
102
RTVSPropertyOp35
 70
     1
102
RTVSPropertyOp36
 70
     1
102
RTVSPropertyOp37
 70
     1
102
RTVSPropertyOp38
 70
     1
102
RTVSPropertyOp39
 70
     1
102
RTVSPropertyOp40
 70
     1
102
RTVSPropertyOp41
 70
     1
102
RTVSPropertyOp42
 70
     1
102
RTVSPropertyOp43
 70
     1
102
RTVSPropertyOp44
 70
     1
102
RTVSPropertyOp45
 70
     1
102
RTVSPropertyOp46
 70
     1
102
RTVSPropertyOp47
 70
     1
102
RTVSPropertyOp48
 70
     1
102
RTVSPropertyOp49
 70
     1
102
RTVSPropertyOp50
 70
     1
102
RTVSPropertyOp51
 70
     0
102
RTVSPropertyOp52
 70
     0
102
RTVSPropertyOp53
 70
     1
102
RTVSPropertyOp54
 70
     1
102
RTVSPropertyOp55
 70
     1
102
RTVSPropertyOp56
 70
     1
102
RTVSPropertyOp57
 70
     1
102
RTVSPost2010Prop28
280
     0
102
RTVSPost2010PropOp28
 70
     1
102
RTVSPost2010Prop29
280
     1
102
RTVSPost2010PropOp29
 70
     1
102
RTVSPost2010Prop30
280
     1
102
RTVSPost2010PropOp30
 70
     1
102
RTVSPost2010Prop31
280
     0
102
RTVSPost2010PropOp31
 70
     1
102
RTVSPost2010Prop32
280
     0
102
RTVSPost2010PropOp32
 70
     1
102
RTVSPost2010Prop33
280
     0
102
RTVSPost2010PropOp33
 70
     1
102
RTVSPost2010Prop34
280
     0
102
RTVSPost2010PropOp34
 70
     1
102
RTVSPost2010Prop35
280
     0
102
RTVSPost2010PropOp35
 70
     1
102
RTVSPost2010Prop36
280
     0
102
RTVSPost2010PropOp36
 70
     1
102
RTVSPost2010Prop37
 90
       50
102
RTVSPost2010PropOp37
 70
     1
102
RTVSPost2010Prop38
140
0.0
102
RTVSPost2010PropOp38
 70
     1
102
RTVSPost2010Prop39
140
1.0
102
RTVSPost2010PropOp39
 70
     1
102
RTVSPost2010Prop40
 90
        0
102
RTVSPost2010PropOp40
 70
     1
102
RTVSPost2010Prop41ColorIndex
 90
       18
102
RTVSPost2010Prop41ColorRGB
 90
        0
102
RTVSPost2010PropOp41
 70
     1
102
RTVSPost2010Prop42
 90
       50
102
RTVSPost2010PropOp42
 70
     1
102
RTVSPost2010Prop43
 90
        3
102
RTVSPost2010PropOp43
 70
     1
102
RTVSPost2010Prop44ColorIndex
 90
        5
102
RTVSPost2010Prop44ColorRGB
 90
      255
102
RTVSPost2010PropOp44
 70
     1
102
RTVSPost2010Prop45
280
     0
102
RTVSPost2010PropOp45
 70
     1
102
RTVSPost2010Prop46
 90
       50
102
RTVSPost2010PropOp46
 70
     1
102
RTVSPost2010Prop47
 90
       50
102
RTVSPost2010PropOp47
 70
     1
102
RTVSPost2010Prop48
 90
       50
102
RTVSPost2010PropOp48
 70
     1
102
RTVSPost2010Prop49
280
     0
102
RTVSPost2010PropOp49
 70
     1
102
RTVSPost2010Prop50
 90
       50
102
RTVSPost2010PropOp50
 70
     1
102
RTVSPost2010Prop51ColorIndex
 90
      256
102
RTVSPost2010Prop51ColorRGB
 90
-16777216
102
RTVSPost2010PropOp51
 70
     0
102
RTVSPost2010Prop52
140
1.0
102
RTVSPost2010PropOp52
 70
     0
102
RTVSPost2010Prop53
 90
        2
102
RTVSPost2010PropOp53
 70
     1
102
RTVSPost2010Prop54
  1
strokes_ogs.tif
102
RTVSPost2010PropOp54
 70
     1
102
RTVSPost2010Prop55
280
     0
102
RTVSPost2010PropOp55
 70
     1
102
RTVSPost2010Prop56
140
1.0
102
RTVSPost2010PropOp56
 70
     1
102
RTVSPost2010Prop57
140
1.0
102
RTVSPost2010PropOp57
 70
     1
  0
XRECORD
  5
289
102
{ACAD_REACTORS
330
288
102
}
330
288
100
AcDbXrecord
280
     1
102
RTVSPropertyOp0
 70
     1
102
RTVSPropertyOp1
 70
     1
102
RTVSPropertyOp2
 70
     1
102
RTVSPropertyOp3
 70
     1
102
RTVSPropertyOp4
 70
     1
102
RTVSPropertyOp5
 70
     1
102
RTVSPropertyOp6
 70
     1
102
RTVSPropertyOp7
 70
     1
102
RTVSPropertyOp8
 70
     1
102
RTVSPropertyOp9
 70
     1
102
RTVSPropertyOp10
 70
     1
102
RTVSPropertyOp11
 70
     1
102
RTVSPropertyOp12
 70
     1
102
RTVSPropertyOp13
 70
     1
102
RTVSPropertyOp14
 70
     1
102
RTVSPropertyOp15
 70
     1
102
RTVSPropertyOp16
 70
     1
102
RTVSPropertyOp17
 70
     1
102
RTVSPropertyOp18
 70
     1
102
RTVSPropertyOp19
 70
     1
102
RTVSPropertyOp20
 70
     1
102
RTVSPropertyOp21
 70
     1
102
RTVSPropertyOp22
 70
     1
102
RTVSPropertyOp23
 70
     1
102
RTVSPropertyOp24
 70
     1
102
RTVSPropertyOp25
 70
     1
102
RTVSPropertyOp26
 70
     1
102
RTVSPropertyOp27
 70
     1
102
RTVSPropertyOp28
 70
     1
102
RTVSPropertyOp29
 70
     1
102
RTVSPropertyOp30
 70
     1
102
RTVSPropertyOp31
 70
     1
102
RTVSPropertyOp32
 70
     1
102
RTVSPropertyOp33
 70
     1
102
RTVSPropertyOp34
 70
     1
102
RTVSPropertyOp35
 70
     1
102
RTVSPropertyOp36
 70
     1
102
RTVSPropertyOp37
 70
     1
102
RTVSPropertyOp38
 70
     1
102
RTVSPropertyOp39
 70
     1
102
RTVSPropertyOp40
 70
     1
102
RTVSPropertyOp41
 70
     1
102
RTVSPropertyOp42
 70
     1
102
RTVSPropertyOp43
 70
     1
102
RTVSPropertyOp44
 70
     1
102
RTVSPropertyOp45
 70
     1
102
RTVSPropertyOp46
 70
     1
102
RTVSPropertyOp47
 70
     1
102
RTVSPropertyOp48
 70
     1
102
RTVSPropertyOp49
 70
     1
102
RTVSPropertyOp50
 70
     1
102
RTVSPropertyOp51
 70
     0
102
RTVSPropertyOp52
 70
     0
102
RTVSPropertyOp53
 70
     1
102
RTVSPropertyOp54
 70
     1
102
RTVSPropertyOp55
 70
     1
102
RTVSPropertyOp56
 70
     1
102
RTVSPropertyOp57
 70
     1
102
RTVSPost2010Prop28
280
     0
102
RTVSPost2010PropOp28
 70
     1
102
RTVSPost2010Prop29
280
     1
102
RTVSPost2010PropOp29
 70
     1
102
RTVSPost2010Prop30
280
     1
102
RTVSPost2010PropOp30
 70
     1
102
RTVSPost2010Prop31
280
     0
102
RTVSPost2010PropOp31
 70
     1
102
RTVSPost2010Prop32
280
     0
102
RTVSPost2010PropOp32
 70
     1
102
RTVSPost2010Prop33
280
     0
102
RTVSPost2010PropOp33
 70
     1
102
RTVSPost2010Prop34
280
     0
102
RTVSPost2010PropOp34
 70
     1
102
RTVSPost2010Prop35
280
     0
102
RTVSPost2010PropOp35
 70
     1
102
RTVSPost2010Prop36
280
     0
102
RTVSPost2010PropOp36
 70
     1
102
RTVSPost2010Prop37
 90
       50
102
RTVSPost2010PropOp37
 70
     1
102
RTVSPost2010Prop38
140
0.0
102
RTVSPost2010PropOp38
 70
     1
102
RTVSPost2010Prop39
140
1.0
102
RTVSPost2010PropOp39
 70
     1
102
RTVSPost2010Prop40
 90
        0
102
RTVSPost2010PropOp40
 70
     1
102
RTVSPost2010Prop41ColorIndex
 90
       18
102
RTVSPost2010Prop41ColorRGB
 90
        0
102
RTVSPost2010PropOp41
 70
     1
102
RTVSPost2010Prop42
 90
       50
102
RTVSPost2010PropOp42
 70
     1
102
RTVSPost2010Prop43
 90
        3
102
RTVSPost2010PropOp43
 70
     1
102
RTVSPost2010Prop44ColorIndex
 90
        5
102
RTVSPost2010Prop44ColorRGB
 90
      255
102
RTVSPost2010PropOp44
 70
     1
102
RTVSPost2010Prop45
280
     0
102
RTVSPost2010PropOp45
 70
     1
102
RTVSPost2010Prop46
 90
       50
102
RTVSPost2010PropOp46
 70
     1
102
RTVSPost2010Prop47
 90
       50
102
RTVSPost2010PropOp47
 70
     1
102
RTVSPost2010Prop48
 90
       50
102
RTVSPost2010PropOp48
 70
     1
102
RTVSPost2010Prop49
280
     0
102
RTVSPost2010PropOp49
 70
     1
102
RTVSPost2010Prop50
 90
       50
102
RTVSPost2010PropOp50
 70
     1
102
RTVSPost2010Prop51ColorIndex
 90
      256
102
RTVSPost2010Prop51ColorRGB
 90
-16777216
102
RTVSPost2010PropOp51
 70
     0
102
RTVSPost2010Prop52
140
1.0
102
RTVSPost2010PropOp52
 70
     0
102
RTVSPost2010Prop53
 90
        2
102
RTVSPost2010PropOp53
 70
     1
102
RTVSPost2010Prop54
  1
strokes_ogs.tif
102
RTVSPost2010PropOp54
 70
     1
102
RTVSPost2010Prop55
280
     0
102
RTVSPost2010PropOp55
 70
     1
102
RTVSPost2010Prop56
140
1.0
102
RTVSPost2010PropOp56
 70
     1
102
RTVSPost2010Prop57
140
1.0
102
RTVSPost2010PropOp57
 70
     1
  0
XRECORD
  5
27B
102
{ACAD_REACTORS
330
27A
102
}
330
27A
100
AcDbXrecord
280
     1
102
RTVSPropertyOp0
 70
     1
102
RTVSPropertyOp1
 70
     1
102
RTVSPropertyOp2
 70
     1
102
RTVSPropertyOp3
 70
     1
102
RTVSPropertyOp4
 70
     1
102
RTVSPropertyOp5
 70
     1
102
RTVSPropertyOp6
 70
     1
102
RTVSPropertyOp7
 70
     1
102
RTVSPropertyOp8
 70
     1
102
RTVSPropertyOp9
 70
     1
102
RTVSPropertyOp10
 70
     1
102
RTVSPropertyOp11
 70
     1
102
RTVSPropertyOp12
 70
     1
102
RTVSPropertyOp13
 70
     1
102
RTVSPropertyOp14
 70
     1
102
RTVSPropertyOp15
 70
     1
102
RTVSPropertyOp16
 70
     1
102
RTVSPropertyOp17
 70
     1
102
RTVSPropertyOp18
 70
     1
102
RTVSPropertyOp19
 70
     1
102
RTVSPropertyOp20
 70
     1
102
RTVSPropertyOp21
 70
     1
102
RTVSPropertyOp22
 70
     1
102
RTVSPropertyOp23
 70
     1
102
RTVSPropertyOp24
 70
     1
102
RTVSPropertyOp25
 70
     1
102
RTVSPropertyOp26
 70
     1
102
RTVSPropertyOp27
 70
     1
102
RTVSPropertyOp28
 70
     1
102
RTVSPropertyOp29
 70
     1
102
RTVSPropertyOp30
 70
     1
102
RTVSPropertyOp31
 70
     1
102
RTVSPropertyOp32
 70
     1
102
RTVSPropertyOp33
 70
     1
102
RTVSPropertyOp34
 70
     1
102
RTVSPropertyOp35
 70
     1
102
RTVSPropertyOp36
 70
     1
102
RTVSPropertyOp37
 70
     1
102
RTVSPropertyOp38
 70
     1
102
RTVSPropertyOp39
 70
     1
102
RTVSPropertyOp40
 70
     1
102
RTVSPropertyOp41
 70
     1
102
RTVSPropertyOp42
 70
     1
102
RTVSPropertyOp43
 70
     1
102
RTVSPropertyOp44
 70
     1
102
RTVSPropertyOp45
 70
     1
102
RTVSPropertyOp46
 70
     1
102
RTVSPropertyOp47
 70
     1
102
RTVSPropertyOp48
 70
     1
102
RTVSPropertyOp49
 70
     1
102
RTVSPropertyOp50
 70
     1
102
RTVSPropertyOp51
 70
     0
102
RTVSPropertyOp52
 70
     0
102
RTVSPropertyOp53
 70
     1
102
RTVSPropertyOp54
 70
     1
102
RTVSPropertyOp55
 70
     1
102
RTVSPropertyOp56
 70
     1
102
RTVSPropertyOp57
 70
     1
102
RTVSPost2010Prop28
280
     0
102
RTVSPost2010PropOp28
 70
     1
102
RTVSPost2010Prop29
280
     1
102
RTVSPost2010PropOp29
 70
     1
102
RTVSPost2010Prop30
280
     1
102
RTVSPost2010PropOp30
 70
     1
102
RTVSPost2010Prop31
280
     0
102
RTVSPost2010PropOp31
 70
     1
102
RTVSPost2010Prop32
280
     0
102
RTVSPost2010PropOp32
 70
     1
102
RTVSPost2010Prop33
280
     0
102
RTVSPost2010PropOp33
 70
     1
102
RTVSPost2010Prop34
280
     0
102
RTVSPost2010PropOp34
 70
     1
102
RTVSPost2010Prop35
280
     0
102
RTVSPost2010PropOp35
 70
     1
102
RTVSPost2010Prop36
280
     0
102
RTVSPost2010PropOp36
 70
     1
102
RTVSPost2010Prop37
 90
       50
102
RTVSPost2010PropOp37
 70
     1
102
RTVSPost2010Prop38
140
0.0
102
RTVSPost2010PropOp38
 70
     1
102
RTVSPost2010Prop39
140
1.0
102
RTVSPost2010PropOp39
 70
     1
102
RTVSPost2010Prop40
 90
        0
102
RTVSPost2010PropOp40
 70
     1
102
RTVSPost2010Prop41ColorIndex
 90
       18
102
RTVSPost2010Prop41ColorRGB
 90
        0
102
RTVSPost2010PropOp41
 70
     1
102
RTVSPost2010Prop42
 90
       50
102
RTVSPost2010PropOp42
 70
     1
102
RTVSPost2010Prop43
 90
        3
102
RTVSPost2010PropOp43
 70
     1
102
RTVSPost2010Prop44ColorIndex
 90
        5
102
RTVSPost2010Prop44ColorRGB
 90
      255
102
RTVSPost2010PropOp44
 70
     1
102
RTVSPost2010Prop45
280
     0
102
RTVSPost2010PropOp45
 70
     1
102
RTVSPost2010Prop46
 90
       50
102
RTVSPost2010PropOp46
 70
     1
102
RTVSPost2010Prop47
 90
       50
102
RTVSPost2010PropOp47
 70
     1
102
RTVSPost2010Prop48
 90
       50
102
RTVSPost2010PropOp48
 70
     1
102
RTVSPost2010Prop49
280
     0
102
RTVSPost2010PropOp49
 70
     1
102
RTVSPost2010Prop50
 90
       50
102
RTVSPost2010PropOp50
 70
     1
102
RTVSPost2010Prop51ColorIndex
 90
      256
102
RTVSPost2010Prop51ColorRGB
 90
-16777216
102
RTVSPost2010PropOp51
 70
     0
102
RTVSPost2010Prop52
140
1.0
102
RTVSPost2010PropOp52
 70
     0
102
RTVSPost2010Prop53
 90
        2
102
RTVSPost2010PropOp53
 70
     1
102
RTVSPost2010Prop54
  1
strokes_ogs.tif
102
RTVSPost2010PropOp54
 70
     1
102
RTVSPost2010Prop55
280
     0
102
RTVSPost2010PropOp55
 70
     1
102
RTVSPost2010Prop56
140
1.0
102
RTVSPost2010PropOp56
 70
     1
102
RTVSPost2010Prop57
140
1.0
102
RTVSPost2010PropOp57
 70
     1
  0
XRECORD
  5
29B
102
{ACAD_REACTORS
330
29A
102
}
330
29A
100
AcDbXrecord
280
     1
102
RTVSPropertyOp0
 70
     1
102
RTVSPropertyOp1
 70
     1
102
RTVSPropertyOp2
 70
     1
102
RTVSPropertyOp3
 70
     1
102
RTVSPropertyOp4
 70
     1
102
RTVSPropertyOp5
 70
     1
102
RTVSPropertyOp6
 70
     1
102
RTVSPropertyOp7
 70
     1
102
RTVSPropertyOp8
 70
     1
102
RTVSPropertyOp9
 70
     1
102
RTVSPropertyOp10
 70
     1
102
RTVSPropertyOp11
 70
     1
102
RTVSPropertyOp12
 70
     1
102
RTVSPropertyOp13
 70
     1
102
RTVSPropertyOp14
 70
     1
102
RTVSPropertyOp15
 70
     1
102
RTVSPropertyOp16
 70
     1
102
RTVSPropertyOp17
 70
     1
102
RTVSPropertyOp18
 70
     1
102
RTVSPropertyOp19
 70
     1
102
RTVSPropertyOp20
 70
     1
102
RTVSPropertyOp21
 70
     1
102
RTVSPropertyOp22
 70
     1
102
RTVSPropertyOp23
 70
     1
102
RTVSPropertyOp24
 70
     1
102
RTVSPropertyOp25
 70
     1
102
RTVSPropertyOp26
 70
     1
102
RTVSPropertyOp27
 70
     1
102
RTVSPropertyOp28
 70
     1
102
RTVSPropertyOp29
 70
     1
102
RTVSPropertyOp30
 70
     1
102
RTVSPropertyOp31
 70
     1
102
RTVSPropertyOp32
 70
     1
102
RTVSPropertyOp33
 70
     1
102
RTVSPropertyOp34
 70
     1
102
RTVSPropertyOp35
 70
     1
102
RTVSPropertyOp36
 70
     1
102
RTVSPropertyOp37
 70
     1
102
RTVSPropertyOp38
 70
     1
102
RTVSPropertyOp39
 70
     1
102
RTVSPropertyOp40
 70
     1
102
RTVSPropertyOp41
 70
     1
102
RTVSPropertyOp42
 70
     1
102
RTVSPropertyOp43
 70
     1
102
RTVSPropertyOp44
 70
     1
102
RTVSPropertyOp45
 70
     1
102
RTVSPropertyOp46
 70
     1
102
RTVSPropertyOp47
 70
     1
102
RTVSPropertyOp48
 70
     1
102
RTVSPropertyOp49
 70
     1
102
RTVSPropertyOp50
 70
     1
102
RTVSPropertyOp51
 70
     0
102
RTVSPropertyOp52
 70
     0
102
RTVSPropertyOp53
 70
     1
102
RTVSPropertyOp54
 70
     1
102
RTVSPropertyOp55
 70
     1
102
RTVSPropertyOp56
 70
     1
102
RTVSPropertyOp57
 70
     1
102
RTVSPost2010Prop28
280
     0
102
RTVSPost2010PropOp28
 70
     1
102
RTVSPost2010Prop29
280
     1
102
RTVSPost2010PropOp29
 70
     1
102
RTVSPost2010Prop30
280
     1
102
RTVSPost2010PropOp30
 70
     1
102
RTVSPost2010Prop31
280
     0
102
RTVSPost2010PropOp31
 70
     1
102
RTVSPost2010Prop32
280
     0
102
RTVSPost2010PropOp32
 70
     1
102
RTVSPost2010Prop33
280
     0
102
RTVSPost2010PropOp33
 70
     1
102
RTVSPost2010Prop34
280
     0
102
RTVSPost2010PropOp34
 70
     1
102
RTVSPost2010Prop35
280
     0
102
RTVSPost2010PropOp35
 70
     1
102
RTVSPost2010Prop36
280
     0
102
RTVSPost2010PropOp36
 70
     1
102
RTVSPost2010Prop37
 90
       50
102
RTVSPost2010PropOp37
 70
     1
102
RTVSPost2010Prop38
140
0.0
102
RTVSPost2010PropOp38
 70
     1
102
RTVSPost2010Prop39
140
1.0
102
RTVSPost2010PropOp39
 70
     1
102
RTVSPost2010Prop40
 90
        0
102
RTVSPost2010PropOp40
 70
     1
102
RTVSPost2010Prop41ColorIndex
 90
       18
102
RTVSPost2010Prop41ColorRGB
 90
        0
102
RTVSPost2010PropOp41
 70
     1
102
RTVSPost2010Prop42
 90
       50
102
RTVSPost2010PropOp42
 70
     1
102
RTVSPost2010Prop43
 90
        3
102
RTVSPost2010PropOp43
 70
     1
102
RTVSPost2010Prop44ColorIndex
 90
        5
102
RTVSPost2010Prop44ColorRGB
 90
      255
102
RTVSPost2010PropOp44
 70
     1
102
RTVSPost2010Prop45
280
     0
102
RTVSPost2010PropOp45
 70
     1
102
RTVSPost2010Prop46
 90
       50
102
RTVSPost2010PropOp46
 70
     1
102
RTVSPost2010Prop47
 90
       50
102
RTVSPost2010PropOp47
 70
     1
102
RTVSPost2010Prop48
 90
       50
102
RTVSPost2010PropOp48
 70
     1
102
RTVSPost2010Prop49
280
     0
102
RTVSPost2010PropOp49
 70
     1
102
RTVSPost2010Prop50
 90
       50
102
RTVSPost2010PropOp50
 70
     1
102
RTVSPost2010Prop51ColorIndex
 90
      256
102
RTVSPost2010Prop51ColorRGB
 90
-16777216
102
RTVSPost2010PropOp51
 70
     0
102
RTVSPost2010Prop52
140
1.0
102
RTVSPost2010PropOp52
 70
     0
102
RTVSPost2010Prop53
 90
        2
102
RTVSPost2010PropOp53
 70
     1
102
RTVSPost2010Prop54
  1
strokes_ogs.tif
102
RTVSPost2010PropOp54
 70
     1
102
RTVSPost2010Prop55
280
     0
102
RTVSPost2010PropOp55
 70
     1
102
RTVSPost2010Prop56
140
1.0
102
RTVSPost2010PropOp56
 70
     1
102
RTVSPost2010Prop57
140
1.0
102
RTVSPost2010PropOp57
 70
     1
  0
ENDSEC
  0
EOF
