  0
SECTION
  2
HEADER
  9
$ACADVER
  1
AC1024
  9
$ACADMAINTVER
 70
     6
  9
$DWGCODEPAGE
  3
ANSI_936
  9
$INSBASE
 10
0.0
 20
0.0
 30
0.0
  9
$EXTMIN
 10
1.000000000000000E+20
 20
1.000000000000000E+20
 30
1.000000000000000E+20
  9
$EXTMAX
 10
-1.000000000000000E+20
 20
-1.000000000000000E+20
 30
-1.000000000000000E+20
  9
$LIMMIN
 10
0.0
 20
0.0
  9
$LIMMAX
 10
12.0
 20
9.0
  9
$ORTHOMODE
 70
     0
  9
$REGENMODE
 70
     1
  9
$FILLMODE
 70
     1
  9
$QTEXTMODE
 70
     0
  9
$MIRRTEXT
 70
     1
  9
$LTSCALE
 40
1.0
  9
$ATTMODE
 70
     1
  9
$TEXTSIZE
 40
0.2
  9
$TRACEWID
 40
0.05
  9
$TEXTSTYLE
  7
Standard
  9
$CLAYER
  8
0
  9
$CELTYPE
  6
ByLayer
  9
$CECOLOR
 62
   256
  9
$CELTSCALE
 40
1.0
  9
$DISPSILH
 70
     0
  9
$DIMSCALE
 40
1.0
  9
$DIMASZ
 40
0.18
  9
$DIMEXO
 40
0.0625
  9
$DIMDLI
 40
0.38
  9
$DIMRND
 40
0.0
  9
$DIMDLE
 40
0.0
  9
$DIMEXE
 40
0.18
  9
$DIMTP
 40
0.0
  9
$DIMTM
 40
0.0
  9
$DIMTXT
 40
0.18
  9
$DIMCEN
 40
0.09
  9
$DIMTSZ
 40
0.0
  9
$DIMTOL
 70
     0
  9
$DIMLIM
 70
     0
  9
$DIMTIH
 70
     1
  9
$DIMTOH
 70
     1
  9
$DIMSE1
 70
     0
  9
$DIMSE2
 70
     0
  9
$DIMTAD
 70
     0
  9
$DIMZIN
 70
     0
  9
$DIMBLK
  1

  9
$DIMASO
 70
     1
  9
$DIMSHO
 70
     1
  9
$DIMPOST
  1

  9
$DIMAPOST
  1

  9
$DIMALT
 70
     0
  9
$DIMALTD
 70
     2
  9
$DIMALTF
 40
25.4
  9
$DIMLFAC
 40
1.0
  9
$DIMTOFL
 70
     0
  9
$DIMTVP
 40
0.0
  9
$DIMTIX
 70
     0
  9
$DIMSOXD
 70
     0
  9
$DIMSAH
 70
     0
  9
$DIMBLK1
  1

  9
$DIMBLK2
  1

  9
$DIMSTYLE
  2
Standard
  9
$DIMCLRD
 70
     0
  9
$DIMCLRE
 70
     0
  9
$DIMCLRT
 70
     0
  9
$DIMTFAC
 40
1.0
  9
$DIMGAP
 40
0.09
  9
$DIMJUST
 70
     0
  9
$DIMSD1
 70
     0
  9
$DIMSD2
 70
     0
  9
$DIMTOLJ
 70
     1
  9
$DIMTZIN
 70
     0
  9
$DIMALTZ
 70
     0
  9
$DIMALTTZ
 70
     0
  9
$DIMUPT
 70
     0
  9
$DIMDEC
 70
     4
  9
$DIMTDEC
 70
     4
  9
$DIMALTU
 70
     2
  9
$DIMALTTD
 70
     2
  9
$DIMTXSTY
  7
Standard
  9
$DIMAUNIT
 70
     0
  9
$DIMADEC
 70
     0
  9
$DIMALTRND
 40
0.0
  9
$DIMAZIN
 70
     0
  9
$DIMDSEP
 70
    46
  9
$DIMATFIT
 70
     3
  9
$DIMFRAC
 70
     0
  9
$DIMLDRBLK
  1

  9
$DIMLUNIT
 70
     2
  9
$DIMLWD
 70
    -2
  9
$DIMLWE
 70
    -2
  9
$DIMTMOVE
 70
     0
  9
$DIMFXL
 40
1.0
  9
$DIMFXLON
 70
     0
  9
$DIMJOGANG
 40
0.7853981633974483
  9
$DIMTFILL
 70
     0
  9
$DIMTFILLCLR
 70
     0
  9
$DIMARCSYM
 70
     0
  9
$DIMLTYPE
  6

  9
$DIMLTEX1
  6

  9
$DIMLTEX2
  6

  9
$DIMTXTDIRECTION
 70
     0
  9
$LUNITS
 70
     2
  9
$LUPREC
 70
     4
  9
$SKETCHINC
 40
0.1
  9
$FILLETRAD
 40
0.5
  9
$AUNITS
 70
     0
  9
$AUPREC
 70
     0
  9
$MENU
  1
.
  9
$ELEVATION
 40
0.0
  9
$PELEVATION
 40
0.0
  9
$THICKNESS
 40
0.0
  9
$LIMCHECK
 70
     0
  9
$CHAMFERA
 40
0.5
  9
$CHAMFERB
 40
0.5
  9
$CHAMFERC
 40
1.0
  9
$CHAMFERD
 40
0.0
  9
$SKPOLY
 70
     0
  9
$TDCREATE
 40
2457807.378524861
  9
$TDUCREATE
 40
2457807.045191528
  9
$TDUPDATE
 40
2457807.378529965
  9
$TDUUPDATE
 40
2457807.045196632
  9
$TDINDWG
 40
0.0000000116
  9
$TDUSRTIMER
 40
0.0000000116
  9
$USRTIMER
 70
     1
  9
$ANGBASE
 50
0.0
  9
$ANGDIR
 70
     0
  9
$PDMODE
 70
     0
  9
$PDSIZE
 40
0.0
  9
$PLINEWID
 40
0.0
  9
$SPLFRAME
 70
     0
  9
$SPLINETYPE
 70
     6
  9
$SPLINESEGS
 70
     8
  9
$HANDSEED
  5
B9
  9
$SURFTAB1
 70
     6
  9
$SURFTAB2
 70
     6
  9
$SURFTYPE
 70
     6
  9
$SURFU
 70
     6
  9
$SURFV
 70
     6
  9
$UCSBASE
  2

  9
$UCSNAME
  2

  9
$UCSORG
 10
0.0
 20
0.0
 30
0.0
  9
$UCSXDIR
 10
1.0
 20
0.0
 30
0.0
  9
$UCSYDIR
 10
0.0
 20
1.0
 30
0.0
  9
$UCSORTHOREF
  2

  9
$UCSORTHOVIEW
 70
     0
  9
$UCSORGTOP
 10
0.0
 20
0.0
 30
0.0
  9
$UCSORGBOTTOM
 10
0.0
 20
0.0
 30
0.0
  9
$UCSORGLEFT
 10
0.0
 20
0.0
 30
0.0
  9
$UCSORGRIGHT
 10
0.0
 20
0.0
 30
0.0
  9
$UCSORGFRONT
 10
0.0
 20
0.0
 30
0.0
  9
$UCSORGBACK
 10
0.0
 20
0.0
 30
0.0
  9
$PUCSBASE
  2

  9
$PUCSNAME
  2

  9
$PUCSORG
 10
0.0
 20
0.0
 30
0.0
  9
$PUCSXDIR
 10
1.0
 20
0.0
 30
0.0
  9
$PUCSYDIR
 10
0.0
 20
1.0
 30
0.0
  9
$PUCSORTHOREF
  2

  9
$PUCSORTHOVIEW
 70
     0
  9
$PUCSORGTOP
 10
0.0
 20
0.0
 30
0.0
  9
$PUCSORGBOTTOM
 10
0.0
 20
0.0
 30
0.0
  9
$PUCSORGLEFT
 10
0.0
 20
0.0
 30
0.0
  9
$PUCSORGRIGHT
 10
0.0
 20
0.0
 30
0.0
  9
$PUCSORGFRONT
 10
0.0
 20
0.0
 30
0.0
  9
$PUCSORGBACK
 10
0.0
 20
0.0
 30
0.0
  9
$USERI1
 70
     0
  9
$USERI2
 70
     0
  9
$USERI3
 70
     0
  9
$USERI4
 70
     0
  9
$USERI5
 70
     0
  9
$USERR1
 40
0.0
  9
$USERR2
 40
0.0
  9
$USERR3
 40
0.0
  9
$USERR4
 40
0.0
  9
$USERR5
 40
0.0
  9
$WORLDVIEW
 70
     1
  9
$SHADEDGE
 70
     3
  9
$SHADEDIF
 70
    70
  9
$TILEMODE
 70
     1
  9
$MAXACTVP
 70
    64
  9
$PINSBASE
 10
0.0
 20
0.0
 30
0.0
  9
$PLIMCHECK
 70
     0
  9
$PEXTMIN
 10
1.000000000000000E+20
 20
1.000000000000000E+20
 30
1.000000000000000E+20
  9
$PEXTMAX
 10
-1.000000000000000E+20
 20
-1.000000000000000E+20
 30
-1.000000000000000E+20
  9
$PLIMMIN
 10
0.0
 20
0.0
  9
$PLIMMAX
 10
12.0
 20
9.0
  9
$UNITMODE
 70
     0
  9
$VISRETAIN
 70
     1
  9
$PLINEGEN
 70
     0
  9
$PSLTSCALE
 70
     1
  9
$TREEDEPTH
 70
  3020
  9
$CMLSTYLE
  2
Standard
  9
$CMLJUST
 70
     0
  9
$CMLSCALE
 40
1.0
  9
$PROXYGRAPHICS
 70
     1
  9
$MEASUREMENT
 70
     0
  9
$CELWEIGHT
370
    -1
  9
$ENDCAPS
280
     0
  9
$JOINSTYLE
280
     0
  9
$LWDISPLAY
290
     1
  9
$INSUNITS
 70
     1
  9
$HYPERLINKBASE
  1

  9
$STYLESHEET
  1

  9
$XEDIT
290
     1
  9
$CEPSNTYPE
380
     0
  9
$PSTYLEMODE
290
     1
  9
$FINGERPRINTGUID
  2
{3EE39AC1-5036-43B2-8C8A-4FCA6B5CA46A}
  9
$VERSIONGUID
  2
{FAEB1C32-E019-11D5-929B-00C0DF256EC4}
  9
$EXTNAMES
290
     1
  9
$PSVPSCALE
 40
0.0
  9
$OLESTARTUP
290
     0
  9
$SORTENTS
280
   127
  9
$INDEXCTL
280
     0
  9
$HIDETEXT
280
     1
  9
$XCLIPFRAME
280
     2
  9
$HALOGAP
280
     0
  9
$OBSCOLOR
 70
   257
  9
$OBSLTYPE
280
     0
  9
$INTERSECTIONDISPLAY
280
     0
  9
$INTERSECTIONCOLOR
 70
   257
  9
$DIMASSOC
280
     2
  9
$PROJECTNAME
  1

  9
$CAMERADISPLAY
290
     0
  9
$LENSLENGTH
 40
50.0
  9
$CAMERAHEIGHT
 40
0.0
  9
$STEPSPERSEC
 40
2.0
  9
$STEPSIZE
 40
6.0
  9
$3DDWFPREC
 40
2.0
  9
$PSOLWIDTH
 40
0.25
  9
$PSOLHEIGHT
 40
4.0
  9
$LOFTANG1
 40
1.570796326794897
  9
$LOFTANG2
 40
1.570796326794897
  9
$LOFTMAG1
 40
0.0
  9
$LOFTMAG2
 40
0.0
  9
$LOFTPARAM
 70
     7
  9
$LOFTNORMALS
280
     1
  9
$LATITUDE
 40
37.795
  9
$LONGITUDE
 40
-122.394
  9
$NORTHDIRECTION
 40
0.0
  9
$TIMEZONE
 70
 -8000
  9
$LIGHTGLYPHDISPLAY
280
     1
  9
$TILEMODELIGHTSYNCH
280
     1
  9
$CMATERIAL
347
3C
  9
$SOLIDHIST
280
     1
  9
$SHOWHIST
280
     1
  9
$DWFFRAME
280
     2
  9
$DGNFRAME
280
     2
  9
$REALWORLDSCALE
290
     1
  9
$INTERFERECOLOR
 62
   256
  9
$CSHADOW
280
     0
  9
$SHADOWPLANELOCATION
 40
0.0
  0
ENDSEC
  0
SECTION
  2
CLASSES
  0
CLASS
  1
ACDBDICTIONARYWDFLT
  2
AcDbDictionaryWithDefault
  3
ObjectDBX Classes
 90
        0
 91
        4
280
     0
281
     0
  0
CLASS
  1
VISUALSTYLE
  2
AcDbVisualStyle
  3
ObjectDBX Classes
 90
     4095
 91
        4
280
     0
281
     0
  0
CLASS
  1
MATERIAL
  2
AcDbMaterial
  3
ObjectDBX Classes
 90
     1153
 91
        4
280
     0
281
     0
  0
CLASS
  1
SUN
  2
AcDbSun
  3
SCENEOE
 90
     1024
 91
        4
280
     0
281
     0
  0
CLASS
  1
IMAGEDEF
  2
AcDbRasterImageDef
  3
ISM
 90
        0
 91
        4
280
     0
281
     0
  0
CLASS
  1
RASTERVARIABLES
  2
AcDbRasterVariables
  3
ISM
 90
        0
 91
        4
280
     0
281
     0
  0
CLASS
  1
IMAGE
  2
AcDbRasterImage
  3
ISM
 90
      127
 91
        5
280
     0
281
     1
  0
CLASS
  1
IMAGEDEF_REACTOR
  2
AcDbRasterImageDefReactor
  3
ISM
 90
        1
 91
        4
280
     0
281
     0
  0
ENDSEC
  0
SECTION
  2
TABLES
  0
TABLE
  2
VPORT
  5
8
330
0
100
AcDbSymbolTable
 70
     1
  0
VPORT
  5
29
330
8
100
AcDbSymbolTableRecord
100
AcDbViewportTableRecord
  2
*Active
 70
     0
 10
0.0
 20
0.0
 11
1.0
 21
1.0
 12
0.0
 22
0.0
 13
0.0
 23
0.0
 14
0.5
 24
0.5
 15
0.5
 25
0.5
 16
0.0
 26
0.0
 36
1.0
 17
105.0007777515277
 27
-148.5000416295416
 37
0.0
 40
297.0000832590831
 41
0.7070757462376333
 42
50.0
 43
0.0
 44
0.0
 50
0.0
 51
0.0
 71
     0
 72
   100
 73
     1
 74
     3
 75
     0
 76
     0
 77
     0
 78
     0
281
     0
 65
     1
110
0.0
120
0.0
130
0.0
111
1.0
121
0.0
131
0.0
112
0.0
122
1.0
132
0.0
 79
     0
146
0.0
 60
     3
 61
     5
292
     1
282
     1
141
0.0
142
0.0
 63
   250
361
3F
  0
ENDTAB
  0
TABLE
  2
LTYPE
  5
5
330
0
100
AcDbSymbolTable
 70
     1
  0
LTYPE
  5
14
330
5
100
AcDbSymbolTableRecord
100
AcDbLinetypeTableRecord
  2
ByBlock
 70
     0
  3

 72
    65
 73
     0
 40
0.0
  0
LTYPE
  5
15
330
5
100
AcDbSymbolTableRecord
100
AcDbLinetypeTableRecord
  2
ByLayer
 70
     0
  3

 72
    65
 73
     0
 40
0.0
  0
LTYPE
  5
16
330
5
100
AcDbSymbolTableRecord
100
AcDbLinetypeTableRecord
  2
Continuous
 70
     0
  3
Solid line
 72
    65
 73
     0
 40
0.0
  0
ENDTAB
  0
TABLE
  2
LAYER
  5
2
330
0
100
AcDbSymbolTable
 70
     5
  0
LAYER
  5
10
330
2
100
AcDbSymbolTableRecord
100
AcDbLayerTableRecord
  2
0
 70
     0
 62
     7
  6
Continuous
370
    -3
390
F
347
3E
  0
LAYER
  5
40
330
2
100
AcDbSymbolTableRecord
100
AcDbLayerTableRecord
  2
_U+56FE_U+5C42 1
 70
     5
 62
     7
  6
Continuous
370
    -3
390
F
347
3E
  0
LAYER
  5
46
330
2
100
AcDbSymbolTableRecord
100
AcDbLayerTableRecord
  2
_U+56FE_U+5C42 2
 70
     0
 62
     7
  6
Continuous
370
    -3
390
F
347
3E
  0
LAYER
  5
65
330
2
100
AcDbSymbolTableRecord
100
AcDbLayerTableRecord
  2
_U+56FE_U+5C42 3
 70
     0
 62
     7
  6
Continuous
370
    -3
390
F
347
3E
  0
LAYER
  5
AE
330
2
100
AcDbSymbolTableRecord
100
AcDbLayerTableRecord
  2
_U+56FE_U+5C42 4
 70
     0
 62
     7
  6
Continuous
370
    -3
390
F
347
3E
  0
ENDTAB
  0
TABLE
  2
STYLE
  5
3
330
0
100
AcDbSymbolTable
 70
     1
  0
STYLE
  5
11
330
3
100
AcDbSymbolTableRecord
100
AcDbTextStyleTableRecord
  2
Standard
 70
     0
 40
0.0
 41
1.0
 50
0.0
 71
     0
 42
0.2
  3
txt
  4

  0
ENDTAB
  0
TABLE
  2
VIEW
  5
6
330
0
100
AcDbSymbolTable
 70
     0
  0
ENDTAB
  0
TABLE
  2
UCS
  5
7
330
0
100
AcDbSymbolTable
 70
     0
  0
ENDTAB
  0
TABLE
  2
APPID
  5
9
330
0
100
AcDbSymbolTable
 70
     1
  0
APPID
  5
12
330
9
100
AcDbSymbolTableRecord
100
AcDbRegAppTableRecord
  2
ACAD
 70
     0
  0
ENDTAB
  0
TABLE
  2
DIMSTYLE
  5
A
330
0
100
AcDbSymbolTable
 70
     1
100
AcDbDimStyleTable
  0
DIMSTYLE
105
27
330
A
100
AcDbSymbolTableRecord
100
AcDbDimStyleTableRecord
  2
Standard
 70
     0
178
     0
340
11
  0
ENDTAB
  0
TABLE
  2
BLOCK_RECORD
  5
1
330
0
100
AcDbSymbolTable
 70
     2
  0
BLOCK_RECORD
  5
1F
330
1
100
AcDbSymbolTableRecord
100
AcDbBlockTableRecord
  2
*Model_Space
340
22
 70
     0
280
     1
281
     0
  0
BLOCK_RECORD
  5
1B
330
1
100
AcDbSymbolTableRecord
100
AcDbBlockTableRecord
  2
*Paper_Space
340
1E
 70
     0
280
     1
281
     0
  0
BLOCK_RECORD
  5
23
330
1
100
AcDbSymbolTableRecord
100
AcDbBlockTableRecord
  2
*Paper_Space0
340
26
 70
     0
280
     1
281
     0
  0
BLOCK_RECORD
  5
5C
330
1
100
AcDbSymbolTableRecord
100
AcDbBlockTableRecord
  2
block 2
340
0
102
{BLKREFS
331
5D
102
}
 70
     0
280
     1
281
     0
  0
ENDTAB
  0
ENDSEC
  0
SECTION
  2
BLOCKS
  0
BLOCK
  5
20
330
1F
100
AcDbEntity
  8
0
100
AcDbBlockBegin
  2
*Model_Space
 70
     0
 10
0.0
 20
0.0
 30
0.0
  3
*Model_Space
  1

  0
ENDBLK
  5
21
330
1F
100
AcDbEntity
  8
0
100
AcDbBlockEnd
  0
BLOCK
  5
1C
330
1B
100
AcDbEntity
 67
     1
  8
0
100
AcDbBlockBegin
  2
*Paper_Space
 70
     0
 10
0.0
 20
0.0
 30
0.0
  3
*Paper_Space
  1

  0
ENDBLK
  5
1D
330
1B
100
AcDbEntity
 67
     1
  8
0
100
AcDbBlockEnd
  0
BLOCK
  5
24
330
23
100
AcDbEntity
  8
0
100
AcDbBlockBegin
  2
*Paper_Space0
 70
     0
 10
0.0
 20
0.0
 30
0.0
  3
*Paper_Space0
  1

  0
ENDBLK
  5
25
330
23
100
AcDbEntity
  8
0
100
AcDbBlockEnd
  0
BLOCK
  5
5E
330
5C
100
AcDbEntity
  8
0
100
AcDbBlockBegin
  2
block 2
 70
     0
 10
0.0
 20
0.0
 30
0.0
  3
block 2
  1

  0
SPLINE
  5
60
330
5C
100
AcDbEntity
  8
_U+56FE_U+5C42 2
 62
     7
420
 16643314
370
    53
100
AcDbSpline
210
0.0
220
0.0
230
1.0
 70
    11
 71
     3
 72
    29
 73
    25
 74
     0
 42
0.0000000001
 43
0.0000000001
 12
1.0
 22
0.0
 32
0.0
 13
1.0
 23
0.0
 33
0.0
 40
0.0
 40
0.0
 40
0.0
 40
0.0
 40
1.0
 40
1.0
 40
1.0
 40
2.0
 40
2.0
 40
2.0
 40
3.0
 40
3.0
 40
3.0
 40
4.0
 40
4.0
 40
4.0
 40
5.0
 40
5.0
 40
5.0
 40
6.0
 40
6.0
 40
6.0
 40
7.0
 40
7.0
 40
7.0
 40
8.0
 40
8.0
 40
8.0
 40
8.0
 10
112.2965585215949
 20
-195.6844164888936
 30
0.0
 10
95.48298532430091
 20
-195.6843518933532
 30
0.0
 10
78.66941750996861
 20
-195.6843518933532
 30
0.0
 10
61.85584431267461
 20
-195.6844164888936
 30
0.0
 10
61.6076897785027
 20
-195.6844164888936
 30
0.0
 10
61.39302264903977
 20
-195.4735335815027
 30
0.0
 10
61.37880624720142
 20
-195.2157758436657
 30
0.0
 10
60.87672126095812
 20
-186.1115081321831
 30
0.0
 10
60.37462550879144
 20
-177.0072404207004
 30
0.0
 10
59.87254052254814
 20
-167.9029727092178
 30
0.0
 10
59.8583241207098
 20
-167.6452257373042
 30
0.0
 10
60.06205845496876
 20
-167.4343535958367
 30
0.0
 10
60.32527451596523
 20
-167.4343535958367
 30
0.0
 10
78.1592204004499
 20
-167.4344074254537
 30
0.0
 10
95.99317166789625
 20
-167.4344074254537
 30
0.0
 10
113.8271175523809
 20
-167.4343535958367
 30
0.0
 10
114.0903443793008
 20
-167.4343535958367
 30
0.0
 10
114.2940787135597
 20
-167.6452257373042
 30
0.0
 10
114.2798676946831
 20
-167.9029727092178
 30
0.0
 10
113.777831155095
 20
-177.0072404207004
 30
0.0
 10
113.2756869562731
 20
-186.1115081321831
 30
0.0
 10
112.7735965870681
 20
-195.2157758436657
 30
0.0
 10
112.7593748022681
 20
-195.4735335815027
 30
0.0
 10
112.5447130557668
 20
-195.6844164888936
 30
0.0
 10
112.2965585215949
 20
-195.6844164888936
 30
0.0
  0
ENDBLK
  5
5F
330
5C
100
AcDbEntity
  8
0
100
AcDbBlockEnd
  0
ENDSEC
  0
SECTION
  2
ENTITIES
  0
IMAGE
  5
44
330
1F
100
AcDbEntity
  8
_U+56FE_U+5C42 1
160
                 8
310
0800000000000000
100
AcDbRasterImage
 90
        0
 10
55.033333319575
 20
-192.5778610629665
 30
0.0
 11
0.3527777776895833
 21
0.0
 31
0.0
 12
0.0
 22
0.3527777776895833
 32
0.0
 13
255.0
 23
344.0
340
42
 70
     3
280
     0
281
    50
282
    50
283
     0
360
45
 71
     1
 91
        2
 14
-0.5
 24
-0.5
 14
254.5
 24
343.5
290
     0
  0
SPLINE
  5
47
330
1F
100
AcDbEntity
  8
_U+56FE_U+5C42 2
 62
     7
420
 16643314
370
    53
100
AcDbSpline
210
0.0
220
0.0
230
1.0
 70
    11
 71
     3
 72
    29
 73
    25
 74
     0
 42
0.0000000001
 43
0.0000000001
 12
1.0
 22
0.0
 32
0.0
 13
1.0
 23
0.0
 33
0.0
 40
0.0
 40
0.0
 40
0.0
 40
0.0
 40
1.0
 40
1.0
 40
1.0
 40
2.0
 40
2.0
 40
2.0
 40
3.0
 40
3.0
 40
3.0
 40
4.0
 40
4.0
 40
4.0
 40
5.0
 40
5.0
 40
5.0
 40
6.0
 40
6.0
 40
6.0
 40
7.0
 40
7.0
 40
7.0
 40
8.0
 40
8.0
 40
8.0
 40
8.0
 10
127.6809951192435
 20
-141.0450806453952
 30
0.0
 10
127.6809951192435
 20
-141.0450806453952
 30
0.0
 10
46.79498675288955
 20
-141.0450806453952
 30
0.0
 10
46.79498675288955
 20
-141.0450806453952
 30
0.0
 10
46.22672154168954
 20
-141.0450806453952
 30
0.0
 10
45.76605156796182
 20
-140.5844106716675
 30
0.0
 10
45.76605156796182
 20
-140.0161454604675
 30
0.0
 10
45.76605156796182
 20
-140.0161454604675
 30
0.0
 10
45.76605156796182
 20
-86.28772636614823
 30
0.0
 10
45.76605156796182
 20
-86.28772636614823
 30
0.0
 10
45.76605156796182
 20
-85.71946115494822
 30
0.0
 10
46.22672154168954
 20
-85.25879118122049
 30
0.0
 10
46.79498675288955
 20
-85.25879118122049
 30
0.0
 10
46.79498675288955
 20
-85.25879118122049
 30
0.0
 10
127.6809951192435
 20
-85.25879118122049
 30
0.0
 10
127.6809951192435
 20
-85.25879118122049
 30
0.0
 10
128.2492603304435
 20
-85.25879118122049
 30
0.0
 10
128.7099303041713
 20
-85.71946115494822
 30
0.0
 10
128.7099303041713
 20
-86.28772636614823
 30
0.0
 10
128.7099303041713
 20
-86.28772636614823
 30
0.0
 10
128.7099303041713
 20
-140.0161454604675
 30
0.0
 10
128.7099303041713
 20
-140.0161454604675
 30
0.0
 10
128.7099303041713
 20
-140.5844106716675
 30
0.0
 10
128.2492603304435
 20
-141.0450806453952
 30
0.0
 10
127.6809951192435
 20
-141.0450806453952
 30
0.0
  0
SPLINE
  5
48
330
1F
100
AcDbEntity
  8
_U+56FE_U+5C42 2
 62
     7
420
 16643314
370
    53
100
AcDbSpline
210
0.0
220
0.0
230
1.0
 70
    11
 71
     3
 72
    29
 73
    25
 74
     0
 42
0.0000000001
 43
0.0000000001
 12
1.0
 22
0.0
 32
0.0
 13
1.0
 23
0.0
 33
0.0
 40
0.0
 40
0.0
 40
0.0
 40
0.0
 40
1.0
 40
1.0
 40
1.0
 40
2.0
 40
2.0
 40
2.0
 40
3.0
 40
3.0
 40
3.0
 40
4.0
 40
4.0
 40
4.0
 40
5.0
 40
5.0
 40
5.0
 40
6.0
 40
6.0
 40
6.0
 40
7.0
 40
7.0
 40
7.0
 40
8.0
 40
8.0
 40
8.0
 40
8.0
 10
126.4156111424619
 20
-139.7272942800997
 30
0.0
 10
126.4156111424619
 20
-139.7272942800997
 30
0.0
 10
48.06037072967219
 20
-139.7272942800997
 30
0.0
 10
48.06037072967219
 20
-139.7272942800997
 30
0.0
 10
47.49210551847219
 20
-139.7272942800997
 30
0.0
 10
47.03143554474446
 20
-139.2666243063719
 30
0.0
 10
47.03143554474446
 20
-138.6983590951719
 30
0.0
 10
47.03143554474446
 20
-138.6983590951719
 30
0.0
 10
47.03143554474446
 20
-87.6055127314438
 30
0.0
 10
47.03143554474446
 20
-87.6055127314438
 30
0.0
 10
47.03143554474446
 20
-87.03724752024378
 30
0.0
 10
47.49210551847219
 20
-86.57657754651605
 30
0.0
 10
48.06037072967219
 20
-86.57657754651605
 30
0.0
 10
48.06037072967219
 20
-86.57657754651605
 30
0.0
 10
126.4156111424619
 20
-86.57657754651605
 30
0.0
 10
126.4156111424619
 20
-86.57657754651605
 30
0.0
 10
126.9838763536619
 20
-86.57657754651605
 30
0.0
 10
127.4445463273896
 20
-87.03724752024378
 30
0.0
 10
127.4445463273896
 20
-87.6055127314438
 30
0.0
 10
127.4445463273896
 20
-87.6055127314438
 30
0.0
 10
127.4445463273896
 20
-138.6983590951719
 30
0.0
 10
127.4445463273896
 20
-138.6983590951719
 30
0.0
 10
127.4445463273896
 20
-139.2666243063719
 30
0.0
 10
126.9838763536619
 20
-139.7272942800997
 30
0.0
 10
126.4156111424619
 20
-139.7272942800997
 30
0.0
  0
SPLINE
  5
49
330
1F
100
AcDbEntity
  8
_U+56FE_U+5C42 2
 62
     7
420
 16643314
370
    53
100
AcDbSpline
210
0.0
220
0.0
230
1.0
 70
    11
 71
     3
 72
    29
 73
    25
 74
     0
 42
0.0000000001
 43
0.0000000001
 12
1.0
 22
0.0
 32
0.0
 13
1.0
 23
0.0
 33
0.0
 40
0.0
 40
0.0
 40
0.0
 40
0.0
 40
1.0
 40
1.0
 40
1.0
 40
2.0
 40
2.0
 40
2.0
 40
3.0
 40
3.0
 40
3.0
 40
4.0
 40
4.0
 40
4.0
 40
5.0
 40
5.0
 40
5.0
 40
6.0
 40
6.0
 40
6.0
 40
7.0
 40
7.0
 40
7.0
 40
8.0
 40
8.0
 40
8.0
 40
8.0
 10
121.9663578047416
 20
-136.1190632802941
 30
0.0
 10
121.9663578047416
 20
-136.1190632802941
 30
0.0
 10
52.2647110396282
 20
-136.1190632802941
 30
0.0
 10
52.2647110396282
 20
-136.1190632802941
 30
0.0
 10
51.69644582842851
 20
-136.1190632802941
 30
0.0
 10
51.23577585470046
 20
-135.6583933065664
 30
0.0
 10
51.23577585470046
 20
-135.0901280953667
 30
0.0
 10
51.23577585470046
 20
-135.0901280953667
 30
0.0
 10
51.23577585470046
 20
-91.21374373124935
 30
0.0
 10
51.23577585470046
 20
-91.21374373124935
 30
0.0
 10
51.23577585470046
 20
-90.64547852004935
 30
0.0
 10
51.69644582842851
 20
-90.18480854632162
 30
0.0
 10
52.2647110396282
 20
-90.18480854632162
 30
0.0
 10
52.2647110396282
 20
-90.18480854632162
 30
0.0
 10
121.9663578047416
 20
-90.18480854632162
 30
0.0
 10
121.9663578047416
 20
-90.18480854632162
 30
0.0
 10
122.5346230159416
 20
-90.18480854632162
 30
0.0
 10
122.9952929896693
 20
-90.64547852004935
 30
0.0
 10
122.9952929896693
 20
-91.21374373124935
 30
0.0
 10
122.9952929896693
 20
-91.21374373124935
 30
0.0
 10
122.9952929896693
 20
-135.0901280953667
 30
0.0
 10
122.9952929896693
 20
-135.0901280953667
 30
0.0
 10
122.9952929896693
 20
-135.6583933065664
 30
0.0
 10
122.5346230159416
 20
-136.1190632802941
 30
0.0
 10
121.9663578047416
 20
-136.1190632802941
 30
0.0
  0
SPLINE
  5
4A
330
1F
100
AcDbEntity
  8
_U+56FE_U+5C42 2
 62
     7
420
 16643314
370
    53
100
AcDbSpline
210
0.0
220
0.0
230
1.0
 70
    11
 71
     3
 72
    17
 73
    13
 74
     0
 42
0.0000000001
 43
0.0000000001
 12
1.0
 22
0.0
 32
0.0
 13
1.0
 23
0.0
 33
0.0
 40
0.0
 40
0.0
 40
0.0
 40
0.0
 40
1.0
 40
1.0
 40
1.0
 40
2.0
 40
2.0
 40
2.0
 40
3.0
 40
3.0
 40
3.0
 40
4.0
 40
4.0
 40
4.0
 40
4.0
 10
90.34022262108161
 20
-113.1519359133079
 30
0.0
 10
90.34022262108161
 20
-114.8652511632879
 30
0.0
 10
88.95130618604678
 20
-116.2541675983231
 30
0.0
 10
87.23799093606702
 20
-116.2541675983231
 30
0.0
 10
85.52467568608695
 20
-116.2541675983231
 30
0.0
 10
84.1357592510518
 20
-114.8652511632879
 30
0.0
 10
84.1357592510518
 20
-113.1519359133079
 30
0.0
 10
84.1357592510518
 20
-111.4386206633278
 30
0.0
 10
85.52467568608695
 20
-110.0497042282926
 30
0.0
 10
87.23799093606702
 20
-110.0497042282926
 30
0.0
 10
88.95130618604678
 20
-110.0497042282926
 30
0.0
 10
90.34022262108161
 20
-111.4386206633278
 30
0.0
 10
90.34022262108161
 20
-113.1519359133079
 30
0.0
  0
SPLINE
  5
4B
330
1F
100
AcDbEntity
  8
_U+56FE_U+5C42 2
 62
     7
420
 16643314
370
    53
100
AcDbSpline
210
0.0
220
0.0
230
1.0
 70
    11
 71
     3
 72
    17
 73
    13
 74
     0
 42
0.0000000001
 43
0.0000000001
 12
1.0
 22
0.0
 32
0.0
 13
1.0
 23
0.0
 33
0.0
 40
0.0
 40
0.0
 40
0.0
 40
0.0
 40
1.0
 40
1.0
 40
1.0
 40
2.0
 40
2.0
 40
2.0
 40
3.0
 40
3.0
 40
3.0
 40
4.0
 40
4.0
 40
4.0
 40
4.0
 10
91.72806311174703
 20
-113.1519359133079
 30
0.0
 10
91.72806311174703
 20
-115.6317343014375
 30
0.0
 10
89.71778932419573
 20
-117.6420080889882
 30
0.0
 10
87.23799093606702
 20
-117.6420080889882
 30
0.0
 10
84.75819254793768
 20
-117.6420080889882
 30
0.0
 10
82.74791876038671
 20
-115.6317343014375
 30
0.0
 10
82.74791876038671
 20
-113.1519359133079
 30
0.0
 10
82.74791876038671
 20
-110.6721375251782
 30
0.0
 10
84.75819254793768
 20
-108.6618637376275
 30
0.0
 10
87.23799093606702
 20
-108.6618637376275
 30
0.0
 10
89.71778932419573
 20
-108.6618637376275
 30
0.0
 10
91.72806311174703
 20
-110.6721375251782
 30
0.0
 10
91.72806311174703
 20
-113.1519359133079
 30
0.0
  0
POLYLINE
  5
4C
330
1F
100
AcDbEntity
  8
_U+56FE_U+5C42 2
 62
     7
420
 16643314
370
    53
100
AcDb2dPolyline
 66
     1
 10
0.0
 20
0.0
 30
0.0
  0
VERTEX
  5
4D
330
4C
100
AcDbEntity
  8
_U+56FE_U+5C42 2
 62
     7
420
 16643314
370
    53
100
AcDbVertex
100
AcDb2dVertex
 10
47.45675131241118
 20
-86.98877726131246
 30
0.0
  0
VERTEX
  5
4E
330
4C
100
AcDbEntity
  8
_U+56FE_U+5C42 2
 62
     7
420
 16643314
370
    53
100
AcDbVertex
100
AcDb2dVertex
 10
51.58437230863891
 20
-90.6873342553064
 30
0.0
  0
SEQEND
  5
4F
330
4C
100
AcDbEntity
  8
_U+56FE_U+5C42 2
 62
     7
420
 16643314
370
    53
  0
POLYLINE
  5
50
330
1F
100
AcDbEntity
  8
_U+56FE_U+5C42 2
 62
     7
420
 16643314
370
    53
100
AcDb2dPolyline
 66
     1
 10
0.0
 20
0.0
 30
0.0
  0
VERTEX
  5
51
330
50
100
AcDbEntity
  8
_U+56FE_U+5C42 2
 62
     7
420
 16643314
370
    53
100
AcDbVertex
100
AcDb2dVertex
 10
127.0318865514404
 20
-87.00138849638672
 30
0.0
  0
VERTEX
  5
52
330
50
100
AcDbEntity
  8
_U+56FE_U+5C42 2
 62
     7
420
 16643314
370
    53
100
AcDbVertex
100
AcDb2dVertex
 10
122.7072025295064
 20
-90.6873487719334
 30
0.0
  0
SEQEND
  5
53
330
50
100
AcDbEntity
  8
_U+56FE_U+5C42 2
 62
     7
420
 16643314
370
    53
  0
POLYLINE
  5
54
330
1F
100
AcDbEntity
  8
_U+56FE_U+5C42 2
 62
     7
420
 16643314
370
    53
100
AcDb2dPolyline
 66
     1
 10
0.0
 20
0.0
 30
0.0
  0
VERTEX
  5
55
330
54
100
AcDbEntity
  8
_U+56FE_U+5C42 2
 62
     7
420
 16643314
370
    53
100
AcDbVertex
100
AcDb2dVertex
 10
47.40864363288736
 20
-139.4383727777135
 30
0.0
  0
VERTEX
  5
56
330
54
100
AcDbEntity
  8
_U+56FE_U+5C42 2
 62
     7
420
 16643314
370
    53
100
AcDbVertex
100
AcDb2dVertex
 10
51.57866620102391
 20
-135.739814465989
 30
0.0
  0
SEQEND
  5
57
330
54
100
AcDbEntity
  8
_U+56FE_U+5C42 2
 62
     7
420
 16643314
370
    53
  0
POLYLINE
  5
58
330
1F
100
AcDbEntity
  8
_U+56FE_U+5C42 2
 62
     7
420
 16643314
370
    53
100
AcDb2dPolyline
 66
     1
 10
0.0
 20
0.0
 30
0.0
  0
VERTEX
  5
59
330
58
100
AcDbEntity
  8
_U+56FE_U+5C42 2
 62
     7
420
 16643314
370
    53
100
AcDbVertex
100
AcDb2dVertex
 10
126.9452860044801
 20
-139.3822885001067
 30
0.0
  0
VERTEX
  5
5A
330
58
100
AcDbEntity
  8
_U+56FE_U+5C42 2
 62
     7
420
 16643314
370
    53
100
AcDbVertex
100
AcDb2dVertex
 10
122.7071789898122
 20
-135.5711976046674
 30
0.0
  0
SEQEND
  5
5B
330
58
100
AcDbEntity
  8
_U+56FE_U+5C42 2
 62
     7
420
 16643314
370
    53
  0
INSERT
  5
5D
330
1F
100
AcDbEntity
  8
_U+56FE_U+5C42 2
100
AcDbBlockReference
  2
block 2
 10
0.0
 20
0.0
 30
0.0
  0
POLYLINE
  5
61
330
1F
100
AcDbEntity
  8
_U+56FE_U+5C42 2
 62
     7
420
 16643314
370
    53
100
AcDb2dPolyline
 66
     1
 10
0.0
 20
0.0
 30
0.0
  0
VERTEX
  5
62
330
61
100
AcDbEntity
  8
_U+56FE_U+5C42 2
 62
     7
420
 16643314
370
    53
100
AcDbVertex
100
AcDb2dVertex
 10
61.01630927077895
 20
-193.268522148415
 30
0.0
  0
VERTEX
  5
63
330
61
100
AcDbEntity
  8
_U+56FE_U+5C42 2
 62
     7
420
 16643314
370
    53
100
AcDbVertex
100
AcDb2dVertex
 10
113.0907509026021
 20
-193.268522148415
 30
0.0
  0
SEQEND
  5
64
330
61
100
AcDbEntity
  8
_U+56FE_U+5C42 2
 62
     7
420
 16643314
370
    53
  0
POLYLINE
  5
66
330
1F
100
AcDbEntity
  8
_U+56FE_U+5C42 3
 62
     7
420
 16510441
370
    35
100
AcDb2dPolyline
 66
     1
 10
0.0
 20
0.0
 30
0.0
  0
VERTEX
  5
67
330
66
100
AcDbEntity
  8
_U+56FE_U+5C42 3
 62
     7
420
 16510441
370
    35
100
AcDbVertex
100
AcDb2dVertex
 10
47.72535579007717
 20
-84.27913907016539
 30
0.0
  0
VERTEX
  5
68
330
66
100
AcDbEntity
  8
_U+56FE_U+5C42 3
 62
     7
420
 16510441
370
    35
100
AcDbVertex
100
AcDb2dVertex
 10
47.72535579007717
 20
-76.03373380209719
 30
0.0
  0
SEQEND
  5
69
330
66
100
AcDbEntity
  8
_U+56FE_U+5C42 3
 62
     7
420
 16510441
370
    35
  0
POLYLINE
  5
6A
330
1F
100
AcDbEntity
  8
_U+56FE_U+5C42 3
 62
     7
420
 16510441
370
    35
100
AcDb2dPolyline
 66
     1
 10
0.0
 20
0.0
 30
0.0
  0
VERTEX
  5
6B
330
6A
100
AcDbEntity
  8
_U+56FE_U+5C42 3
 62
     7
420
 16510441
370
    35
100
AcDbVertex
100
AcDb2dVertex
 10
126.7506235906729
 20
-84.27913907016539
 30
0.0
  0
VERTEX
  5
6C
330
6A
100
AcDbEntity
  8
_U+56FE_U+5C42 3
 62
     7
420
 16510441
370
    35
100
AcDbVertex
100
AcDb2dVertex
 10
126.7506235906729
 20
-76.03373380209719
 30
0.0
  0
SEQEND
  5
6D
330
6A
100
AcDbEntity
  8
_U+56FE_U+5C42 3
 62
     7
420
 16510441
370
    35
  0
POLYLINE
  5
6E
330
1F
100
AcDbEntity
  8
_U+56FE_U+5C42 3
 62
     7
420
 16510441
370
    35
100
AcDb2dPolyline
 66
     1
 10
0.0
 20
0.0
 30
0.0
  0
VERTEX
  5
6F
330
6E
100
AcDbEntity
  8
_U+56FE_U+5C42 3
 62
     7
420
 16510441
370
    35
100
AcDbVertex
100
AcDb2dVertex
 10
45.76605156796182
 20
-84.27913907016539
 30
0.0
  0
VERTEX
  5
70
330
6E
100
AcDbEntity
  8
_U+56FE_U+5C42 3
 62
     7
420
 16510441
370
    35
100
AcDbVertex
100
AcDb2dVertex
 10
45.76605156796182
 20
-64.84937220085597
 30
0.0
  0
SEQEND
  5
71
330
6E
100
AcDbEntity
  8
_U+56FE_U+5C42 3
 62
     7
420
 16510441
370
    35
  0
POLYLINE
  5
72
330
1F
100
AcDbEntity
  8
_U+56FE_U+5C42 3
 62
     7
420
 16510441
370
    35
100
AcDb2dPolyline
 66
     1
 10
0.0
 20
0.0
 30
0.0
  0
VERTEX
  5
73
330
72
100
AcDbEntity
  8
_U+56FE_U+5C42 3
 62
     7
420
 16510441
370
    35
100
AcDbVertex
100
AcDb2dVertex
 10
128.709930382028
 20
-84.27913907016539
 30
0.0
  0
VERTEX
  5
74
330
72
100
AcDbEntity
  8
_U+56FE_U+5C42 3
 62
     7
420
 16510441
370
    35
100
AcDbVertex
100
AcDb2dVertex
 10
128.709930382028
 20
-64.84937220085597
 30
0.0
  0
SEQEND
  5
75
330
72
100
AcDbEntity
  8
_U+56FE_U+5C42 3
 62
     7
420
 16510441
370
    35
  0
POLYLINE
  5
76
330
1F
100
AcDbEntity
  8
_U+56FE_U+5C42 3
 62
     7
420
 16510441
370
    35
100
AcDb2dPolyline
 66
     1
 10
0.0
 20
0.0
 30
0.0
  0
VERTEX
  5
77
330
76
100
AcDbEntity
  8
_U+56FE_U+5C42 3
 62
     7
420
 16510441
370
    35
100
AcDbVertex
100
AcDb2dVertex
 10
47.72535579007717
 20
-80.15643643613113
 30
0.0
  0
VERTEX
  5
78
330
76
100
AcDbEntity
  8
_U+56FE_U+5C42 3
 62
     7
420
 16510441
370
    35
100
AcDbVertex
100
AcDb2dVertex
 10
126.7506235906729
 20
-80.15643643613113
 30
0.0
  0
SEQEND
  5
79
330
76
100
AcDbEntity
  8
_U+56FE_U+5C42 3
 62
     7
420
 16510441
370
    35
  0
POLYLINE
  5
7A
330
1F
100
AcDbEntity
  8
_U+56FE_U+5C42 3
 62
     7
420
 16510441
370
    35
100
AcDb2dPolyline
 66
     1
 10
0.0
 20
0.0
 30
0.0
  0
VERTEX
  5
7B
330
7A
100
AcDbEntity
  8
_U+56FE_U+5C42 3
 62
     7
420
 16510441
370
    35
100
AcDbVertex
100
AcDb2dVertex
 10
45.76604907657845
 20
-70.72728486720172
 30
0.0
  0
VERTEX
  5
7C
330
7A
100
AcDbEntity
  8
_U+56FE_U+5C42 3
 62
     7
420
 16510441
370
    35
100
AcDbVertex
100
AcDb2dVertex
 10
128.7099303041713
 20
-70.72728486720172
 30
0.0
  0
SEQEND
  5
7D
330
7A
100
AcDbEntity
  8
_U+56FE_U+5C42 3
 62
     7
420
 16510441
370
    35
  0
POLYLINE
  5
7E
330
1F
100
AcDbEntity
  8
_U+56FE_U+5C42 3
 62
     7
420
 16510441
370
    35
100
AcDb2dPolyline
 66
     1
 10
0.0
 20
0.0
 30
0.0
  0
VERTEX
  5
7F
330
7E
100
AcDbEntity
  8
_U+56FE_U+5C42 3
 62
     7
420
 16510441
370
    35
100
AcDbVertex
100
AcDb2dVertex
 10
130.2202273069448
 20
-86.57657757010202
 30
0.0
  0
VERTEX
  5
80
330
7E
100
AcDbEntity
  8
_U+56FE_U+5C42 3
 62
     7
420
 16510441
370
    35
100
AcDbVertex
100
AcDb2dVertex
 10
138.4656325750134
 20
-86.57657756973208
 30
0.0
  0
SEQEND
  5
81
330
7E
100
AcDbEntity
  8
_U+56FE_U+5C42 3
 62
     7
420
 16510441
370
    35
  0
POLYLINE
  5
82
330
1F
100
AcDbEntity
  8
_U+56FE_U+5C42 3
 62
     7
420
 16510441
370
    35
100
AcDb2dPolyline
 66
     1
 10
0.0
 20
0.0
 30
0.0
  0
VERTEX
  5
83
330
82
100
AcDbEntity
  8
_U+56FE_U+5C42 3
 62
     7
420
 16510441
370
    35
100
AcDbVertex
100
AcDb2dVertex
 10
130.2202273104928
 20
-139.3822894163368
 30
0.0
  0
VERTEX
  5
84
330
82
100
AcDbEntity
  8
_U+56FE_U+5C42 3
 62
     7
420
 16510441
370
    35
100
AcDbVertex
100
AcDb2dVertex
 10
138.4656325785613
 20
-139.3822894159666
 30
0.0
  0
SEQEND
  5
85
330
82
100
AcDbEntity
  8
_U+56FE_U+5C42 3
 62
     7
420
 16510441
370
    35
  0
POLYLINE
  5
86
330
1F
100
AcDbEntity
  8
_U+56FE_U+5C42 3
 62
     7
420
 16510441
370
    35
100
AcDb2dPolyline
 66
     1
 10
0.0
 20
0.0
 30
0.0
  0
VERTEX
  5
87
330
86
100
AcDbEntity
  8
_U+56FE_U+5C42 3
 62
     7
420
 16510441
370
    35
100
AcDbVertex
100
AcDb2dVertex
 10
130.220266805245
 20
-85.25883178198106
 30
0.0
  0
VERTEX
  5
88
330
86
100
AcDbEntity
  8
_U+56FE_U+5C42 3
 62
     7
420
 16510441
370
    35
100
AcDbVertex
100
AcDb2dVertex
 10
161.3649974443211
 20
-85.258831781109
 30
0.0
  0
SEQEND
  5
89
330
86
100
AcDbEntity
  8
_U+56FE_U+5C42 3
 62
     7
420
 16510441
370
    35
  0
POLYLINE
  5
8A
330
1F
100
AcDbEntity
  8
_U+56FE_U+5C42 3
 62
     7
420
 16510441
370
    35
100
AcDb2dPolyline
 66
     1
 10
0.0
 20
0.0
 30
0.0
  0
VERTEX
  5
8B
330
8A
100
AcDbEntity
  8
_U+56FE_U+5C42 3
 62
     7
420
 16510441
370
    35
100
AcDbVertex
100
AcDb2dVertex
 10
130.2202668122485
 20
-141.0451187866934
 30
0.0
  0
VERTEX
  5
8C
330
8A
100
AcDbEntity
  8
_U+56FE_U+5C42 3
 62
     7
420
 16510441
370
    35
100
AcDbVertex
100
AcDb2dVertex
 10
161.3649974513227
 20
-141.0451187858204
 30
0.0
  0
SEQEND
  5
8D
330
8A
100
AcDbEntity
  8
_U+56FE_U+5C42 3
 62
     7
420
 16510441
370
    35
  0
POLYLINE
  5
8E
330
1F
100
AcDbEntity
  8
_U+56FE_U+5C42 3
 62
     7
420
 16510441
370
    35
100
AcDb2dPolyline
 66
     1
 10
0.0
 20
0.0
 30
0.0
  0
VERTEX
  5
8F
330
8E
100
AcDbEntity
  8
_U+56FE_U+5C42 3
 62
     7
420
 16510441
370
    35
100
AcDbVertex
100
AcDb2dVertex
 10
134.342943566034
 20
-86.57659700878044
 30
0.0
  0
VERTEX
  5
90
330
8E
100
AcDbEntity
  8
_U+56FE_U+5C42 3
 62
     7
420
 16510441
370
    35
100
AcDbVertex
100
AcDb2dVertex
 10
134.3429435695819
 20
-139.3823080823589
 30
0.0
  0
SEQEND
  5
91
330
8E
100
AcDbEntity
  8
_U+56FE_U+5C42 3
 62
     7
420
 16510441
370
    35
  0
POLYLINE
  5
92
330
1F
100
AcDbEntity
  8
_U+56FE_U+5C42 3
 62
     7
420
 16510441
370
    35
100
AcDb2dPolyline
 66
     1
 10
0.0
 20
0.0
 30
0.0
  0
VERTEX
  5
93
330
92
100
AcDbEntity
  8
_U+56FE_U+5C42 3
 62
     7
420
 16510441
370
    35
100
AcDbVertex
100
AcDb2dVertex
 10
149.2826246366527
 20
-85.25881140039071
 30
0.0
  0
VERTEX
  5
94
330
92
100
AcDbEntity
  8
_U+56FE_U+5C42 3
 62
     7
420
 16510441
370
    35
100
AcDbVertex
100
AcDb2dVertex
 10
149.2826246403764
 20
-141.045080286441
 30
0.0
  0
SEQEND
  5
95
330
92
100
AcDbEntity
  8
_U+56FE_U+5C42 3
 62
     7
420
 16510441
370
    35
  0
POLYLINE
  5
96
330
1F
100
AcDbEntity
  8
_U+56FE_U+5C42 3
 62
     7
420
 16510441
370
    35
100
AcDb2dPolyline
 66
     1
 10
0.0
 20
0.0
 30
0.0
  0
VERTEX
  5
97
330
96
100
AcDbEntity
  8
_U+56FE_U+5C42 3
 62
     7
420
 16510441
370
    35
100
AcDbVertex
100
AcDb2dVertex
 10
87.07619849640918
 20
-112.9794525455698
 30
0.0
  0
VERTEX
  5
98
330
96
100
AcDbEntity
  8
_U+56FE_U+5C42 3
 62
     7
420
 16510441
370
    35
100
AcDbVertex
100
AcDb2dVertex
 10
91.72806311174703
 20
-120.3629918274508
 30
0.0
  0
SEQEND
  5
99
330
96
100
AcDbEntity
  8
_U+56FE_U+5C42 3
 62
     7
420
 16510441
370
    35
  0
POLYLINE
  5
9A
330
1F
100
AcDbEntity
  8
_U+56FE_U+5C42 3
 62
     7
420
 16510441
370
    35
100
AcDb2dPolyline
 66
     1
 10
0.0
 20
0.0
 30
0.0
  0
VERTEX
  5
9B
330
9A
100
AcDbEntity
  8
_U+56FE_U+5C42 3
 62
     7
420
 16510441
370
    35
100
AcDbVertex
100
AcDb2dVertex
 10
113.892656834726
 20
-193.2685254447094
 30
0.0
  0
VERTEX
  5
9C
330
9A
100
AcDbEntity
  8
_U+56FE_U+5C42 3
 62
     7
420
 16510441
370
    35
100
AcDbVertex
100
AcDb2dVertex
 10
122.5703402233811
 20
-193.2685254443391
 30
0.0
  0
SEQEND
  5
9D
330
9A
100
AcDbEntity
  8
_U+56FE_U+5C42 3
 62
     7
420
 16510441
370
    35
  0
POLYLINE
  5
9E
330
1F
100
AcDbEntity
  8
_U+56FE_U+5C42 3
 62
     7
420
 16510441
370
    35
100
AcDb2dPolyline
 66
     1
 10
0.0
 20
0.0
 30
0.0
  0
VERTEX
  5
9F
330
9E
100
AcDbEntity
  8
_U+56FE_U+5C42 3
 62
     7
420
 16510441
370
    35
100
AcDbVertex
100
AcDb2dVertex
 10
114.9683137166229
 20
-167.1707544404168
 30
0.0
  0
VERTEX
  5
A0
330
9E
100
AcDbEntity
  8
_U+56FE_U+5C42 3
 62
     7
420
 16510441
370
    35
100
AcDbVertex
100
AcDb2dVertex
 10
135.4857484522038
 20
-167.1707544395435
 30
0.0
  0
SEQEND
  5
A1
330
9E
100
AcDbEntity
  8
_U+56FE_U+5C42 3
 62
     7
420
 16510441
370
    35
  0
POLYLINE
  5
A2
330
1F
100
AcDbEntity
  8
_U+56FE_U+5C42 3
 62
     7
420
 16510441
370
    35
100
AcDb2dPolyline
 66
     1
 10
0.0
 20
0.0
 30
0.0
  0
VERTEX
  5
A3
330
A2
100
AcDbEntity
  8
_U+56FE_U+5C42 3
 62
     7
420
 16510441
370
    35
100
AcDbVertex
100
AcDb2dVertex
 10
113.8926712396232
 20
-195.8952893918614
 30
0.0
  0
VERTEX
  5
A4
330
A2
100
AcDbEntity
  8
_U+56FE_U+5C42 3
 62
     7
420
 16510441
370
    35
100
AcDbVertex
100
AcDb2dVertex
 10
135.485764216176
 20
-195.8952893909887
 30
0.0
  0
SEQEND
  5
A5
330
A2
100
AcDbEntity
  8
_U+56FE_U+5C42 3
 62
     7
420
 16510441
370
    35
  0
POLYLINE
  5
A6
330
1F
100
AcDbEntity
  8
_U+56FE_U+5C42 3
 62
     7
420
 16510441
370
    35
100
AcDb2dPolyline
 66
     1
 10
0.0
 20
0.0
 30
0.0
  0
VERTEX
  5
A7
330
A6
100
AcDbEntity
  8
_U+56FE_U+5C42 3
 62
     7
420
 16510441
370
    35
100
AcDbVertex
100
AcDb2dVertex
 10
119.6481837964005
 20
-167.1708020235428
 30
0.0
  0
VERTEX
  5
A8
330
A6
100
AcDbEntity
  8
_U+56FE_U+5C42 3
 62
     7
420
 16510441
370
    35
100
AcDbVertex
100
AcDb2dVertex
 10
119.6481837999485
 20
-193.2685491717977
 30
0.0
  0
SEQEND
  5
A9
330
A6
100
AcDbEntity
  8
_U+56FE_U+5C42 3
 62
     7
420
 16510441
370
    35
  0
POLYLINE
  5
AA
330
1F
100
AcDbEntity
  8
_U+56FE_U+5C42 3
 62
     7
420
 16510441
370
    35
100
AcDb2dPolyline
 66
     1
 10
0.0
 20
0.0
 30
0.0
  0
VERTEX
  5
AB
330
AA
100
AcDbEntity
  8
_U+56FE_U+5C42 3
 62
     7
420
 16510441
370
    35
100
AcDbVertex
100
AcDb2dVertex
 10
126.0975247990818
 20
-167.1707806914139
 30
0.0
  0
VERTEX
  5
AC
330
AA
100
AcDbEntity
  8
_U+56FE_U+5C42 3
 62
     7
420
 16510441
370
    35
100
AcDbVertex
100
AcDb2dVertex
 10
126.0975248028049
 20
-195.8953360236564
 30
0.0
  0
SEQEND
  5
AD
330
AA
100
AcDbEntity
  8
_U+56FE_U+5C42 3
 62
     7
420
 16510441
370
    35
  0
MTEXT
  5
AF
330
1F
100
AcDbEntity
  8
_U+56FE_U+5C42 4
 62
     7
420
 16574948
100
AcDbMText
 10
67.3183682008506
 20
-66.80877532878222
 30
0.0
 40
4.161562341666925
 41
0.0
 46
0.0
 71
     7
 72
     1
  1
\fAdobe Song Std L|b0|i0|c0|p34;\W1; 
 73
     1
 44
1.0
  0
MTEXT
  5
B0
330
1F
100
AcDbEntity
  8
_U+56FE_U+5C42 4
 62
     7
420
 16574948
100
AcDbMText
 10
82.74776965562752
 20
-70.07426560557408
 30
0.0
 40
2.774375688431467
 41
0.0
 46
0.0
 71
     7
 72
     1
  1
\fCambria|b0|i0|c0|p34;\W1;30”
 73
     1
 44
1.0
  0
MTEXT
  5
B1
330
1F
100
AcDbEntity
  8
_U+56FE_U+5C42 4
 62
     7
420
 16574948
100
AcDbMText
 10
79.44149368737264
 20
-79.5444004389796
 30
0.0
 40
2.774375688431467
 41
0.0
 46
0.0
 71
     7
 72
     1
  1
\fCambria|b0|i0|c0|p34;\W1;29 1\fAdobe Song Std L|b0|i0|c0|p34;/\fCambria|b0|i0|c0|p34;4”
 73
     1
 44
1.0
  0
MTEXT
  5
B2
330
1F
100
AcDbEntity
  8
_U+56FE_U+5C42 4
 62
     7
420
 16574948
100
AcDbMText
 10
149.2827964859854
 20
-115.3015982339615
 30
0.0
 40
2.774375688431467
 41
0.0
 46
0.0
 71
     7
 72
     1
  1
\fCambria|b0|i0|c0|p34;\W1;19 3\fAdobe Song Std L|b0|i0|c0|p34;/\fCambria|b0|i0|c0|p34;4”
 73
     1
 44
1.0
  0
MTEXT
  5
B3
330
1F
100
AcDbEntity
  8
_U+56FE_U+5C42 4
 62
     7
420
 16574948
100
AcDbMText
 10
135.4856112936178
 20
-115.3015982339615
 30
0.0
 40
2.774375688431467
 41
0.0
 46
0.0
 71
     7
 72
     1
  1
\fCambria|b0|i0|c0|p34;\W1;18 3\fAdobe Song Std L|b0|i0|c0|p34;/\fCambria|b0|i0|c0|p34;4”
 73
     1
 44
1.0
  0
MTEXT
  5
B4
330
1F
100
AcDbEntity
  8
_U+56FE_U+5C42 4
 62
     7
420
 16574948
100
AcDbMText
 10
127.4447231053586
 20
-180.4981105935999
 30
0.0
 40
2.774375688431467
 41
0.0
 46
0.0
 71
     7
 72
     1
  1
\fCambria|b0|i0|c0|p34;\W1;8 1\fAdobe Song Std L|b0|i0|c0|p34;/\fCambria|b0|i0|c0|p34;2”
 73
     1
 44
1.0
  0
MTEXT
  5
B5
330
1F
100
AcDbEntity
  8
_U+56FE_U+5C42 4
 62
     7
420
 16574948
100
AcDbMText
 10
120.3010117971817
 20
-180.4981105935999
 30
0.0
 40
2.774375688431467
 41
0.0
 46
0.0
 71
     7
 72
     1
  1
\fCambria|b0|i0|c0|p34;\W1;7”
 73
     1
 44
1.0
  0
MTEXT
  5
B6
330
1F
100
AcDbEntity
  8
_U+56FE_U+5C42 4
 62
     7
420
 16574948
100
AcDbMText
 10
77.16008080566793
 20
-125.8444833175973
 30
0.0
 40
3.467967824068921
 41
0.0
 46
0.0
 71
     7
 72
     1
  1
\fCambria|b0|i0|c0|p34;\W1; ΦKitchen/3 1\fAdobe Song Std L|b0|i0|c0|p34;/\fCambria|b0|i0|c0|p34;2”
 73
     1
 44
1.0
  0
ENDSEC
  0
SECTION
  2
OBJECTS
  0
DICTIONARY
  5
C
330
0
100
AcDbDictionary
281
     1
  3
ACAD_GROUP
350
D
  3
ACAD_IMAGE_DICT
350
41
  3
ACAD_IMAGE_VARS
350
43
  3
ACAD_LAYOUT
350
1A
  3
ACAD_MATERIAL
350
3B
  3
ACAD_MLEADERSTYLE
350
B8
  3
ACAD_MLINESTYLE
350
17
  3
ACAD_PLOTSETTINGS
350
19
  3
ACAD_PLOTSTYLENAME
350
E
  3
ACAD_TABLESTYLE
350
B7
  3
ACAD_VISUALSTYLE
350
2A
  0
SUN
  5
3F
330
29
100
AcDbSun
 90
        1
290
     0
 63
     7
421
 16777215
 40
1.0
291
     1
 91
  2455826
 92
 54000000
292
     0
 70
     2
 71
   256
280
     1
  0
IMAGEDEF_REACTOR
  5
45
330
44
100
AcDbRasterImageDefReactor
 90
        2
330
44
  0
DICTIONARY
  5
D
102
{ACAD_REACTORS
330
C
102
}
330
C
100
AcDbDictionary
281
     1
  0
DICTIONARY
  5
41
102
{ACAD_REACTORS
330
C
102
}
330
C
100
AcDbDictionary
281
     1
  3
C:\Users\Administrator\Desktop\white_1.png
350
42
  0
RASTERVARIABLES
  5
43
102
{ACAD_REACTORS
330
C
102
}
330
C
100
AcDbRasterVariables
 90
        0
 70
     0
 71
     1
 72
     0
  0
DICTIONARY
  5
1A
102
{ACAD_REACTORS
330
C
102
}
330
C
100
AcDbDictionary
281
     1
  3
Layout1
350
1E
  3
Layout2
350
26
  3
Model
350
22
  0
DICTIONARY
  5
3B
102
{ACAD_REACTORS
330
C
102
}
330
C
100
AcDbDictionary
281
     1
  3
ByBlock
350
3D
  3
ByLayer
350
3C
  3
Global
350
3E
  0
DICTIONARY
  5
B8
102
{ACAD_REACTORS
330
C
102
}
330
C
100
AcDbDictionary
281
     1
  0
DICTIONARY
  5
17
102
{ACAD_REACTORS
330
C
102
}
330
C
100
AcDbDictionary
281
     1
  3
Standard
350
18
  0
DICTIONARY
  5
19
102
{ACAD_REACTORS
330
C
102
}
330
C
100
AcDbDictionary
281
     1
  0
ACDBDICTIONARYWDFLT
  5
E
102
{ACAD_REACTORS
330
C
102
}
330
C
100
AcDbDictionary
281
     1
  3
Normal
350
F
100
AcDbDictionaryWithDefault
340
F
  0
DICTIONARY
  5
B7
102
{ACAD_REACTORS
330
C
102
}
330
C
100
AcDbDictionary
281
     1
  0
DICTIONARY
  5
2A
102
{ACAD_REACTORS
330
C
102
}
330
C
100
AcDbDictionary
281
     1
  3
2dWireframe
350
2F
  3
3D Hidden
350
31
  3
3dWireframe
350
30
  3
Basic
350
32
  3
Brighten
350
36
  3
ColorChange
350
3A
  3
Conceptual
350
34
  3
Dim
350
35
  3
Facepattern
350
39
  3
Flat
350
2B
  3
FlatWithEdges
350
2C
  3
Gouraud
350
2D
  3
GouraudWithEdges
350
2E
  3
Linepattern
350
38
  3
Realistic
350
33
  3
Thicken
350
37
  0
IMAGEDEF
  5
42
102
{ACAD_REACTORS
330
41
330
45
102
}
330
41
100
AcDbRasterImageDef
 90
        0
  1
C:\Users\Administrator\Desktop\white_1.png
 10
255.0
 20
344.0
 11
0.3527777777777777
 21
0.3527777777777777
280
     1
281
     5
  0
LAYOUT
  5
1E
102
{ACAD_REACTORS
330
1A
102
}
330
1A
100
AcDbPlotSettings
  1

  2
none_device
  4

  6

 40
0.0
 41
0.0
 42
0.0
 43
0.0
 44
0.0
 45
0.0
 46
0.0
 47
0.0
 48
0.0
 49
0.0
140
0.0
141
0.0
142
1.0
143
1.0
 70
   688
 72
     0
 73
     0
 74
     5
  7

 75
    16
 76
     0
 77
     2
 78
   300
147
1.0
148
0.0
149
0.0
100
AcDbLayout
  1
Layout1
 70
     1
 71
     1
 10
0.0
 20
0.0
 11
12.0
 21
9.0
 12
0.0
 22
0.0
 32
0.0
 14
1.000000000000000E+20
 24
1.000000000000000E+20
 34
1.000000000000000E+20
 15
-1.000000000000000E+20
 25
-1.000000000000000E+20
 35
-1.000000000000000E+20
146
0.0
 13
0.0
 23
0.0
 33
0.0
 16
1.0
 26
0.0
 36
0.0
 17
0.0
 27
1.0
 37
0.0
 76
     0
330
1B
  0
LAYOUT
  5
26
102
{ACAD_REACTORS
330
1A
102
}
330
1A
100
AcDbPlotSettings
  1

  2
none_device
  4

  6

 40
0.0
 41
0.0
 42
0.0
 43
0.0
 44
0.0
 45
0.0
 46
0.0
 47
0.0
 48
0.0
 49
0.0
140
0.0
141
0.0
142
1.0
143
1.0
 70
   688
 72
     0
 73
     0
 74
     5
  7

 75
    16
 76
     0
 77
     2
 78
   300
147
1.0
148
0.0
149
0.0
100
AcDbLayout
  1
Layout2
 70
     1
 71
     2
 10
0.0
 20
0.0
 11
0.0
 21
0.0
 12
0.0
 22
0.0
 32
0.0
 14
0.0
 24
0.0
 34
0.0
 15
0.0
 25
0.0
 35
0.0
146
0.0
 13
0.0
 23
0.0
 33
0.0
 16
1.0
 26
0.0
 36
0.0
 17
0.0
 27
1.0
 37
0.0
 76
     0
330
23
  0
LAYOUT
  5
22
102
{ACAD_REACTORS
330
1A
102
}
330
1A
100
AcDbPlotSettings
  1

  2
none_device
  4

  6

 40
0.0
 41
0.0
 42
0.0
 43
0.0
 44
0.0
 45
0.0
 46
0.0
 47
0.0
 48
0.0
 49
0.0
140
0.0
141
0.0
142
1.0
143
1.0
 70
  1712
 72
     0
 73
     0
 74
     0
  7

 75
     0
 76
     0
 77
     2
 78
   300
147
1.0
148
0.0
149
0.0
100
AcDbLayout
  1
Model
 70
     1
 71
     0
 10
0.0
 20
0.0
 11
12.0
 21
9.0
 12
0.0
 22
0.0
 32
0.0
 14
1.000000000000000E+20
 24
1.000000000000000E+20
 34
1.000000000000000E+20
 15
-1.000000000000000E+20
 25
-1.000000000000000E+20
 35
-1.000000000000000E+20
146
0.0
 13
0.0
 23
0.0
 33
0.0
 16
1.0
 26
0.0
 36
0.0
 17
0.0
 27
1.0
 37
0.0
 76
     0
330
1F
331
29
  0
MATERIAL
  5
3D
102
{ACAD_REACTORS
330
3B
102
}
330
3B
100
AcDbMaterial
  1
ByBlock
 72
     1
 94
      127
  0
MATERIAL
  5
3C
102
{ACAD_REACTORS
330
3B
102
}
330
3B
100
AcDbMaterial
  1
ByLayer
 72
     1
 94
      127
  0
MATERIAL
  5
3E
102
{ACAD_REACTORS
330
3B
102
}
330
3B
100
AcDbMaterial
  1
Global
 72
     1
 94
      127
  0
MLINESTYLE
  5
18
102
{ACAD_REACTORS
330
17
102
}
330
17
100
AcDbMlineStyle
  2
Standard
 70
     0
  3

 62
   256
 51
90.0
 52
90.0
 71
     2
 49
0.5
 62
   256
  6
BYLAYER
 49
-0.5
 62
   256
  6
BYLAYER
  0
ACDBPLACEHOLDER
  5
F
102
{ACAD_REACTORS
330
E
102
}
330
E
  0
VISUALSTYLE
  5
2F
102
{ACAD_REACTORS
330
2A
102
}
330
2A
100
AcDbVisualStyle
  2
2dWireframe
 70
     4
177
     2
291
     0
 71
     0
176
     1
 72
     2
176
     1
 73
     0
176
     1
 90
        0
176
     1
 40
-0.6
176
     1
 41
-30.0
176
     1
 62
     5
 63
     7
421
 16777215
176
     1
 74
     1
176
     1
 91
        4
176
     1
 64
     7
176
     1
 65
   257
176
     1
 75
     1
176
     1
175
     1
176
     1
 42
1.0
176
     1
 92
        0
176
     1
 66
   257
176
     1
 43
1.0
176
     1
 76
     1
176
     1
 77
     6
176
     1
 78
     2
176
     1
 67
     7
176
     1
 79
     5
176
     1
170
     0
176
     1
171
     0
176
     1
290
     0
176
     1
 93
        1
176
     1
 44
0.0
176
     1
173
     0
176
     1
  0
VISUALSTYLE
  5
31
102
{ACAD_REACTORS
330
2A
102
}
330
2A
100
AcDbVisualStyle
  2
3D Hidden
 70
     6
177
     2
291
     0
 71
     1
176
     1
 72
     2
176
     1
 73
     2
176
     1
 90
        0
176
     1
 40
-0.6
176
     1
 41
-30.0
176
     1
 62
     5
 63
     7
421
 16777215
176
     1
 74
     2
176
     1
 91
        2
176
     1
 64
     7
176
     1
 65
   257
176
     1
 75
     2
176
     1
175
     1
176
     1
 42
40.0
176
     1
 92
        0
176
     1
 66
   257
176
     1
 43
1.0
176
     1
 76
     1
176
     1
 77
     6
176
     1
 78
     2
176
     1
 67
     7
176
     1
 79
     3
176
     1
170
     0
176
     1
171
     0
176
     1
290
     0
176
     1
 93
        1
176
     1
 44
0.0
176
     1
173
     0
176
     1
  0
VISUALSTYLE
  5
30
102
{ACAD_REACTORS
330
2A
102
}
330
2A
100
AcDbVisualStyle
  2
3dWireframe
 70
     5
177
     2
291
     0
 71
     0
176
     1
 72
     2
176
     1
 73
     0
176
     1
 90
        0
176
     1
 40
-0.6
176
     1
 41
-30.0
176
     1
 62
     5
 63
     7
421
 16777215
176
     1
 74
     1
176
     1
 91
        4
176
     1
 64
     7
176
     1
 65
   257
176
     1
 75
     1
176
     1
175
     1
176
     1
 42
1.0
176
     1
 92
        0
176
     1
 66
   257
176
     1
 43
1.0
176
     1
 76
     1
176
     1
 77
     6
176
     1
 78
     2
176
     1
 67
     7
176
     1
 79
     5
176
     1
170
     0
176
     1
171
     0
176
     1
290
     0
176
     1
 93
        1
176
     1
 44
0.0
176
     1
173
     0
176
     1
  0
VISUALSTYLE
  5
32
102
{ACAD_REACTORS
330
2A
102
}
330
2A
100
AcDbVisualStyle
  2
Basic
 70
     7
177
     2
291
     1
 71
     1
176
     1
 72
     0
176
     1
 73
     1
176
     1
 90
        0
176
     1
 40
-0.6
176
     1
 41
-30.0
176
     1
 62
     5
 63
     7
421
 16777215
176
     1
 74
     0
176
     1
 91
        4
176
     1
 64
     7
176
     1
 65
   257
176
     1
 75
     1
176
     1
175
     1
176
     1
 42
1.0
176
     1
 92
        8
176
     1
 66
     7
176
     1
 43
1.0
176
     1
 76
     1
176
     1
 77
     6
176
     1
 78
     2
176
     1
 67
     7
176
     1
 79
     5
176
     1
170
     0
176
     1
171
     0
176
     1
290
     0
176
     1
 93
        1
176
     1
 44
0.0
176
     1
173
     0
176
     1
  0
VISUALSTYLE
  5
36
102
{ACAD_REACTORS
330
2A
102
}
330
2A
100
AcDbVisualStyle
  2
Brighten
 70
    12
177
     2
291
     1
 71
     2
176
     1
 72
     2
176
     1
 73
     0
176
     1
 90
        0
176
     1
 40
-0.6
176
     1
 41
-30.0
176
     1
 62
     5
 63
     7
421
 16777215
176
     1
 74
     1
176
     1
 91
        4
176
     1
 64
     7
176
     1
 65
   257
176
     1
 75
     1
176
     1
175
     1
176
     1
 42
1.0
176
     1
 92
        8
176
     1
 66
     7
176
     1
 43
1.0
176
     1
 76
     1
176
     1
 77
     6
176
     1
 78
     2
176
     1
 67
     7
176
     1
 79
     5
176
     1
170
     0
176
     1
171
     0
176
     1
290
     0
176
     1
 93
        1
176
     1
 44
50.0
176
     1
173
     0
176
     1
  0
VISUALSTYLE
  5
3A
102
{ACAD_REACTORS
330
2A
102
}
330
2A
100
AcDbVisualStyle
  2
ColorChange
 70
    16
177
     2
291
     1
 71
     2
176
     1
 72
     2
176
     1
 73
     3
176
     1
 90
        0
176
     1
 40
-0.6
176
     1
 41
-30.0
176
     1
 62
     5
 63
     8
421
  8421504
176
     1
 74
     1
176
     1
 91
        4
176
     1
 64
     7
176
     1
 65
   257
176
     1
 75
     1
176
     1
175
     1
176
     1
 42
1.0
176
     1
 92
        8
176
     1
 66
     8
424
  8421504
176
     1
 43
1.0
176
     1
 76
     1
176
     1
 77
     6
176
     1
 78
     2
176
     1
 67
     7
176
     1
 79
     5
176
     1
170
     0
176
     1
171
     0
176
     1
290
     0
176
     1
 93
        1
176
     1
 44
0.0
176
     1
173
     0
176
     1
  0
VISUALSTYLE
  5
34
102
{ACAD_REACTORS
330
2A
102
}
330
2A
100
AcDbVisualStyle
  2
Conceptual
 70
     9
177
     2
291
     0
 71
     3
176
     1
 72
     2
176
     1
 73
     0
176
     1
 90
        0
176
     1
 40
-0.6
176
     1
 41
-30.0
176
     1
 62
     5
 63
     7
421
 16777215
176
     1
 74
     2
176
     1
 91
        2
176
     1
 64
     7
176
     1
 65
   257
176
     1
 75
     1
176
     1
175
     1
176
     1
 42
40.0
176
     1
 92
        8
176
     1
 66
     7
176
     1
 43
1.0
176
     1
 76
     1
176
     1
 77
     6
176
     1
 78
     2
176
     1
 67
     7
176
     1
 79
     3
176
     1
170
     0
176
     1
171
     0
176
     1
290
     0
176
     1
 93
        1
176
     1
 44
0.0
176
     1
173
     0
176
     1
  0
VISUALSTYLE
  5
35
102
{ACAD_REACTORS
330
2A
102
}
330
2A
100
AcDbVisualStyle
  2
Dim
 70
    11
177
     2
291
     1
 71
     2
176
     1
 72
     2
176
     1
 73
     0
176
     1
 90
        0
176
     1
 40
-0.6
176
     1
 41
-30.0
176
     1
 62
     5
 63
     7
421
 16777215
176
     1
 74
     1
176
     1
 91
        4
176
     1
 64
     7
176
     1
 65
   257
176
     1
 75
     1
176
     1
175
     1
176
     1
 42
1.0
176
     1
 92
        8
176
     1
 66
     7
176
     1
 43
1.0
176
     1
 76
     1
176
     1
 77
     6
176
     1
 78
     2
176
     1
 67
     7
176
     1
 79
     5
176
     1
170
     0
176
     1
171
     0
176
     1
290
     0
176
     1
 93
        1
176
     1
 44
-50.0
176
     1
173
     0
176
     1
  0
VISUALSTYLE
  5
39
102
{ACAD_REACTORS
330
2A
102
}
330
2A
100
AcDbVisualStyle
  2
Facepattern
 70
    15
177
     2
291
     1
 71
     2
176
     1
 72
     2
176
     1
 73
     0
176
     1
 90
        0
176
     1
 40
-0.6
176
     1
 41
-30.0
176
     1
 62
     5
 63
     7
421
 16777215
176
     1
 74
     1
176
     1
 91
        4
176
     1
 64
     7
176
     1
 65
   257
176
     1
 75
     1
176
     1
175
     1
176
     1
 42
1.0
176
     1
 92
        8
176
     1
 66
     7
176
     1
 43
1.0
176
     1
 76
     1
176
     1
 77
     6
176
     1
 78
     2
176
     1
 67
     7
176
     1
 79
     5
176
     1
170
     0
176
     1
171
     0
176
     1
290
     0
176
     1
 93
        1
176
     1
 44
0.0
176
     1
173
     0
176
     1
  0
VISUALSTYLE
  5
2B
102
{ACAD_REACTORS
330
2A
102
}
330
2A
100
AcDbVisualStyle
  2
Flat
 70
     0
177
     2
291
     1
 71
     2
176
     1
 72
     1
176
     1
 73
     1
176
     1
 90
        2
176
     1
 40
-0.6
176
     1
 41
30.0
176
     1
 62
     5
 63
     7
421
 16777215
176
     1
 74
     0
176
     1
 91
        4
176
     1
 64
     7
176
     1
 65
   257
176
     1
 75
     1
176
     1
175
     1
176
     1
 42
1.0
176
     1
 92
        8
176
     1
 66
     7
176
     1
 43
1.0
176
     1
 76
     1
176
     1
 77
     6
176
     1
 78
     2
176
     1
 67
     7
176
     1
 79
     5
176
     1
170
     0
176
     1
171
     0
176
     1
290
     0
176
     1
 93
       13
176
     1
 44
0.0
176
     1
173
     0
176
     1
  0
VISUALSTYLE
  5
2C
102
{ACAD_REACTORS
330
2A
102
}
330
2A
100
AcDbVisualStyle
  2
FlatWithEdges
 70
     1
177
     2
291
     1
 71
     2
176
     1
 72
     1
176
     1
 73
     1
176
     1
 90
        2
176
     1
 40
-0.6
176
     1
 41
30.0
176
     1
 62
     5
 63
     7
421
 16777215
176
     1
 74
     1
176
     1
 91
        4
176
     1
 64
     7
176
     1
 65
   257
176
     1
 75
     1
176
     1
175
     1
176
     1
 42
1.0
176
     1
 92
        0
176
     1
 66
   257
176
     1
 43
1.0
176
     1
 76
     1
176
     1
 77
     6
176
     1
 78
     2
176
     1
 67
     7
176
     1
 79
     5
176
     1
170
     0
176
     1
171
     0
176
     1
290
     0
176
     1
 93
       13
176
     1
 44
0.0
176
     1
173
     0
176
     1
  0
VISUALSTYLE
  5
2D
102
{ACAD_REACTORS
330
2A
102
}
330
2A
100
AcDbVisualStyle
  2
Gouraud
 70
     2
177
     2
291
     1
 71
     2
176
     1
 72
     2
176
     1
 73
     1
176
     1
 90
        2
176
     1
 40
-0.6
176
     1
 41
30.0
176
     1
 62
     5
 63
     7
421
 16777215
176
     1
 74
     0
176
     1
 91
        4
176
     1
 64
     7
176
     1
 65
   257
176
     1
 75
     1
176
     1
175
     1
176
     1
 42
1.0
176
     1
 92
        0
176
     1
 66
     7
176
     1
 43
1.0
176
     1
 76
     1
176
     1
 77
     6
176
     1
 78
     2
176
     1
 67
     7
176
     1
 79
     5
176
     1
170
     0
176
     1
171
     0
176
     1
290
     0
176
     1
 93
       13
176
     1
 44
0.0
176
     1
173
     0
176
     1
  0
VISUALSTYLE
  5
2E
102
{ACAD_REACTORS
330
2A
102
}
330
2A
100
AcDbVisualStyle
  2
GouraudWithEdges
 70
     3
177
     2
291
     1
 71
     2
176
     1
 72
     2
176
     1
 73
     1
176
     1
 90
        2
176
     1
 40
-0.6
176
     1
 41
30.0
176
     1
 62
     5
 63
     7
421
 16777215
176
     1
 74
     1
176
     1
 91
        4
176
     1
 64
     7
176
     1
 65
   257
176
     1
 75
     1
176
     1
175
     1
176
     1
 42
1.0
176
     1
 92
        0
176
     1
 66
   257
176
     1
 43
1.0
176
     1
 76
     1
176
     1
 77
     6
176
     1
 78
     2
176
     1
 67
     7
176
     1
 79
     5
176
     1
170
     0
176
     1
171
     0
176
     1
290
     0
176
     1
 93
       13
176
     1
 44
0.0
176
     1
173
     0
176
     1
  0
VISUALSTYLE
  5
38
102
{ACAD_REACTORS
330
2A
102
}
330
2A
100
AcDbVisualStyle
  2
Linepattern
 70
    14
177
     2
291
     1
 71
     2
176
     1
 72
     2
176
     1
 73
     0
176
     1
 90
        0
176
     1
 40
-0.6
176
     1
 41
-30.0
176
     1
 62
     5
 63
     7
421
 16777215
176
     1
 74
     1
176
     1
 91
        4
176
     1
 64
     7
176
     1
 65
   257
176
     1
 75
     7
176
     1
175
     7
176
     1
 42
1.0
176
     1
 92
        8
176
     1
 66
     7
176
     1
 43
1.0
176
     1
 76
     1
176
     1
 77
     6
176
     1
 78
     2
176
     1
 67
     7
176
     1
 79
     5
176
     1
170
     0
176
     1
171
     0
176
     1
290
     0
176
     1
 93
        1
176
     1
 44
0.0
176
     1
173
     0
176
     1
  0
VISUALSTYLE
  5
33
102
{ACAD_REACTORS
330
2A
102
}
330
2A
100
AcDbVisualStyle
  2
Realistic
 70
     8
177
     2
291
     0
 71
     2
176
     1
 72
     2
176
     1
 73
     0
176
     1
 90
        0
176
     1
 40
-0.6
176
     1
 41
-30.0
176
     1
 62
     5
 63
     7
421
 16777215
176
     1
 74
     1
176
     1
 91
        0
176
     1
 64
     7
176
     1
 65
   257
176
     1
 75
     1
176
     1
175
     1
176
     1
 42
1.0
176
     1
 92
        8
176
     1
 66
     8
424
  7895160
176
     1
 43
1.0
176
     1
 76
     1
176
     1
 77
     6
176
     1
 78
     2
176
     1
 67
     7
176
     1
 79
     5
176
     1
170
     0
176
     1
171
     0
176
     1
290
     0
176
     1
 93
       13
176
     1
 44
0.0
176
     1
173
     0
176
     1
  0
VISUALSTYLE
  5
37
102
{ACAD_REACTORS
330
2A
102
}
330
2A
100
AcDbVisualStyle
  2
Thicken
 70
    13
177
     2
291
     1
 71
     2
176
     1
 72
     2
176
     1
 73
     0
176
     1
 90
        0
176
     1
 40
-0.6
176
     1
 41
-30.0
176
     1
 62
     5
 63
     7
421
 16777215
176
     1
 74
     1
176
     1
 91
        4
176
     1
 64
     7
176
     1
 65
   257
176
     1
 75
     1
176
     1
175
     1
176
     1
 42
1.0
176
     1
 92
       12
176
     1
 66
     7
176
     1
 43
1.0
176
     1
 76
     1
176
     1
 77
     6
176
     1
 78
     2
176
     1
 67
     7
176
     1
 79
     5
176
     1
170
     0
176
     1
171
     0
176
     1
290
     0
176
     1
 93
        1
176
     1
 44
0.0
176
     1
173
     0
176
     1
  0
ENDSEC
  0
EOF
