  0
SECTION
  2
HEADER
  9
$ACADVER
  1
AC1015
  9
$ACADMAINTVER
 70
     6
  9
$DWGCODEPAGE
  3
ANSI_1252
  9
$INSBASE
 10
0.0
 20
0.0
 30
0.0
  9
$EXTMIN
 10
0.0
 20
0.0
 30
0.0
  9
$EXTMAX
 10
1159.141479
 20
747.778198
 30
2.0
  9
$LIMMIN
 10
0.0
 20
0.0
  9
$LIMMAX
 10
420.0
 20
297.0
  9
$ORTHOMODE
 70
     0
  9
$REGENMODE
 70
     1
  9
$FILLMODE
 70
     1
  9
$QTEXTMODE
 70
     0
  9
$MIRRTEXT
 70
     1
  9
$LTSCALE
 40
1.0
  9
$ATTMODE
 70
     1
  9
$TEXTSIZE
 40
2.5
  9
$TRACEWID
 40
1.0
  9
$TEXTSTYLE
  7
Standard
  9
$CLAYER
  8
0
  9
$CELTYPE
  6
ByLayer
  9
$CECOLOR
 62
   256
  9
$CELTSCALE
 40
1.0
  9
$DISPSILH
 70
     0
  9
$DIMSCALE
 40
1.0
  9
$DIMASZ
 40
2.5
  9
$DIMEXO
 40
0.625
  9
$DIMDLI
 40
3.75
  9
$DIMRND
 40
0.0
  9
$DIMDLE
 40
0.0
  9
$DIMEXE
 40
1.25
  9
$DIMTP
 40
0.0
  9
$DIMTM
 40
0.0
  9
$DIMTXT
 40
2.5
  9
$DIMCEN
 40
2.5
  9
$DIMTSZ
 40
0.0
  9
$DIMTOL
 70
     0
  9
$DIMLIM
 70
     0
  9
$DIMTIH
 70
     0
  9
$DIMTOH
 70
     0
  9
$DIMSE1
 70
     0
  9
$DIMSE2
 70
     0
  9
$DIMTAD
 70
     1
  9
$DIMZIN
 70
     8
  9
$DIMBLK
  1

  9
$DIMASO
 70
     1
  9
$DIMSHO
 70
     1
  9
$DIMPOST
  1

  9
$DIMAPOST
  1

  9
$DIMALT
 70
     0
  9
$DIMALTD
 70
     3
  9
$DIMALTF
 40
0.03937
  9
$DIMLFAC
 40
1.0
  9
$DIMTOFL
 70
     1
  9
$DIMTVP
 40
0.0
  9
$DIMTIX
 70
     0
  9
$DIMSOXD
 70
     0
  9
$DIMSAH
 70
     0
  9
$DIMBLK1
  1

  9
$DIMBLK2
  1

  9
$DIMSTYLE
  2
Standard
  9
$DIMCLRD
 70
     0
  9
$DIMCLRE
 70
     0
  9
$DIMCLRT
 70
     0
  9
$DIMTFAC
 40
1.0
  9
$DIMGAP
 40
0.625
  9
$DIMJUST
 70
     0
  9
$DIMSD1
 70
     0
  9
$DIMSD2
 70
     0
  9
$DIMTOLJ
 70
     0
  9
$DIMTZIN
 70
     8
  9
$DIMALTZ
 70
     0
  9
$DIMALTTZ
 70
     0
  9
$DIMUPT
 70
     0
  9
$DIMDEC
 70
     2
  9
$DIMTDEC
 70
     2
  9
$DIMALTU
 70
     2
  9
$DIMALTTD
 70
     3
  9
$DIMTXSTY
  7
Standard
  9
$DIMAUNIT
 70
     0
  9
$DIMADEC
 70
     0
  9
$DIMALTRND
 40
0.0
  9
$DIMAZIN
 70
     0
  9
$DIMDSEP
 70
    44
  9
$DIMATFIT
 70
     0
  9
$DIMFRAC
 70
     0
  9
$DIMLDRBLK
  1

  9
$DIMLUNIT
 70
     2
  9
$DIMLWD
 70
    -2
  9
$DIMLWE
 70
    -2
  9
$DIMTMOVE
 70
     0
  9
$LUNITS
 70
     2
  9
$LUPREC
 70
     4
  9
$SKETCHINC
 40
1.0
  9
$FILLETRAD
 40
2.5
  9
$AUNITS
 70
     0
  9
$AUPREC
 70
     0
  9
$MENU
  1
.
  9
$ELEVATION
 40
0.0
  9
$PELEVATION
 40
0.0
  9
$THICKNESS
 40
0.0
  9
$LIMCHECK
 70
     0
  9
$CHAMFERA
 40
2.5
  9
$CHAMFERB
 40
2.5
  9
$CHAMFERC
 40
0.0
  9
$CHAMFERD
 40
0.0
  9
$SKPOLY
 70
     0
  9
$TDCREATE
 40
2447893.125
  9
$TDUCREATE
 40
0.0
  9
$TDUPDATE
 40
2457994.412569653
  9
$TDUUPDATE
 40
2457994.287569653
  9
$TDINDWG
 40
0.0
  9
$TDUSRTIMER
 40
0.0
  9
$USRTIMER
 70
     1
  9
$ANGBASE
 50
0.0
  9
$ANGDIR
 70
     0
  9
$PDMODE
 70
     0
  9
$PDSIZE
 40
0.0
  9
$PLINEWID
 40
0.0
  9
$SPLFRAME
 70
     0
  9
$SPLINETYPE
 70
     6
  9
$SPLINESEGS
 70
     8
  9
$HANDSEED
  5
983
  9
$SURFTAB1
 70
     6
  9
$SURFTAB2
 70
     6
  9
$SURFTYPE
 70
     6
  9
$SURFU
 70
     6
  9
$SURFV
 70
     6
  9
$UCSBASE
  2

  9
$UCSNAME
  2

  9
$UCSORG
 10
0.0
 20
0.0
 30
0.0
  9
$UCSXDIR
 10
1.0
 20
0.0
 30
0.0
  9
$UCSYDIR
 10
0.0
 20
1.0
 30
0.0
  9
$UCSORTHOREF
  2

  9
$UCSORTHOVIEW
 70
     1
  9
$UCSORGTOP
 10
0.0
 20
0.0
 30
0.0
  9
$UCSORGBOTTOM
 10
0.0
 20
0.0
 30
0.0
  9
$UCSORGLEFT
 10
0.0
 20
0.0
 30
0.0
  9
$UCSORGRIGHT
 10
0.0
 20
0.0
 30
0.0
  9
$UCSORGFRONT
 10
0.0
 20
0.0
 30
0.0
  9
$UCSORGBACK
 10
0.0
 20
0.0
 30
0.0
  9
$PUCSBASE
  2

  9
$PUCSNAME
  2

  9
$PUCSORG
 10
0.0
 20
0.0
 30
0.0
  9
$PUCSXDIR
 10
1.0
 20
0.0
 30
0.0
  9
$PUCSYDIR
 10
0.0
 20
1.0
 30
0.0
  9
$PUCSORTHOREF
  2

  9
$PUCSORTHOVIEW
 70
     0
  9
$PUCSORGTOP
 10
0.0
 20
0.0
 30
0.0
  9
$PUCSORGBOTTOM
 10
0.0
 20
0.0
 30
0.0
  9
$PUCSORGLEFT
 10
0.0
 20
0.0
 30
0.0
  9
$PUCSORGRIGHT
 10
0.0
 20
0.0
 30
0.0
  9
$PUCSORGFRONT
 10
0.0
 20
0.0
 30
0.0
  9
$PUCSORGBACK
 10
0.0
 20
0.0
 30
0.0
  9
$USERI1
 70
     0
  9
$USERI2
 70
     0
  9
$USERI3
 70
     0
  9
$USERI4
 70
     0
  9
$USERI5
 70
     0
  9
$USERR1
 40
0.0
  9
$USERR2
 40
0.0
  9
$USERR3
 40
0.0
  9
$USERR4
 40
0.0
  9
$USERR5
 40
0.0
  9
$WORLDVIEW
 70
     1
  9
$SHADEDGE
 70
     3
  9
$SHADEDIF
 70
    70
  9
$TILEMODE
 70
     1
  9
$MAXACTVP
 70
    64
  9
$PINSBASE
 10
0.0
 20
0.0
 30
0.0
  9
$PLIMCHECK
 70
     0
  9
$PEXTMIN
 10
0.0
 20
0.0
 30
0.0
  9
$PEXTMAX
 10
1159.141479
 20
747.778198
 30
2.0
  9
$PLIMMIN
 10
0.0
 20
0.0
  9
$PLIMMAX
 10
420.0
 20
297.0
  9
$UNITMODE
 70
     0
  9
$VISRETAIN
 70
     0
  9
$PLINEGEN
 70
     0
  9
$PSLTSCALE
 70
     1
  9
$TREEDEPTH
 70
  3020
  9
$CMLSTYLE
  2
Standard
  9
$CMLJUST
 70
     0
  9
$CMLSCALE
 40
20.0
  9
$PROXYGRAPHICS
 70
     1
  9
$MEASUREMENT
 70
     1
  9
$CELWEIGHT
370
    -1
  9
$ENDCAPS
280
     0
  9
$JOINSTYLE
280
     0
  9
$LWDISPLAY
290
     0
  9
$INSUNITS
 70
     0
  9
$HYPERLINKBASE
  1

  9
$STYLESHEET
  1

  9
$XEDIT
290
     1
  9
$CEPSNTYPE
380
     0
  9
$PSTYLEMODE
290
     0
  9
$FINGERPRINTGUID
  2
{167F60CA-DF03-4D15-A216-5CC130ECC892}
  9
$VERSIONGUID
  2
{FAEB1C32-E019-11D5-929B-00C0DF256EC4}
  9
$EXTNAMES
290
     1
  9
$PSVPSCALE
 40
0.0
  9
$OLESTARTUP
290
     0
  0
ENDSEC
  0
SECTION
  2
CLASSES
  0
CLASS
  1
ACDBDICTIONARYWDFLT
  2
AcDbDictionaryWithDefault
  3
ObjectDBX Classes
 90
        0
280
     0
281
     0
  0
CLASS
  1
VISUALSTYLE
  2
AcDbVisualStyle
  3
ObjectDBX Classes
 90
     4095
280
     0
281
     0
  0
CLASS
  1
MATERIAL
  2
AcDbMaterial
  3
ObjectDBX Classes
 90
     1153
280
     0
281
     0
  0
CLASS
  1
SCALE
  2
AcDbScale
  3
ObjectDBX Classes
 90
     1153
280
     0
281
     0
  0
CLASS
  1
SUN
  2
AcDbSun
  3
SCENEOE
 90
     1153
280
     0
281
     0
  0
CLASS
  1
ACDBPLACEHOLDER
  2
AcDbPlaceHolder
  3
ObjectDBX Classes
 90
        0
280
     0
281
     0
  0
CLASS
  1
LAYOUT
  2
AcDbLayout
  3
ObjectDBX Classes
 90
        0
280
     0
281
     0
  0
ENDSEC
  0
SECTION
  2
TABLES
  0
TABLE
  2
VPORT
  5
8
330
0
100
AcDbSymbolTable
 70
     1
  0
VPORT
  5
29
330
8
100
AcDbSymbolTableRecord
100
AcDbViewportTableRecord
  2
*Active
 70
     0
 10
0.0
 20
0.0
 11
1.0
 21
1.0
 12
10.429907
 22
4.5
 13
0.0
 23
0.0
 14
0.5
 24
0.5
 15
0.5
 25
0.5
 16
0.0
 26
0.0
 36
1.0
 17
0.0
 27
0.0
 37
0.0
 40
9.0
 41
1.972973
 42
50.0
 43
0.0
 44
0.0
 50
0.0
 51
0.0
 71
     0
 72
   100
 73
     1
 74
     3
 75
     0
 76
     0
 77
     0
 78
     0
281
     0
 65
     1
110
0.0
120
0.0
130
0.0
111
1.0
121
0.0
131
0.0
112
0.0
122
1.0
132
0.0
 79
     0
146
0.0
  0
ENDTAB
  0
TABLE
  2
LTYPE
  5
5
330
0
100
AcDbSymbolTable
 70
     2
  0
LTYPE
  5
14
330
5
100
AcDbSymbolTableRecord
100
AcDbLinetypeTableRecord
  2
ByBlock
 70
     0
  3

 72
    65
 73
     0
 40
0.0
  0
LTYPE
  5
15
330
5
100
AcDbSymbolTableRecord
100
AcDbLinetypeTableRecord
  2
ByLayer
 70
     0
  3

 72
    65
 73
     0
 40
0.0
  0
LTYPE
  5
16
330
5
100
AcDbSymbolTableRecord
100
AcDbLinetypeTableRecord
  2
Continuous
 70
     0
  3
Solid line
 72
    65
 73
     0
 40
0.0
  0
LTYPE
  5
6A
330
5
100
AcDbSymbolTableRecord
100
AcDbLinetypeTableRecord
  2
DASHDOT
 70
     0
  3
 __ . __ . __ . __ . __ . __ . __ . 
 72
    65
 73
     4
 40
18.5
 49
12.0
 74
     0
 49
-3.0
 74
     0
 49
0.5
 74
     0
 49
-3.0
 74
     0
  0
ENDTAB
  0
TABLE
  2
LAYER
  5
2
330
0
100
AcDbSymbolTable
 70
     1
  0
LAYER
  5
10
330
2
100
AcDbSymbolTableRecord
100
AcDbLayerTableRecord
  2
0
 70
     0
 62
     7
  6
Continuous
370
    -3
390
F
  0
ENDTAB
  0
TABLE
  2
STYLE
  5
3
330
0
100
AcDbSymbolTable
 70
     1
  0
STYLE
  5
11
330
3
100
AcDbSymbolTableRecord
100
AcDbTextStyleTableRecord
  2
Standard
 70
     0
 40
0.0
 41
1.0
 50
0.0
 71
     0
 42
2.5
  3
txt
  4

  0
ENDTAB
  0
TABLE
  2
VIEW
  5
6
330
0
100
AcDbSymbolTable
 70
     0
  0
ENDTAB
  0
TABLE
  2
UCS
  5
7
330
0
100
AcDbSymbolTable
 70
     0
  0
ENDTAB
  0
TABLE
  2
APPID
  5
9
330
0
100
AcDbSymbolTable
 70
     1
  0
APPID
  5
12
330
9
100
AcDbSymbolTableRecord
100
AcDbRegAppTableRecord
  2
ACAD
 70
     0
  0
ENDTAB
  0
TABLE
  2
DIMSTYLE
  5
A
330
0
100
AcDbSymbolTable
 70
     1
100
AcDbDimStyleTable
  0
DIMSTYLE
105
27
330
A
100
AcDbSymbolTableRecord
100
AcDbDimStyleTableRecord
  2
Standard
 70
     0
178
     0
340
11
  0
ENDTAB
  0
TABLE
  2
BLOCK_RECORD
  5
1
330
0
100
AcDbSymbolTable
 70
     1
  0
BLOCK_RECORD
  5
1F
330
1
100
AcDbSymbolTableRecord
100
AcDbBlockTableRecord
  2
*Model_Space
340
22
  0
BLOCK_RECORD
  5
1B
330
1
100
AcDbSymbolTableRecord
100
AcDbBlockTableRecord
  2
*Paper_Space
340
1E
  0
BLOCK_RECORD
  5
23
330
1
100
AcDbSymbolTableRecord
100
AcDbBlockTableRecord
  2
*Paper_Space0
340
26
  0
ENDTAB
  0
ENDSEC
  0
SECTION
  2
BLOCKS
  0
BLOCK
  5
20
330
1F
100
AcDbEntity
  8
0
100
AcDbBlockBegin
  2
*Model_Space
 70
     0
 10
0.0
 20
0.0
 30
0.0
  3
*Model_Space
  1
*Model_Space
  0
ENDBLK
  5
21
330
1F
100
AcDbEntity
  8
0
100
AcDbBlockEnd
  0
BLOCK
  5
1C
330
1B
100
AcDbEntity
 67
     1
  8
0
100
AcDbBlockBegin
  2
*Paper_Space
 70
     0
 10
0.0
 20
0.0
 30
0.0
  3
*Paper_Space
  1
*Paper_Space
  0
ENDBLK
  5
1D
330
1B
100
AcDbEntity
 67
     1
  8
0
100
AcDbBlockEnd
  0
BLOCK
  5
24
330
23
100
AcDbEntity
  8
0
100
AcDbBlockBegin
  2
*Paper_Space0
 70
     0
 10
0.0
 20
0.0
 30
0.0
  3
*Paper_Space0
  1
*Paper_Space0
  0
ENDBLK
  5
25
330
23
100
AcDbEntity
  8
0
100
AcDbBlockEnd
  0
ENDSEC
  0
SECTION
  2
ENTITIES
  0
CIRCLE
  5
6B
330
1F
100
AcDbEntity
  8
0
 62
     7
370
    35
100
AcDbCircle
 10
499.209747
 20
330.47522
 30
0.0
 40
18.51755523681641
  0
CIRCLE
  5
6C
330
1F
100
AcDbEntity
  8
0
 62
     7
370
    35
100
AcDbCircle
 10
301.709747
 20
345.47522
 30
0.0
 40
18.38093757629395
  0
CIRCLE
  5
6D
330
1F
100
AcDbEntity
  8
0
 62
     7
370
    35
100
AcDbCircle
 10
499.209747
 20
330.47522
 30
0.0
 40
25.47094917297363
  0
CIRCLE
  5
6E
330
1F
100
AcDbEntity
  8
0
 62
     7
370
    35
100
AcDbCircle
 10
301.709747
 20
345.47522
 30
0.0
 40
25.047119140625
  0
POLYLINE
  5
6F
330
1F
100
AcDbEntity
  8
0
 62
     7
370
    13
100
AcDb2dPolyline
 66
     1
 10
0.0
 20
0.0
 30
0.0
  0
VERTEX
  5
70
330
6F
100
AcDbEntity
  8
0
370
     0
100
AcDbVertex
100
AcDb2dVertex
 10
297.467468
 20
513.861206
 30
0.0
  0
VERTEX
  5
71
330
6F
100
AcDbEntity
  8
0
370
     0
100
AcDbVertex
100
AcDb2dVertex
 10
298.822327
 20
512.957947
 30
0.0
  0
VERTEX
  5
72
330
6F
100
AcDbEntity
  8
0
370
     0
100
AcDbVertex
100
AcDb2dVertex
 10
301.080383
 20
512.280518
 30
0.0
  0
VERTEX
  5
73
330
6F
100
AcDbEntity
  8
0
370
     0
100
AcDbVertex
100
AcDb2dVertex
 10
302.886841
 20
512.280518
 30
0.0
  0
VERTEX
  5
74
330
6F
100
AcDbEntity
  8
0
370
     0
100
AcDbVertex
100
AcDb2dVertex
 10
305.144897
 20
512.957947
 30
0.0
  0
SEQEND
  5
75
330
6F
100
AcDbEntity
  8
0
 62
     7
370
    13
  0
POLYLINE
  5
76
330
1F
100
AcDbEntity
  8
0
 62
     7
370
    13
100
AcDb2dPolyline
 66
     1
 10
0.0
 20
0.0
 30
0.0
  0
VERTEX
  5
77
330
76
100
AcDbEntity
  8
0
370
     0
100
AcDbVertex
100
AcDb2dVertex
 10
305.144897
 20
525.603149
 30
0.0
  0
VERTEX
  5
78
330
76
100
AcDbEntity
  8
0
370
     0
100
AcDbVertex
100
AcDb2dVertex
 10
302.886841
 20
526.280518
 30
0.0
  0
VERTEX
  5
79
330
76
100
AcDbEntity
  8
0
370
     0
100
AcDbVertex
100
AcDb2dVertex
 10
301.080383
 20
526.280518
 30
0.0
  0
VERTEX
  5
7A
330
76
100
AcDbEntity
  8
0
370
     0
100
AcDbVertex
100
AcDb2dVertex
 10
298.822327
 20
525.603149
 30
0.0
  0
SEQEND
  5
7B
330
76
100
AcDbEntity
  8
0
 62
     7
370
    13
  0
POLYLINE
  5
7C
330
1F
100
AcDbEntity
  8
0
 62
     7
370
    13
100
AcDb2dPolyline
 66
     1
 10
0.0
 20
0.0
 30
0.0
  0
VERTEX
  5
7D
330
7C
100
AcDbEntity
  8
0
370
     0
100
AcDbVertex
100
AcDb2dVertex
 10
297.467468
 20
513.861206
 30
0.0
  0
VERTEX
  5
7E
330
7C
100
AcDbEntity
  8
0
370
     0
100
AcDbVertex
100
AcDb2dVertex
 10
296.790039
 20
515.216064
 30
0.0
  0
VERTEX
  5
7F
330
7C
100
AcDbEntity
  8
0
370
     0
100
AcDbVertex
100
AcDb2dVertex
 10
296.790039
 20
516.570862
 30
0.0
  0
VERTEX
  5
80
330
7C
100
AcDbEntity
  8
0
370
     0
100
AcDbVertex
100
AcDb2dVertex
 10
297.467468
 20
517.92572
 30
0.0
  0
VERTEX
  5
81
330
7C
100
AcDbEntity
  8
0
370
     0
100
AcDbVertex
100
AcDb2dVertex
 10
299.048126
 20
519.280518
 30
0.0
  0
VERTEX
  5
82
330
7C
100
AcDbEntity
  8
0
370
     0
100
AcDbVertex
100
AcDb2dVertex
 10
303.790039
 20
520.635376
 30
0.0
  0
VERTEX
  5
83
330
7C
100
AcDbEntity
  8
0
370
     0
100
AcDbVertex
100
AcDb2dVertex
 10
304.919098
 20
521.087036
 30
0.0
  0
VERTEX
  5
84
330
7C
100
AcDbEntity
  8
0
370
     0
100
AcDbVertex
100
AcDb2dVertex
 10
305.596497
 20
521.764404
 30
0.0
  0
VERTEX
  5
85
330
7C
100
AcDbEntity
  8
0
370
     0
100
AcDbVertex
100
AcDb2dVertex
 10
306.048126
 20
522.893433
 30
0.0
  0
VERTEX
  5
86
330
7C
100
AcDbEntity
  8
0
370
     0
100
AcDbVertex
100
AcDb2dVertex
 10
306.048126
 20
524.474121
 30
0.0
  0
VERTEX
  5
87
330
7C
100
AcDbEntity
  8
0
370
     0
100
AcDbVertex
100
AcDb2dVertex
 10
305.144897
 20
525.603149
 30
0.0
  0
SEQEND
  5
88
330
7C
100
AcDbEntity
  8
0
 62
     7
370
    13
  0
POLYLINE
  5
89
330
1F
100
AcDbEntity
  8
0
 62
     7
370
    13
100
AcDb2dPolyline
 66
     1
 10
0.0
 20
0.0
 30
0.0
  0
VERTEX
  5
8A
330
89
100
AcDbEntity
  8
0
370
     0
100
AcDbVertex
100
AcDb2dVertex
 10
298.822327
 20
525.603149
 30
0.0
  0
VERTEX
  5
8B
330
89
100
AcDbEntity
  8
0
370
     0
100
AcDbVertex
100
AcDb2dVertex
 10
297.919098
 20
524.474121
 30
0.0
  0
VERTEX
  5
8C
330
89
100
AcDbEntity
  8
0
370
     0
100
AcDbVertex
100
AcDb2dVertex
 10
297.919098
 20
522.893433
 30
0.0
  0
VERTEX
  5
8D
330
89
100
AcDbEntity
  8
0
370
     0
100
AcDbVertex
100
AcDb2dVertex
 10
298.370697
 20
521.764404
 30
0.0
  0
VERTEX
  5
8E
330
89
100
AcDbEntity
  8
0
370
     0
100
AcDbVertex
100
AcDb2dVertex
 10
299.048126
 20
521.087036
 30
0.0
  0
VERTEX
  5
8F
330
89
100
AcDbEntity
  8
0
370
     0
100
AcDbVertex
100
AcDb2dVertex
 10
300.177155
 20
520.635376
 30
0.0
  0
VERTEX
  5
90
330
89
100
AcDbEntity
  8
0
370
     0
100
AcDbVertex
100
AcDb2dVertex
 10
305.144897
 20
519.280518
 30
0.0
  0
SEQEND
  5
91
330
89
100
AcDbEntity
  8
0
 62
     7
370
    13
  0
POLYLINE
  5
92
330
1F
100
AcDbEntity
  8
0
 62
     7
370
    13
100
AcDb2dPolyline
 66
     1
 10
0.0
 20
0.0
 30
0.0
  0
VERTEX
  5
93
330
92
100
AcDbEntity
  8
0
370
     0
100
AcDbVertex
100
AcDb2dVertex
 10
306.725525
 20
517.92572
 30
0.0
  0
VERTEX
  5
94
330
92
100
AcDbEntity
  8
0
370
     0
100
AcDbVertex
100
AcDb2dVertex
 10
307.402954
 20
516.570862
 30
0.0
  0
VERTEX
  5
95
330
92
100
AcDbEntity
  8
0
370
     0
100
AcDbVertex
100
AcDb2dVertex
 10
307.402954
 20
515.216064
 30
0.0
  0
VERTEX
  5
96
330
92
100
AcDbEntity
  8
0
370
     0
100
AcDbVertex
100
AcDb2dVertex
 10
306.725525
 20
513.861206
 30
0.0
  0
VERTEX
  5
97
330
92
100
AcDbEntity
  8
0
370
     0
100
AcDbVertex
100
AcDb2dVertex
 10
305.144897
 20
512.957947
 30
0.0
  0
SEQEND
  5
98
330
92
100
AcDbEntity
  8
0
 62
     7
370
    13
  0
POLYLINE
  5
99
330
1F
100
AcDbEntity
  8
0
 62
     7
370
    13
100
AcDb2dPolyline
 66
     1
 10
0.0
 20
0.0
 30
0.0
  0
VERTEX
  5
9A
330
99
100
AcDbEntity
  8
0
370
     0
100
AcDbVertex
100
AcDb2dVertex
 10
306.725525
 20
517.92572
 30
0.0
  0
VERTEX
  5
9B
330
99
100
AcDbEntity
  8
0
370
     0
100
AcDbVertex
100
AcDb2dVertex
 10
305.144897
 20
519.280518
 30
0.0
  0
SEQEND
  5
9C
330
99
100
AcDbEntity
  8
0
 62
     7
370
    13
  0
POLYLINE
  5
9D
330
1F
100
AcDbEntity
  8
0
 62
     7
370
    13
100
AcDb2dPolyline
 66
     1
 10
0.0
 20
0.0
 30
0.0
  0
VERTEX
  5
9E
330
9D
100
AcDbEntity
  8
0
370
     0
100
AcDbVertex
100
AcDb2dVertex
 10
323.977173
 20
512.280518
 30
0.0
  0
VERTEX
  5
9F
330
9D
100
AcDbEntity
  8
0
370
     0
100
AcDbVertex
100
AcDb2dVertex
 10
313.138428
 20
512.280518
 30
0.0
  0
VERTEX
  5
A0
330
9D
100
AcDbEntity
  8
0
370
     0
100
AcDbVertex
100
AcDb2dVertex
 10
320.815857
 20
518.603149
 30
0.0
  0
VERTEX
  5
A1
330
9D
100
AcDbEntity
  8
0
370
     0
100
AcDbVertex
100
AcDb2dVertex
 10
322.396515
 20
520.409546
 30
0.0
  0
VERTEX
  5
A2
330
9D
100
AcDbEntity
  8
0
370
     0
100
AcDbVertex
100
AcDb2dVertex
 10
323.073914
 20
521.764404
 30
0.0
  0
VERTEX
  5
A3
330
9D
100
AcDbEntity
  8
0
370
     0
100
AcDbVertex
100
AcDb2dVertex
 10
323.073914
 20
523.119263
 30
0.0
  0
VERTEX
  5
A4
330
9D
100
AcDbEntity
  8
0
370
     0
100
AcDbVertex
100
AcDb2dVertex
 10
322.396515
 20
524.69989
 30
0.0
  0
VERTEX
  5
A5
330
9D
100
AcDbEntity
  8
0
370
     0
100
AcDbVertex
100
AcDb2dVertex
 10
321.719086
 20
525.603149
 30
0.0
  0
VERTEX
  5
A6
330
9D
100
AcDbEntity
  8
0
370
     0
100
AcDbVertex
100
AcDb2dVertex
 10
320.138428
 20
526.280518
 30
0.0
  0
VERTEX
  5
A7
330
9D
100
AcDbEntity
  8
0
370
     0
100
AcDbVertex
100
AcDb2dVertex
 10
317.428772
 20
526.280518
 30
0.0
  0
VERTEX
  5
A8
330
9D
100
AcDbEntity
  8
0
370
     0
100
AcDbVertex
100
AcDb2dVertex
 10
315.848114
 20
525.603149
 30
0.0
  0
VERTEX
  5
A9
330
9D
100
AcDbEntity
  8
0
370
     0
100
AcDbVertex
100
AcDb2dVertex
 10
315.170715
 20
524.92572
 30
0.0
  0
VERTEX
  5
AA
330
9D
100
AcDbEntity
  8
0
370
     0
100
AcDbVertex
100
AcDb2dVertex
 10
314.267487
 20
523.570862
 30
0.0
  0
VERTEX
  5
AB
330
9D
100
AcDbEntity
  8
0
370
     0
100
AcDbVertex
100
AcDb2dVertex
 10
314.267487
 20
522.893433
 30
0.0
  0
SEQEND
  5
AC
330
9D
100
AcDbEntity
  8
0
 62
     7
370
    13
  0
POLYLINE
  5
AD
330
1F
100
AcDbEntity
  8
0
 62
     7
370
    13
100
AcDb2dPolyline
 66
     1
 10
0.0
 20
0.0
 30
0.0
 70
     1
  0
VERTEX
  5
AE
330
AD
100
AcDbEntity
  8
0
370
     0
100
AcDbVertex
100
AcDb2dVertex
 10
334.00296
 20
526.280518
 30
0.0
  0
VERTEX
  5
AF
330
AD
100
AcDbEntity
  8
0
370
     0
100
AcDbVertex
100
AcDb2dVertex
 10
331.519104
 20
525.603149
 30
0.0
  0
VERTEX
  5
B0
330
AD
100
AcDbEntity
  8
0
370
     0
100
AcDbVertex
100
AcDb2dVertex
 10
329.938446
 20
523.345093
 30
0.0
  0
VERTEX
  5
B1
330
AD
100
AcDbEntity
  8
0
370
     0
100
AcDbVertex
100
AcDb2dVertex
 10
329.261017
 20
521.087036
 30
0.0
  0
VERTEX
  5
B2
330
AD
100
AcDbEntity
  8
0
370
     0
100
AcDbVertex
100
AcDb2dVertex
 10
329.261017
 20
518.151489
 30
0.0
  0
VERTEX
  5
B3
330
AD
100
AcDbEntity
  8
0
370
     0
100
AcDbVertex
100
AcDb2dVertex
 10
329.938446
 20
515.216064
 30
0.0
  0
VERTEX
  5
B4
330
AD
100
AcDbEntity
  8
0
370
     0
100
AcDbVertex
100
AcDb2dVertex
 10
331.519104
 20
512.957947
 30
0.0
  0
VERTEX
  5
B5
330
AD
100
AcDbEntity
  8
0
370
     0
100
AcDbVertex
100
AcDb2dVertex
 10
334.00296
 20
512.280518
 30
0.0
  0
VERTEX
  5
B6
330
AD
100
AcDbEntity
  8
0
370
     0
100
AcDbVertex
100
AcDb2dVertex
 10
335.809418
 20
512.280518
 30
0.0
  0
VERTEX
  5
B7
330
AD
100
AcDbEntity
  8
0
370
     0
100
AcDbVertex
100
AcDb2dVertex
 10
338.293274
 20
512.957947
 30
0.0
  0
VERTEX
  5
B8
330
AD
100
AcDbEntity
  8
0
370
     0
100
AcDbVertex
100
AcDb2dVertex
 10
339.873932
 20
515.216064
 30
0.0
  0
VERTEX
  5
B9
330
AD
100
AcDbEntity
  8
0
370
     0
100
AcDbVertex
100
AcDb2dVertex
 10
340.551361
 20
517.92572
 30
0.0
  0
VERTEX
  5
BA
330
AD
100
AcDbEntity
  8
0
370
     0
100
AcDbVertex
100
AcDb2dVertex
 10
340.551361
 20
521.087036
 30
0.0
  0
VERTEX
  5
BB
330
AD
100
AcDbEntity
  8
0
370
     0
100
AcDbVertex
100
AcDb2dVertex
 10
339.873932
 20
523.345093
 30
0.0
  0
VERTEX
  5
BC
330
AD
100
AcDbEntity
  8
0
370
     0
100
AcDbVertex
100
AcDb2dVertex
 10
338.293274
 20
525.603149
 30
0.0
  0
VERTEX
  5
BD
330
AD
100
AcDbEntity
  8
0
370
     0
100
AcDbVertex
100
AcDb2dVertex
 10
335.809418
 20
526.280518
 30
0.0
  0
SEQEND
  5
BE
330
AD
100
AcDbEntity
  8
0
 62
     7
370
    13
  0
LINE
  5
BF
330
1F
100
AcDbEntity
  8
0
 62
     7
370
    13
100
AcDbLine
 10
189.209747
 20
402.47522
 30
0.0
 11
189.209747
 21
512.280518
 31
0.0
  0
LINE
  5
C0
330
1F
100
AcDbEntity
  8
0
 62
     7
370
    13
100
AcDbLine
 10
599.209717
 20
372.47522
 30
0.0
 11
599.209717
 21
512.280518
 31
0.0
  0
POLYLINE
  5
C1
330
1F
100
AcDbEntity
  8
0
 62
     7
370
    13
100
AcDb2dPolyline
 66
     1
 10
0.0
 20
0.0
 30
0.0
  0
VERTEX
  5
C2
330
C1
100
AcDbEntity
  8
0
370
     0
100
AcDbVertex
100
AcDb2dVertex
 10
597.277893
 20
509.762939
 30
0.0
  0
VERTEX
  5
C3
330
C1
100
AcDbEntity
  8
0
370
     0
100
AcDbVertex
100
AcDb2dVertex
 10
599.209717
 20
510.280548
 30
0.0
  0
VERTEX
  5
C4
330
C1
100
AcDbEntity
  8
0
370
     0
100
AcDbVertex
100
AcDb2dVertex
 10
597.277893
 20
510.798187
 30
0.0
  0
SEQEND
  5
C5
330
C1
100
AcDbEntity
  8
0
 62
     7
370
    13
  0
POLYLINE
  5
C6
330
1F
100
AcDbEntity
  8
0
 62
     7
370
    13
100
AcDb2dPolyline
 66
     1
 10
0.0
 20
0.0
 30
0.0
  0
VERTEX
  5
C7
330
C6
100
AcDbEntity
  8
0
370
     0
100
AcDbVertex
100
AcDb2dVertex
 10
191.141602
 20
510.798187
 30
0.0
  0
VERTEX
  5
C8
330
C6
100
AcDbEntity
  8
0
370
     0
100
AcDbVertex
100
AcDb2dVertex
 10
189.209747
 20
510.280548
 30
0.0
  0
VERTEX
  5
C9
330
C6
100
AcDbEntity
  8
0
370
     0
100
AcDbVertex
100
AcDb2dVertex
 10
191.141602
 20
509.762939
 30
0.0
  0
SEQEND
  5
CA
330
C6
100
AcDbEntity
  8
0
 62
     7
370
    13
  0
LINE
  5
CB
330
1F
100
AcDbEntity
  8
0
 62
     7
370
    13
100
AcDbLine
 10
189.209747
 20
510.280548
 30
0.0
 11
599.209717
 21
510.280548
 31
0.0
  0
POLYLINE
  5
CC
330
1F
100
AcDbEntity
  8
0
 62
     7
370
    13
100
AcDb2dPolyline
 66
     1
 10
0.0
 20
0.0
 30
0.0
  0
VERTEX
  5
CD
330
CC
100
AcDbEntity
  8
0
370
     0
100
AcDbVertex
100
AcDb2dVertex
 10
125.724731
 20
243.665176
 30
0.0
  0
VERTEX
  5
CE
330
CC
100
AcDbEntity
  8
0
370
     0
100
AcDbVertex
100
AcDb2dVertex
 10
126.85376
 20
244.34259
 30
0.0
  0
VERTEX
  5
CF
330
CC
100
AcDbEntity
  8
0
370
     0
100
AcDbVertex
100
AcDb2dVertex
 10
127.531158
 20
245.02002
 30
0.0
  0
VERTEX
  5
D0
330
CC
100
AcDbEntity
  8
0
370
     0
100
AcDbVertex
100
AcDb2dVertex
 10
128.208588
 20
247.503891
 30
0.0
  0
VERTEX
  5
D1
330
CC
100
AcDbEntity
  8
0
370
     0
100
AcDbVertex
100
AcDb2dVertex
 10
128.208588
 20
249.987762
 30
0.0
  0
VERTEX
  5
D2
330
CC
100
AcDbEntity
  8
0
370
     0
100
AcDbVertex
100
AcDb2dVertex
 10
127.531158
 20
252.697433
 30
0.0
  0
VERTEX
  5
D3
330
CC
100
AcDbEntity
  8
0
370
     0
100
AcDbVertex
100
AcDb2dVertex
 10
126.176331
 20
254.052277
 30
0.0
  0
VERTEX
  5
D4
330
CC
100
AcDbEntity
  8
0
370
     0
100
AcDbVertex
100
AcDb2dVertex
 10
124.144073
 20
254.729706
 30
0.0
  0
VERTEX
  5
D5
330
CC
100
AcDbEntity
  8
0
370
     0
100
AcDbVertex
100
AcDb2dVertex
 10
122.789246
 20
254.729706
 30
0.0
  0
VERTEX
  5
D6
330
CC
100
AcDbEntity
  8
0
370
     0
100
AcDbVertex
100
AcDb2dVertex
 10
120.756989
 20
254.052277
 30
0.0
  0
VERTEX
  5
D7
330
CC
100
AcDbEntity
  8
0
370
     0
100
AcDbVertex
100
AcDb2dVertex
 10
119.62793
 20
252.697433
 30
0.0
  0
VERTEX
  5
D8
330
CC
100
AcDbEntity
  8
0
370
     0
100
AcDbVertex
100
AcDb2dVertex
 10
118.950531
 20
249.987762
 30
0.0
  0
VERTEX
  5
D9
330
CC
100
AcDbEntity
  8
0
370
     0
100
AcDbVertex
100
AcDb2dVertex
 10
118.950531
 20
247.503891
 30
0.0
  0
VERTEX
  5
DA
330
CC
100
AcDbEntity
  8
0
370
     0
100
AcDbVertex
100
AcDb2dVertex
 10
119.62793
 20
245.471634
 30
0.0
  0
VERTEX
  5
DB
330
CC
100
AcDbEntity
  8
0
370
     0
100
AcDbVertex
100
AcDb2dVertex
 10
120.305359
 20
244.79422
 30
0.0
  0
VERTEX
  5
DC
330
CC
100
AcDbEntity
  8
0
370
     0
100
AcDbVertex
100
AcDb2dVertex
 10
114.208588
 20
245.471634
 30
0.0
  0
VERTEX
  5
DD
330
CC
100
AcDbEntity
  8
0
370
     0
100
AcDbVertex
100
AcDb2dVertex
 10
114.208588
 20
253.826477
 30
0.0
  0
SEQEND
  5
DE
330
CC
100
AcDbEntity
  8
0
 62
     7
370
    13
  0
POLYLINE
  5
DF
330
1F
100
AcDbEntity
  8
0
 62
     7
370
    13
100
AcDb2dPolyline
 66
     1
 10
0.0
 20
0.0
 30
0.0
  0
VERTEX
  5
E0
330
DF
100
AcDbEntity
  8
0
370
     0
100
AcDbVertex
100
AcDb2dVertex
 10
128.208588
 20
270.852264
 30
0.0
  0
VERTEX
  5
E1
330
DF
100
AcDbEntity
  8
0
370
     0
100
AcDbVertex
100
AcDb2dVertex
 10
128.208588
 20
260.01358
 30
0.0
  0
VERTEX
  5
E2
330
DF
100
AcDbEntity
  8
0
370
     0
100
AcDbVertex
100
AcDb2dVertex
 10
121.886017
 20
267.690979
 30
0.0
  0
VERTEX
  5
E3
330
DF
100
AcDbEntity
  8
0
370
     0
100
AcDbVertex
100
AcDb2dVertex
 10
120.079559
 20
269.271637
 30
0.0
  0
VERTEX
  5
E4
330
DF
100
AcDbEntity
  8
0
370
     0
100
AcDbVertex
100
AcDb2dVertex
 10
118.724731
 20
269.949036
 30
0.0
  0
VERTEX
  5
E5
330
DF
100
AcDbEntity
  8
0
370
     0
100
AcDbVertex
100
AcDb2dVertex
 10
117.369873
 20
269.949036
 30
0.0
  0
VERTEX
  5
E6
330
DF
100
AcDbEntity
  8
0
370
     0
100
AcDbVertex
100
AcDb2dVertex
 10
115.789246
 20
269.271637
 30
0.0
  0
VERTEX
  5
E7
330
DF
100
AcDbEntity
  8
0
370
     0
100
AcDbVertex
100
AcDb2dVertex
 10
114.886017
 20
268.594208
 30
0.0
  0
VERTEX
  5
E8
330
DF
100
AcDbEntity
  8
0
370
     0
100
AcDbVertex
100
AcDb2dVertex
 10
114.208588
 20
267.01358
 30
0.0
  0
VERTEX
  5
E9
330
DF
100
AcDbEntity
  8
0
370
     0
100
AcDbVertex
100
AcDb2dVertex
 10
114.208588
 20
264.303894
 30
0.0
  0
VERTEX
  5
EA
330
DF
100
AcDbEntity
  8
0
370
     0
100
AcDbVertex
100
AcDb2dVertex
 10
114.886017
 20
262.723236
 30
0.0
  0
VERTEX
  5
EB
330
DF
100
AcDbEntity
  8
0
370
     0
100
AcDbVertex
100
AcDb2dVertex
 10
115.563416
 20
262.045837
 30
0.0
  0
VERTEX
  5
EC
330
DF
100
AcDbEntity
  8
0
370
     0
100
AcDbVertex
100
AcDb2dVertex
 10
116.918274
 20
261.142609
 30
0.0
  0
VERTEX
  5
ED
330
DF
100
AcDbEntity
  8
0
370
     0
100
AcDbVertex
100
AcDb2dVertex
 10
117.595673
 20
261.142609
 30
0.0
  0
SEQEND
  5
EE
330
DF
100
AcDbEntity
  8
0
 62
     7
370
    13
  0
POLYLINE
  5
EF
330
1F
100
AcDbEntity
  8
0
 62
     7
370
    13
100
AcDb2dPolyline
 66
     1
 10
0.0
 20
0.0
 30
0.0
 70
     1
  0
VERTEX
  5
F0
330
EF
100
AcDbEntity
  8
0
370
     0
100
AcDbVertex
100
AcDb2dVertex
 10
114.208588
 20
280.878082
 30
0.0
  0
VERTEX
  5
F1
330
EF
100
AcDbEntity
  8
0
370
     0
100
AcDbVertex
100
AcDb2dVertex
 10
114.886017
 20
278.394226
 30
0.0
  0
VERTEX
  5
F2
330
EF
100
AcDbEntity
  8
0
370
     0
100
AcDbVertex
100
AcDb2dVertex
 10
117.144073
 20
276.813568
 30
0.0
  0
VERTEX
  5
F3
330
EF
100
AcDbEntity
  8
0
370
     0
100
AcDbVertex
100
AcDb2dVertex
 10
119.40213
 20
276.136139
 30
0.0
  0
VERTEX
  5
F4
330
EF
100
AcDbEntity
  8
0
370
     0
100
AcDbVertex
100
AcDb2dVertex
 10
122.337616
 20
276.136139
 30
0.0
  0
VERTEX
  5
F5
330
EF
100
AcDbEntity
  8
0
370
     0
100
AcDbVertex
100
AcDb2dVertex
 10
125.273102
 20
276.813568
 30
0.0
  0
VERTEX
  5
F6
330
EF
100
AcDbEntity
  8
0
370
     0
100
AcDbVertex
100
AcDb2dVertex
 10
127.531158
 20
278.394226
 30
0.0
  0
VERTEX
  5
F7
330
EF
100
AcDbEntity
  8
0
370
     0
100
AcDbVertex
100
AcDb2dVertex
 10
128.208588
 20
280.878082
 30
0.0
  0
VERTEX
  5
F8
330
EF
100
AcDbEntity
  8
0
370
     0
100
AcDbVertex
100
AcDb2dVertex
 10
128.208588
 20
282.68454
 30
0.0
  0
VERTEX
  5
F9
330
EF
100
AcDbEntity
  8
0
370
     0
100
AcDbVertex
100
AcDb2dVertex
 10
127.531158
 20
285.168396
 30
0.0
  0
VERTEX
  5
FA
330
EF
100
AcDbEntity
  8
0
370
     0
100
AcDbVertex
100
AcDb2dVertex
 10
125.273102
 20
286.749054
 30
0.0
  0
VERTEX
  5
FB
330
EF
100
AcDbEntity
  8
0
370
     0
100
AcDbVertex
100
AcDb2dVertex
 10
122.563416
 20
287.426483
 30
0.0
  0
VERTEX
  5
FC
330
EF
100
AcDbEntity
  8
0
370
     0
100
AcDbVertex
100
AcDb2dVertex
 10
119.40213
 20
287.426483
 30
0.0
  0
VERTEX
  5
FD
330
EF
100
AcDbEntity
  8
0
370
     0
100
AcDbVertex
100
AcDb2dVertex
 10
117.144073
 20
286.749054
 30
0.0
  0
VERTEX
  5
FE
330
EF
100
AcDbEntity
  8
0
370
     0
100
AcDbVertex
100
AcDb2dVertex
 10
114.886017
 20
285.168396
 30
0.0
  0
VERTEX
  5
FF
330
EF
100
AcDbEntity
  8
0
370
     0
100
AcDbVertex
100
AcDb2dVertex
 10
114.208588
 20
282.68454
 30
0.0
  0
SEQEND
  5
100
330
EF
100
AcDbEntity
  8
0
 62
     7
370
    13
  0
LINE
  5
101
330
1F
100
AcDbEntity
  8
0
 62
     7
370
    13
100
AcDbLine
 10
237.209747
 20
190.47522
 30
0.0
 11
128.208588
 21
190.47522
 31
0.0
  0
LINE
  5
102
330
1F
100
AcDbEntity
  8
0
 62
     7
370
    13
100
AcDbLine
 10
237.209747
 20
450.47522
 30
0.0
 11
128.208588
 21
450.47522
 31
0.0
  0
POLYLINE
  5
103
330
1F
100
AcDbEntity
  8
0
 62
     7
370
    13
100
AcDb2dPolyline
 66
     1
 10
0.0
 20
0.0
 30
0.0
  0
VERTEX
  5
104
330
103
100
AcDbEntity
  8
0
370
     0
100
AcDbVertex
100
AcDb2dVertex
 10
130.726227
 20
448.543365
 30
0.0
  0
VERTEX
  5
105
330
103
100
AcDbEntity
  8
0
370
     0
100
AcDbVertex
100
AcDb2dVertex
 10
130.208588
 20
450.47522
 30
0.0
  0
VERTEX
  5
106
330
103
100
AcDbEntity
  8
0
370
     0
100
AcDbVertex
100
AcDb2dVertex
 10
129.690948
 20
448.543365
 30
0.0
  0
SEQEND
  5
107
330
103
100
AcDbEntity
  8
0
 62
     7
370
    13
  0
POLYLINE
  5
108
330
1F
100
AcDbEntity
  8
0
 62
     7
370
    13
100
AcDb2dPolyline
 66
     1
 10
0.0
 20
0.0
 30
0.0
  0
VERTEX
  5
109
330
108
100
AcDbEntity
  8
0
370
     0
100
AcDbVertex
100
AcDb2dVertex
 10
129.690948
 20
192.407074
 30
0.0
  0
VERTEX
  5
10A
330
108
100
AcDbEntity
  8
0
370
     0
100
AcDbVertex
100
AcDb2dVertex
 10
130.208588
 20
190.47522
 30
0.0
  0
VERTEX
  5
10B
330
108
100
AcDbEntity
  8
0
370
     0
100
AcDbVertex
100
AcDb2dVertex
 10
130.726227
 20
192.407074
 30
0.0
  0
SEQEND
  5
10C
330
108
100
AcDbEntity
  8
0
 62
     7
370
    13
  0
LINE
  5
10D
330
1F
100
AcDbEntity
  8
0
 62
     7
370
    13
100
AcDbLine
 10
130.208588
 20
190.47522
 30
0.0
 11
130.208588
 21
450.47522
 31
0.0
  0
POLYLINE
  5
10E
330
1F
100
AcDbEntity
  8
0
 62
     7
370
    13
100
AcDb2dPolyline
 66
     1
 10
0.0
 20
0.0
 30
0.0
  0
VERTEX
  5
10F
330
10E
100
AcDbEntity
  8
0
370
     0
100
AcDbVertex
100
AcDb2dVertex
 10
218.552963
 20
474.14032
 30
0.0
  0
VERTEX
  5
110
330
10E
100
AcDbEntity
  8
0
370
     0
100
AcDbVertex
100
AcDb2dVertex
 10
219.230392
 20
473.011292
 30
0.0
  0
VERTEX
  5
111
330
10E
100
AcDbEntity
  8
0
370
     0
100
AcDbVertex
100
AcDb2dVertex
 10
219.907806
 20
472.333862
 30
0.0
  0
VERTEX
  5
112
330
10E
100
AcDbEntity
  8
0
370
     0
100
AcDbVertex
100
AcDb2dVertex
 10
222.391678
 20
471.656464
 30
0.0
  0
VERTEX
  5
113
330
10E
100
AcDbEntity
  8
0
370
     0
100
AcDbVertex
100
AcDb2dVertex
 10
224.875549
 20
471.656464
 30
0.0
  0
VERTEX
  5
114
330
10E
100
AcDbEntity
  8
0
370
     0
100
AcDbVertex
100
AcDb2dVertex
 10
227.58522
 20
472.333862
 30
0.0
  0
VERTEX
  5
115
330
10E
100
AcDbEntity
  8
0
370
     0
100
AcDbVertex
100
AcDb2dVertex
 10
228.940063
 20
473.688721
 30
0.0
  0
VERTEX
  5
116
330
10E
100
AcDbEntity
  8
0
370
     0
100
AcDbVertex
100
AcDb2dVertex
 10
229.617477
 20
475.720978
 30
0.0
  0
VERTEX
  5
117
330
10E
100
AcDbEntity
  8
0
370
     0
100
AcDbVertex
100
AcDb2dVertex
 10
229.617477
 20
477.075806
 30
0.0
  0
VERTEX
  5
118
330
10E
100
AcDbEntity
  8
0
370
     0
100
AcDbVertex
100
AcDb2dVertex
 10
228.940063
 20
479.108093
 30
0.0
  0
VERTEX
  5
119
330
10E
100
AcDbEntity
  8
0
370
     0
100
AcDbVertex
100
AcDb2dVertex
 10
228.26265
 20
479.785492
 30
0.0
  0
VERTEX
  5
11A
330
10E
100
AcDbEntity
  8
0
370
     0
100
AcDbVertex
100
AcDb2dVertex
 10
226.907806
 20
480.462921
 30
0.0
  0
VERTEX
  5
11B
330
10E
100
AcDbEntity
  8
0
370
     0
100
AcDbVertex
100
AcDb2dVertex
 10
223.746521
 20
480.462921
 30
0.0
  0
VERTEX
  5
11C
330
10E
100
AcDbEntity
  8
0
370
     0
100
AcDbVertex
100
AcDb2dVertex
 10
228.488449
 20
485.656464
 30
0.0
  0
VERTEX
  5
11D
330
10E
100
AcDbEntity
  8
0
370
     0
100
AcDbVertex
100
AcDb2dVertex
 10
220.133606
 20
485.656464
 30
0.0
  0
SEQEND
  5
11E
330
10E
100
AcDbEntity
  8
0
 62
     7
370
    13
  0
POLYLINE
  5
11F
330
1F
100
AcDbEntity
  8
0
 62
     7
370
    13
100
AcDb2dPolyline
 66
     1
 10
0.0
 20
0.0
 30
0.0
  0
VERTEX
  5
120
330
11F
100
AcDbEntity
  8
0
370
     0
100
AcDbVertex
100
AcDb2dVertex
 10
245.062637
 20
481.14032
 30
0.0
  0
VERTEX
  5
121
330
11F
100
AcDbEntity
  8
0
370
     0
100
AcDbVertex
100
AcDb2dVertex
 10
244.385223
 20
483.624207
 30
0.0
  0
VERTEX
  5
122
330
11F
100
AcDbEntity
  8
0
370
     0
100
AcDbVertex
100
AcDb2dVertex
 10
242.804581
 20
484.979065
 30
0.0
  0
VERTEX
  5
123
330
11F
100
AcDbEntity
  8
0
370
     0
100
AcDbVertex
100
AcDb2dVertex
 10
240.320709
 20
485.656464
 30
0.0
  0
VERTEX
  5
124
330
11F
100
AcDbEntity
  8
0
370
     0
100
AcDbVertex
100
AcDb2dVertex
 10
239.643295
 20
485.656464
 30
0.0
  0
VERTEX
  5
125
330
11F
100
AcDbEntity
  8
0
370
     0
100
AcDbVertex
100
AcDb2dVertex
 10
237.159424
 20
484.979065
 30
0.0
  0
VERTEX
  5
126
330
11F
100
AcDbEntity
  8
0
370
     0
100
AcDbVertex
100
AcDb2dVertex
 10
235.578781
 20
483.624207
 30
0.0
  0
VERTEX
  5
127
330
11F
100
AcDbEntity
  8
0
370
     0
100
AcDbVertex
100
AcDb2dVertex
 10
234.901352
 20
481.817749
 30
0.0
  0
VERTEX
  5
128
330
11F
100
AcDbEntity
  8
0
370
     0
100
AcDbVertex
100
AcDb2dVertex
 10
234.901352
 20
481.14032
 30
0.0
  0
VERTEX
  5
129
330
11F
100
AcDbEntity
  8
0
370
     0
100
AcDbVertex
100
AcDb2dVertex
 10
235.578781
 20
479.333862
 30
0.0
  0
VERTEX
  5
12A
330
11F
100
AcDbEntity
  8
0
370
     0
100
AcDbVertex
100
AcDb2dVertex
 10
237.159424
 20
477.979065
 30
0.0
  0
VERTEX
  5
12B
330
11F
100
AcDbEntity
  8
0
370
     0
100
AcDbVertex
100
AcDb2dVertex
 10
239.643295
 20
477.075806
 30
0.0
  0
VERTEX
  5
12C
330
11F
100
AcDbEntity
  8
0
370
     0
100
AcDbVertex
100
AcDb2dVertex
 10
240.320709
 20
477.075806
 30
0.0
  0
VERTEX
  5
12D
330
11F
100
AcDbEntity
  8
0
370
     0
100
AcDbVertex
100
AcDb2dVertex
 10
242.804581
 20
477.753235
 30
0.0
  0
VERTEX
  5
12E
330
11F
100
AcDbEntity
  8
0
370
     0
100
AcDbVertex
100
AcDb2dVertex
 10
244.385223
 20
479.108093
 30
0.0
  0
VERTEX
  5
12F
330
11F
100
AcDbEntity
  8
0
370
     0
100
AcDbVertex
100
AcDb2dVertex
 10
245.062637
 20
481.14032
 30
0.0
  0
VERTEX
  5
130
330
11F
100
AcDbEntity
  8
0
370
     0
100
AcDbVertex
100
AcDb2dVertex
 10
245.062637
 20
477.979065
 30
0.0
  0
VERTEX
  5
131
330
11F
100
AcDbEntity
  8
0
370
     0
100
AcDbVertex
100
AcDb2dVertex
 10
244.385223
 20
474.817749
 30
0.0
  0
VERTEX
  5
132
330
11F
100
AcDbEntity
  8
0
370
     0
100
AcDbVertex
100
AcDb2dVertex
 10
242.804581
 20
472.333862
 30
0.0
  0
VERTEX
  5
133
330
11F
100
AcDbEntity
  8
0
370
     0
100
AcDbVertex
100
AcDb2dVertex
 10
240.320709
 20
471.656464
 30
0.0
  0
VERTEX
  5
134
330
11F
100
AcDbEntity
  8
0
370
     0
100
AcDbVertex
100
AcDb2dVertex
 10
238.740067
 20
471.656464
 30
0.0
  0
VERTEX
  5
135
330
11F
100
AcDbEntity
  8
0
370
     0
100
AcDbVertex
100
AcDb2dVertex
 10
236.481995
 20
472.333862
 30
0.0
  0
VERTEX
  5
136
330
11F
100
AcDbEntity
  8
0
370
     0
100
AcDbVertex
100
AcDb2dVertex
 10
235.578781
 20
473.688721
 30
0.0
  0
SEQEND
  5
137
330
11F
100
AcDbEntity
  8
0
 62
     7
370
    13
  0
POLYLINE
  5
138
330
1F
100
AcDbEntity
  8
0
 62
     7
370
    13
100
AcDb2dPolyline
 66
     1
 10
0.0
 20
0.0
 30
0.0
 70
     1
  0
VERTEX
  5
139
330
138
100
AcDbEntity
  8
0
370
     0
100
AcDbVertex
100
AcDb2dVertex
 10
255.765869
 20
485.656464
 30
0.0
  0
VERTEX
  5
13A
330
138
100
AcDbEntity
  8
0
370
     0
100
AcDbVertex
100
AcDb2dVertex
 10
253.281998
 20
484.979065
 30
0.0
  0
VERTEX
  5
13B
330
138
100
AcDbEntity
  8
0
370
     0
100
AcDbVertex
100
AcDb2dVertex
 10
251.701355
 20
482.720978
 30
0.0
  0
VERTEX
  5
13C
330
138
100
AcDbEntity
  8
0
370
     0
100
AcDbVertex
100
AcDb2dVertex
 10
251.023941
 20
480.462921
 30
0.0
  0
VERTEX
  5
13D
330
138
100
AcDbEntity
  8
0
370
     0
100
AcDbVertex
100
AcDb2dVertex
 10
251.023941
 20
477.527435
 30
0.0
  0
VERTEX
  5
13E
330
138
100
AcDbEntity
  8
0
370
     0
100
AcDbVertex
100
AcDb2dVertex
 10
251.701355
 20
474.591949
 30
0.0
  0
VERTEX
  5
13F
330
138
100
AcDbEntity
  8
0
370
     0
100
AcDbVertex
100
AcDb2dVertex
 10
253.281998
 20
472.333862
 30
0.0
  0
VERTEX
  5
140
330
138
100
AcDbEntity
  8
0
370
     0
100
AcDbVertex
100
AcDb2dVertex
 10
255.765869
 20
471.656464
 30
0.0
  0
VERTEX
  5
141
330
138
100
AcDbEntity
  8
0
370
     0
100
AcDbVertex
100
AcDb2dVertex
 10
257.572327
 20
471.656464
 30
0.0
  0
VERTEX
  5
142
330
138
100
AcDbEntity
  8
0
370
     0
100
AcDbVertex
100
AcDb2dVertex
 10
260.056213
 20
472.333862
 30
0.0
  0
VERTEX
  5
143
330
138
100
AcDbEntity
  8
0
370
     0
100
AcDbVertex
100
AcDb2dVertex
 10
261.636841
 20
474.591949
 30
0.0
  0
VERTEX
  5
144
330
138
100
AcDbEntity
  8
0
370
     0
100
AcDbVertex
100
AcDb2dVertex
 10
262.31427
 20
477.301636
 30
0.0
  0
VERTEX
  5
145
330
138
100
AcDbEntity
  8
0
370
     0
100
AcDbVertex
100
AcDb2dVertex
 10
262.31427
 20
480.462921
 30
0.0
  0
VERTEX
  5
146
330
138
100
AcDbEntity
  8
0
370
     0
100
AcDbVertex
100
AcDb2dVertex
 10
261.636841
 20
482.720978
 30
0.0
  0
VERTEX
  5
147
330
138
100
AcDbEntity
  8
0
370
     0
100
AcDbVertex
100
AcDb2dVertex
 10
260.056213
 20
484.979065
 30
0.0
  0
VERTEX
  5
148
330
138
100
AcDbEntity
  8
0
370
     0
100
AcDbVertex
100
AcDb2dVertex
 10
257.572327
 20
485.656464
 30
0.0
  0
SEQEND
  5
149
330
138
100
AcDbEntity
  8
0
 62
     7
370
    13
  0
LINE
  5
14A
330
1F
100
AcDbEntity
  8
0
 62
     7
370
    13
100
AcDbLine
 10
204.209747
 20
399.97522
 30
0.0
 11
204.209747
 21
471.656464
 31
0.0
  0
LINE
  5
14B
330
1F
100
AcDbEntity
  8
0
 62
     7
370
    13
100
AcDbLine
 10
399.209747
 20
399.97522
 30
0.0
 11
399.209747
 21
471.656464
 31
0.0
  0
POLYLINE
  5
14C
330
1F
100
AcDbEntity
  8
0
 62
     7
370
    13
100
AcDb2dPolyline
 66
     1
 10
0.0
 20
0.0
 30
0.0
  0
VERTEX
  5
14D
330
14C
100
AcDbEntity
  8
0
370
     0
100
AcDbVertex
100
AcDb2dVertex
 10
206.141602
 20
470.174103
 30
0.0
  0
VERTEX
  5
14E
330
14C
100
AcDbEntity
  8
0
370
     0
100
AcDbVertex
100
AcDb2dVertex
 10
204.209747
 20
469.656464
 30
0.0
  0
VERTEX
  5
14F
330
14C
100
AcDbEntity
  8
0
370
     0
100
AcDbVertex
100
AcDb2dVertex
 10
206.141602
 20
469.138855
 30
0.0
  0
SEQEND
  5
150
330
14C
100
AcDbEntity
  8
0
 62
     7
370
    13
  0
POLYLINE
  5
151
330
1F
100
AcDbEntity
  8
0
 62
     7
370
    13
100
AcDb2dPolyline
 66
     1
 10
0.0
 20
0.0
 30
0.0
  0
VERTEX
  5
152
330
151
100
AcDbEntity
  8
0
370
     0
100
AcDbVertex
100
AcDb2dVertex
 10
397.277893
 20
469.138855
 30
0.0
  0
VERTEX
  5
153
330
151
100
AcDbEntity
  8
0
370
     0
100
AcDbVertex
100
AcDb2dVertex
 10
399.209747
 20
469.656464
 30
0.0
  0
VERTEX
  5
154
330
151
100
AcDbEntity
  8
0
370
     0
100
AcDbVertex
100
AcDb2dVertex
 10
397.277893
 20
470.174103
 30
0.0
  0
SEQEND
  5
155
330
151
100
AcDbEntity
  8
0
 62
     7
370
    13
  0
LINE
  5
156
330
1F
100
AcDbEntity
  8
0
 62
     7
370
    13
100
AcDbLine
 10
204.209747
 20
469.656464
 30
0.0
 11
399.209747
 21
469.656464
 31
0.0
  0
POLYLINE
  5
157
330
1F
100
AcDbEntity
  8
0
 62
     7
370
    13
100
AcDb2dPolyline
 66
     1
 10
0.0
 20
0.0
 30
0.0
  0
VERTEX
  5
158
330
157
100
AcDbEntity
  8
0
370
     0
100
AcDbVertex
100
AcDb2dVertex
 10
171.554871
 20
252.715179
 30
0.0
  0
VERTEX
  5
159
330
157
100
AcDbEntity
  8
0
370
     0
100
AcDbVertex
100
AcDb2dVertex
 10
171.554871
 20
242.328079
 30
0.0
  0
VERTEX
  5
15A
330
157
100
AcDbEntity
  8
0
370
     0
100
AcDbVertex
100
AcDb2dVertex
 10
162.522614
 20
250.005493
 30
0.0
  0
VERTEX
  5
15B
330
157
100
AcDbEntity
  8
0
370
     0
100
AcDbVertex
100
AcDb2dVertex
 10
169.296814
 20
250.005493
 30
0.0
  0
VERTEX
  5
15C
330
157
100
AcDbEntity
  8
0
370
     0
100
AcDbVertex
100
AcDb2dVertex
 10
176.522614
 20
250.005493
 30
0.0
  0
SEQEND
  5
15D
330
157
100
AcDbEntity
  8
0
 62
     7
370
    13
  0
POLYLINE
  5
15E
330
1F
100
AcDbEntity
  8
0
 62
     7
370
    13
100
AcDb2dPolyline
 66
     1
 10
0.0
 20
0.0
 30
0.0
  0
VERTEX
  5
15F
330
15E
100
AcDbEntity
  8
0
370
     0
100
AcDbVertex
100
AcDb2dVertex
 10
162.522614
 20
258.676483
 30
0.0
  0
VERTEX
  5
160
330
15E
100
AcDbEntity
  8
0
370
     0
100
AcDbVertex
100
AcDb2dVertex
 10
162.522614
 20
269.515167
 30
0.0
  0
VERTEX
  5
161
330
15E
100
AcDbEntity
  8
0
370
     0
100
AcDbVertex
100
AcDb2dVertex
 10
176.522614
 20
261.386139
 30
0.0
  0
SEQEND
  5
162
330
15E
100
AcDbEntity
  8
0
 62
     7
370
    13
  0
POLYLINE
  5
163
330
1F
100
AcDbEntity
  8
0
 62
     7
370
    13
100
AcDb2dPolyline
 66
     1
 10
0.0
 20
0.0
 30
0.0
 70
     1
  0
VERTEX
  5
164
330
163
100
AcDbEntity
  8
0
370
     0
100
AcDbVertex
100
AcDb2dVertex
 10
162.522614
 20
279.540985
 30
0.0
  0
VERTEX
  5
165
330
163
100
AcDbEntity
  8
0
370
     0
100
AcDbVertex
100
AcDb2dVertex
 10
163.200027
 20
277.057129
 30
0.0
  0
VERTEX
  5
166
330
163
100
AcDbEntity
  8
0
370
     0
100
AcDbVertex
100
AcDb2dVertex
 10
165.458099
 20
275.476471
 30
0.0
  0
VERTEX
  5
167
330
163
100
AcDbEntity
  8
0
370
     0
100
AcDbVertex
100
AcDb2dVertex
 10
167.716156
 20
274.799042
 30
0.0
  0
VERTEX
  5
168
330
163
100
AcDbEntity
  8
0
370
     0
100
AcDbVertex
100
AcDb2dVertex
 10
170.651642
 20
274.799042
 30
0.0
  0
VERTEX
  5
169
330
163
100
AcDbEntity
  8
0
370
     0
100
AcDbVertex
100
AcDb2dVertex
 10
173.587128
 20
275.476471
 30
0.0
  0
VERTEX
  5
16A
330
163
100
AcDbEntity
  8
0
370
     0
100
AcDbVertex
100
AcDb2dVertex
 10
175.8452
 20
277.057129
 30
0.0
  0
VERTEX
  5
16B
330
163
100
AcDbEntity
  8
0
370
     0
100
AcDbVertex
100
AcDb2dVertex
 10
176.522614
 20
279.540985
 30
0.0
  0
VERTEX
  5
16C
330
163
100
AcDbEntity
  8
0
370
     0
100
AcDbVertex
100
AcDb2dVertex
 10
176.522614
 20
281.347443
 30
0.0
  0
VERTEX
  5
16D
330
163
100
AcDbEntity
  8
0
370
     0
100
AcDbVertex
100
AcDb2dVertex
 10
175.8452
 20
283.831299
 30
0.0
  0
VERTEX
  5
16E
330
163
100
AcDbEntity
  8
0
370
     0
100
AcDbVertex
100
AcDb2dVertex
 10
173.587128
 20
285.411957
 30
0.0
  0
VERTEX
  5
16F
330
163
100
AcDbEntity
  8
0
370
     0
100
AcDbVertex
100
AcDb2dVertex
 10
170.877457
 20
286.089386
 30
0.0
  0
VERTEX
  5
170
330
163
100
AcDbEntity
  8
0
370
     0
100
AcDbVertex
100
AcDb2dVertex
 10
167.716156
 20
286.089386
 30
0.0
  0
VERTEX
  5
171
330
163
100
AcDbEntity
  8
0
370
     0
100
AcDbVertex
100
AcDb2dVertex
 10
165.458099
 20
285.411957
 30
0.0
  0
VERTEX
  5
172
330
163
100
AcDbEntity
  8
0
370
     0
100
AcDbVertex
100
AcDb2dVertex
 10
163.200027
 20
283.831299
 30
0.0
  0
VERTEX
  5
173
330
163
100
AcDbEntity
  8
0
370
     0
100
AcDbVertex
100
AcDb2dVertex
 10
162.522614
 20
281.347443
 30
0.0
  0
SEQEND
  5
174
330
163
100
AcDbEntity
  8
0
 62
     7
370
    13
  0
LINE
  5
175
330
1F
100
AcDbEntity
  8
0
 62
     7
370
    13
100
AcDbLine
 10
242.209747
 20
202.97522
 30
0.0
 11
176.522614
 21
202.97522
 31
0.0
  0
LINE
  5
176
330
1F
100
AcDbEntity
  8
0
 62
     7
370
    13
100
AcDbLine
 10
242.209747
 20
437.97522
 30
0.0
 11
176.522614
 21
437.97522
 31
0.0
  0
POLYLINE
  5
177
330
1F
100
AcDbEntity
  8
0
 62
     7
370
    13
100
AcDb2dPolyline
 66
     1
 10
0.0
 20
0.0
 30
0.0
  0
VERTEX
  5
178
330
177
100
AcDbEntity
  8
0
370
     0
100
AcDbVertex
100
AcDb2dVertex
 10
179.040253
 20
436.043365
 30
0.0
  0
VERTEX
  5
179
330
177
100
AcDbEntity
  8
0
370
     0
100
AcDbVertex
100
AcDb2dVertex
 10
178.522614
 20
437.97522
 30
0.0
  0
VERTEX
  5
17A
330
177
100
AcDbEntity
  8
0
370
     0
100
AcDbVertex
100
AcDb2dVertex
 10
178.004974
 20
436.043365
 30
0.0
  0
SEQEND
  5
17B
330
177
100
AcDbEntity
  8
0
 62
     7
370
    13
  0
POLYLINE
  5
17C
330
1F
100
AcDbEntity
  8
0
 62
     7
370
    13
100
AcDb2dPolyline
 66
     1
 10
0.0
 20
0.0
 30
0.0
  0
VERTEX
  5
17D
330
17C
100
AcDbEntity
  8
0
370
     0
100
AcDbVertex
100
AcDb2dVertex
 10
178.004974
 20
204.907074
 30
0.0
  0
VERTEX
  5
17E
330
17C
100
AcDbEntity
  8
0
370
     0
100
AcDbVertex
100
AcDb2dVertex
 10
178.522614
 20
202.97522
 30
0.0
  0
VERTEX
  5
17F
330
17C
100
AcDbEntity
  8
0
370
     0
100
AcDbVertex
100
AcDb2dVertex
 10
179.040253
 20
204.907074
 30
0.0
  0
SEQEND
  5
180
330
17C
100
AcDbEntity
  8
0
 62
     7
370
    13
  0
LINE
  5
181
330
1F
100
AcDbEntity
  8
0
 62
     7
370
    13
100
AcDbLine
 10
178.522614
 20
202.97522
 30
0.0
 11
178.522614
 21
437.97522
 31
0.0
  0
POLYLINE
  5
182
330
1F
100
AcDbEntity
  8
0
 62
     7
370
    13
100
AcDb2dPolyline
 66
     1
 10
0.0
 20
0.0
 30
0.0
  0
VERTEX
  5
183
330
182
100
AcDbEntity
  8
0
370
     0
100
AcDbVertex
100
AcDb2dVertex
 10
422.56366
 20
462.250366
 30
0.0
  0
VERTEX
  5
184
330
182
100
AcDbEntity
  8
0
370
     0
100
AcDbVertex
100
AcDb2dVertex
 10
423.241058
 20
461.121338
 30
0.0
  0
VERTEX
  5
185
330
182
100
AcDbEntity
  8
0
370
     0
100
AcDbVertex
100
AcDb2dVertex
 10
423.918488
 20
460.443909
 30
0.0
  0
VERTEX
  5
186
330
182
100
AcDbEntity
  8
0
370
     0
100
AcDbVertex
100
AcDb2dVertex
 10
426.402374
 20
459.76651
 30
0.0
  0
VERTEX
  5
187
330
182
100
AcDbEntity
  8
0
370
     0
100
AcDbVertex
100
AcDb2dVertex
 10
428.88623
 20
459.76651
 30
0.0
  0
VERTEX
  5
188
330
182
100
AcDbEntity
  8
0
370
     0
100
AcDbVertex
100
AcDb2dVertex
 10
431.595917
 20
460.443909
 30
0.0
  0
VERTEX
  5
189
330
182
100
AcDbEntity
  8
0
370
     0
100
AcDbVertex
100
AcDb2dVertex
 10
432.950745
 20
461.798767
 30
0.0
  0
VERTEX
  5
18A
330
182
100
AcDbEntity
  8
0
370
     0
100
AcDbVertex
100
AcDb2dVertex
 10
433.628174
 20
463.831024
 30
0.0
  0
VERTEX
  5
18B
330
182
100
AcDbEntity
  8
0
370
     0
100
AcDbVertex
100
AcDb2dVertex
 10
433.628174
 20
465.185852
 30
0.0
  0
VERTEX
  5
18C
330
182
100
AcDbEntity
  8
0
370
     0
100
AcDbVertex
100
AcDb2dVertex
 10
432.950745
 20
467.21814
 30
0.0
  0
VERTEX
  5
18D
330
182
100
AcDbEntity
  8
0
370
     0
100
AcDbVertex
100
AcDb2dVertex
 10
432.273315
 20
467.895538
 30
0.0
  0
VERTEX
  5
18E
330
182
100
AcDbEntity
  8
0
370
     0
100
AcDbVertex
100
AcDb2dVertex
 10
430.918488
 20
468.572968
 30
0.0
  0
VERTEX
  5
18F
330
182
100
AcDbEntity
  8
0
370
     0
100
AcDbVertex
100
AcDb2dVertex
 10
427.757202
 20
468.572968
 30
0.0
  0
VERTEX
  5
190
330
182
100
AcDbEntity
  8
0
370
     0
100
AcDbVertex
100
AcDb2dVertex
 10
432.499146
 20
473.76651
 30
0.0
  0
VERTEX
  5
191
330
182
100
AcDbEntity
  8
0
370
     0
100
AcDbVertex
100
AcDb2dVertex
 10
424.144287
 20
473.76651
 30
0.0
  0
SEQEND
  5
192
330
182
100
AcDbEntity
  8
0
 62
     7
370
    13
  0
POLYLINE
  5
193
330
1F
100
AcDbEntity
  8
0
 62
     7
370
    13
100
AcDb2dPolyline
 66
     1
 10
0.0
 20
0.0
 30
0.0
  0
VERTEX
  5
194
330
193
100
AcDbEntity
  8
0
370
     0
100
AcDbVertex
100
AcDb2dVertex
 10
438.912048
 20
462.250366
 30
0.0
  0
VERTEX
  5
195
330
193
100
AcDbEntity
  8
0
370
     0
100
AcDbVertex
100
AcDb2dVertex
 10
439.589447
 20
461.121338
 30
0.0
  0
VERTEX
  5
196
330
193
100
AcDbEntity
  8
0
370
     0
100
AcDbVertex
100
AcDb2dVertex
 10
440.266876
 20
460.443909
 30
0.0
  0
VERTEX
  5
197
330
193
100
AcDbEntity
  8
0
370
     0
100
AcDbVertex
100
AcDb2dVertex
 10
442.750732
 20
459.76651
 30
0.0
  0
VERTEX
  5
198
330
193
100
AcDbEntity
  8
0
370
     0
100
AcDbVertex
100
AcDb2dVertex
 10
445.234619
 20
459.76651
 30
0.0
  0
VERTEX
  5
199
330
193
100
AcDbEntity
  8
0
370
     0
100
AcDbVertex
100
AcDb2dVertex
 10
447.944305
 20
460.443909
 30
0.0
  0
VERTEX
  5
19A
330
193
100
AcDbEntity
  8
0
370
     0
100
AcDbVertex
100
AcDb2dVertex
 10
449.299133
 20
461.798767
 30
0.0
  0
VERTEX
  5
19B
330
193
100
AcDbEntity
  8
0
370
     0
100
AcDbVertex
100
AcDb2dVertex
 10
449.976562
 20
463.831024
 30
0.0
  0
VERTEX
  5
19C
330
193
100
AcDbEntity
  8
0
370
     0
100
AcDbVertex
100
AcDb2dVertex
 10
449.976562
 20
465.185852
 30
0.0
  0
VERTEX
  5
19D
330
193
100
AcDbEntity
  8
0
370
     0
100
AcDbVertex
100
AcDb2dVertex
 10
449.299133
 20
467.21814
 30
0.0
  0
VERTEX
  5
19E
330
193
100
AcDbEntity
  8
0
370
     0
100
AcDbVertex
100
AcDb2dVertex
 10
448.621704
 20
467.895538
 30
0.0
  0
VERTEX
  5
19F
330
193
100
AcDbEntity
  8
0
370
     0
100
AcDbVertex
100
AcDb2dVertex
 10
447.266876
 20
468.572968
 30
0.0
  0
VERTEX
  5
1A0
330
193
100
AcDbEntity
  8
0
370
     0
100
AcDbVertex
100
AcDb2dVertex
 10
444.105591
 20
468.572968
 30
0.0
  0
VERTEX
  5
1A1
330
193
100
AcDbEntity
  8
0
370
     0
100
AcDbVertex
100
AcDb2dVertex
 10
448.847534
 20
473.76651
 30
0.0
  0
VERTEX
  5
1A2
330
193
100
AcDbEntity
  8
0
370
     0
100
AcDbVertex
100
AcDb2dVertex
 10
440.492676
 20
473.76651
 30
0.0
  0
SEQEND
  5
1A3
330
193
100
AcDbEntity
  8
0
 62
     7
370
    13
  0
POLYLINE
  5
1A4
330
1F
100
AcDbEntity
  8
0
 62
     7
370
    13
100
AcDb2dPolyline
 66
     1
 10
0.0
 20
0.0
 30
0.0
 70
     1
  0
VERTEX
  5
1A5
330
1A4
100
AcDbEntity
  8
0
370
     0
100
AcDbVertex
100
AcDb2dVertex
 10
459.77655
 20
473.76651
 30
0.0
  0
VERTEX
  5
1A6
330
1A4
100
AcDbEntity
  8
0
370
     0
100
AcDbVertex
100
AcDb2dVertex
 10
457.292694
 20
473.089111
 30
0.0
  0
VERTEX
  5
1A7
330
1A4
100
AcDbEntity
  8
0
370
     0
100
AcDbVertex
100
AcDb2dVertex
 10
455.712036
 20
470.831024
 30
0.0
  0
VERTEX
  5
1A8
330
1A4
100
AcDbEntity
  8
0
370
     0
100
AcDbVertex
100
AcDb2dVertex
 10
455.034607
 20
468.572968
 30
0.0
  0
VERTEX
  5
1A9
330
1A4
100
AcDbEntity
  8
0
370
     0
100
AcDbVertex
100
AcDb2dVertex
 10
455.034607
 20
465.637482
 30
0.0
  0
VERTEX
  5
1AA
330
1A4
100
AcDbEntity
  8
0
370
     0
100
AcDbVertex
100
AcDb2dVertex
 10
455.712036
 20
462.701996
 30
0.0
  0
VERTEX
  5
1AB
330
1A4
100
AcDbEntity
  8
0
370
     0
100
AcDbVertex
100
AcDb2dVertex
 10
457.292694
 20
460.443909
 30
0.0
  0
VERTEX
  5
1AC
330
1A4
100
AcDbEntity
  8
0
370
     0
100
AcDbVertex
100
AcDb2dVertex
 10
459.77655
 20
459.76651
 30
0.0
  0
VERTEX
  5
1AD
330
1A4
100
AcDbEntity
  8
0
370
     0
100
AcDbVertex
100
AcDb2dVertex
 10
461.583008
 20
459.76651
 30
0.0
  0
VERTEX
  5
1AE
330
1A4
100
AcDbEntity
  8
0
370
     0
100
AcDbVertex
100
AcDb2dVertex
 10
464.066864
 20
460.443909
 30
0.0
  0
VERTEX
  5
1AF
330
1A4
100
AcDbEntity
  8
0
370
     0
100
AcDbVertex
100
AcDb2dVertex
 10
465.647522
 20
462.701996
 30
0.0
  0
VERTEX
  5
1B0
330
1A4
100
AcDbEntity
  8
0
370
     0
100
AcDbVertex
100
AcDb2dVertex
 10
466.324951
 20
465.411682
 30
0.0
  0
VERTEX
  5
1B1
330
1A4
100
AcDbEntity
  8
0
370
     0
100
AcDbVertex
100
AcDb2dVertex
 10
466.324951
 20
468.572968
 30
0.0
  0
VERTEX
  5
1B2
330
1A4
100
AcDbEntity
  8
0
370
     0
100
AcDbVertex
100
AcDb2dVertex
 10
465.647522
 20
470.831024
 30
0.0
  0
VERTEX
  5
1B3
330
1A4
100
AcDbEntity
  8
0
370
     0
100
AcDbVertex
100
AcDb2dVertex
 10
464.066864
 20
473.089111
 30
0.0
  0
VERTEX
  5
1B4
330
1A4
100
AcDbEntity
  8
0
370
     0
100
AcDbVertex
100
AcDb2dVertex
 10
461.583008
 20
473.76651
 30
0.0
  0
SEQEND
  5
1B5
330
1A4
100
AcDbEntity
  8
0
 62
     7
370
    13
  0
LINE
  5
1B6
330
1F
100
AcDbEntity
  8
0
 62
     7
370
    13
100
AcDbLine
 10
414.209747
 20
369.97522
 30
0.0
 11
414.209747
 21
459.76651
 31
0.0
  0
LINE
  5
1B7
330
1F
100
AcDbEntity
  8
0
 62
     7
370
    13
100
AcDbLine
 10
584.209717
 20
369.97522
 30
0.0
 11
584.209717
 21
459.76651
 31
0.0
  0
POLYLINE
  5
1B8
330
1F
100
AcDbEntity
  8
0
 62
     7
370
    13
100
AcDb2dPolyline
 66
     1
 10
0.0
 20
0.0
 30
0.0
  0
VERTEX
  5
1B9
330
1B8
100
AcDbEntity
  8
0
370
     0
100
AcDbVertex
100
AcDb2dVertex
 10
416.141602
 20
458.284149
 30
0.0
  0
VERTEX
  5
1BA
330
1B8
100
AcDbEntity
  8
0
370
     0
100
AcDbVertex
100
AcDb2dVertex
 10
414.209747
 20
457.76651
 30
0.0
  0
VERTEX
  5
1BB
330
1B8
100
AcDbEntity
  8
0
370
     0
100
AcDbVertex
100
AcDb2dVertex
 10
416.141602
 20
457.248901
 30
0.0
  0
SEQEND
  5
1BC
330
1B8
100
AcDbEntity
  8
0
 62
     7
370
    13
  0
POLYLINE
  5
1BD
330
1F
100
AcDbEntity
  8
0
 62
     7
370
    13
100
AcDb2dPolyline
 66
     1
 10
0.0
 20
0.0
 30
0.0
  0
VERTEX
  5
1BE
330
1BD
100
AcDbEntity
  8
0
370
     0
100
AcDbVertex
100
AcDb2dVertex
 10
582.277893
 20
457.248901
 30
0.0
  0
VERTEX
  5
1BF
330
1BD
100
AcDbEntity
  8
0
370
     0
100
AcDbVertex
100
AcDb2dVertex
 10
584.209717
 20
457.76651
 30
0.0
  0
VERTEX
  5
1C0
330
1BD
100
AcDbEntity
  8
0
370
     0
100
AcDbVertex
100
AcDb2dVertex
 10
582.277893
 20
458.284149
 30
0.0
  0
SEQEND
  5
1C1
330
1BD
100
AcDbEntity
  8
0
 62
     7
370
    13
  0
LINE
  5
1C2
330
1F
100
AcDbEntity
  8
0
 62
     7
370
    13
100
AcDbLine
 10
414.209747
 20
457.76651
 30
0.0
 11
584.209717
 21
457.76651
 31
0.0
  0
POLYLINE
  5
1C3
330
1F
100
AcDbEntity
  8
0
 62
     7
370
    13
100
AcDb2dPolyline
 66
     1
 10
0.0
 20
0.0
 30
0.0
  0
VERTEX
  5
1C4
330
1C3
100
AcDbEntity
  8
0
370
     0
100
AcDbVertex
100
AcDb2dVertex
 10
639.057068
 20
239.467682
 30
0.0
  0
VERTEX
  5
1C5
330
1C3
100
AcDbEntity
  8
0
370
     0
100
AcDbVertex
100
AcDb2dVertex
 10
639.057068
 20
229.080582
 30
0.0
  0
VERTEX
  5
1C6
330
1C3
100
AcDbEntity
  8
0
370
     0
100
AcDbVertex
100
AcDb2dVertex
 10
630.02478
 20
236.757996
 30
0.0
  0
VERTEX
  5
1C7
330
1C3
100
AcDbEntity
  8
0
370
     0
100
AcDbVertex
100
AcDb2dVertex
 10
636.799011
 20
236.757996
 30
0.0
  0
VERTEX
  5
1C8
330
1C3
100
AcDbEntity
  8
0
370
     0
100
AcDbVertex
100
AcDb2dVertex
 10
644.02478
 20
236.757996
 30
0.0
  0
SEQEND
  5
1C9
330
1C3
100
AcDbEntity
  8
0
 62
     7
370
    13
  0
POLYLINE
  5
1CA
330
1F
100
AcDbEntity
  8
0
 62
     7
370
    13
100
AcDb2dPolyline
 66
     1
 10
0.0
 20
0.0
 30
0.0
  0
VERTEX
  5
1CB
330
1CA
100
AcDbEntity
  8
0
370
     0
100
AcDbVertex
100
AcDb2dVertex
 10
631.831299
 20
248.816071
 30
0.0
  0
VERTEX
  5
1CC
330
1CA
100
AcDbEntity
  8
0
370
     0
100
AcDbVertex
100
AcDb2dVertex
 10
630.02478
 20
251.299942
 30
0.0
  0
VERTEX
  5
1CD
330
1CA
100
AcDbEntity
  8
0
370
     0
100
AcDbVertex
100
AcDb2dVertex
 10
644.02478
 20
251.299942
 30
0.0
  0
SEQEND
  5
1CE
330
1CA
100
AcDbEntity
  8
0
 62
     7
370
    13
  0
POLYLINE
  5
1CF
330
1F
100
AcDbEntity
  8
0
 62
     7
370
    13
100
AcDb2dPolyline
 66
     1
 10
0.0
 20
0.0
 30
0.0
  0
VERTEX
  5
1D0
330
1CF
100
AcDbEntity
  8
0
370
     0
100
AcDbVertex
100
AcDb2dVertex
 10
632.508667
 20
247.461227
 30
0.0
  0
VERTEX
  5
1D1
330
1CF
100
AcDbEntity
  8
0
370
     0
100
AcDbVertex
100
AcDb2dVertex
 10
631.831299
 20
248.816071
 30
0.0
  0
SEQEND
  5
1D2
330
1CF
100
AcDbEntity
  8
0
 62
     7
370
    13
  0
POLYLINE
  5
1D3
330
1F
100
AcDbEntity
  8
0
 62
     7
370
    13
100
AcDb2dPolyline
 66
     1
 10
0.0
 20
0.0
 30
0.0
 70
     1
  0
VERTEX
  5
1D4
330
1D3
100
AcDbEntity
  8
0
370
     0
100
AcDbVertex
100
AcDb2dVertex
 10
630.02478
 20
266.293488
 30
0.0
  0
VERTEX
  5
1D5
330
1D3
100
AcDbEntity
  8
0
370
     0
100
AcDbVertex
100
AcDb2dVertex
 10
630.702209
 20
263.809631
 30
0.0
  0
VERTEX
  5
1D6
330
1D3
100
AcDbEntity
  8
0
370
     0
100
AcDbVertex
100
AcDb2dVertex
 10
632.960327
 20
262.228973
 30
0.0
  0
VERTEX
  5
1D7
330
1D3
100
AcDbEntity
  8
0
370
     0
100
AcDbVertex
100
AcDb2dVertex
 10
635.218384
 20
261.551544
 30
0.0
  0
VERTEX
  5
1D8
330
1D3
100
AcDbEntity
  8
0
370
     0
100
AcDbVertex
100
AcDb2dVertex
 10
638.153809
 20
261.551544
 30
0.0
  0
VERTEX
  5
1D9
330
1D3
100
AcDbEntity
  8
0
370
     0
100
AcDbVertex
100
AcDb2dVertex
 10
641.089355
 20
262.228973
 30
0.0
  0
VERTEX
  5
1DA
330
1D3
100
AcDbEntity
  8
0
370
     0
100
AcDbVertex
100
AcDb2dVertex
 10
643.347412
 20
263.809631
 30
0.0
  0
VERTEX
  5
1DB
330
1D3
100
AcDbEntity
  8
0
370
     0
100
AcDbVertex
100
AcDb2dVertex
 10
644.02478
 20
266.293488
 30
0.0
  0
VERTEX
  5
1DC
330
1D3
100
AcDbEntity
  8
0
370
     0
100
AcDbVertex
100
AcDb2dVertex
 10
644.02478
 20
268.099945
 30
0.0
  0
VERTEX
  5
1DD
330
1D3
100
AcDbEntity
  8
0
370
     0
100
AcDbVertex
100
AcDb2dVertex
 10
643.347412
 20
270.583801
 30
0.0
  0
VERTEX
  5
1DE
330
1D3
100
AcDbEntity
  8
0
370
     0
100
AcDbVertex
100
AcDb2dVertex
 10
641.089355
 20
272.164459
 30
0.0
  0
VERTEX
  5
1DF
330
1D3
100
AcDbEntity
  8
0
370
     0
100
AcDbVertex
100
AcDb2dVertex
 10
638.379639
 20
272.841888
 30
0.0
  0
VERTEX
  5
1E0
330
1D3
100
AcDbEntity
  8
0
370
     0
100
AcDbVertex
100
AcDb2dVertex
 10
635.218384
 20
272.841888
 30
0.0
  0
VERTEX
  5
1E1
330
1D3
100
AcDbEntity
  8
0
370
     0
100
AcDbVertex
100
AcDb2dVertex
 10
632.960327
 20
272.164459
 30
0.0
  0
VERTEX
  5
1E2
330
1D3
100
AcDbEntity
  8
0
370
     0
100
AcDbVertex
100
AcDb2dVertex
 10
630.702209
 20
270.583801
 30
0.0
  0
VERTEX
  5
1E3
330
1D3
100
AcDbEntity
  8
0
370
     0
100
AcDbVertex
100
AcDb2dVertex
 10
630.02478
 20
268.099945
 30
0.0
  0
SEQEND
  5
1E4
330
1D3
100
AcDbEntity
  8
0
 62
     7
370
    13
  0
LINE
  5
1E5
330
1F
100
AcDbEntity
  8
0
 62
     7
370
    13
100
AcDbLine
 10
546.209717
 20
202.97522
 30
0.0
 11
648.02478
 21
202.97522
 31
0.0
  0
LINE
  5
1E6
330
1F
100
AcDbEntity
  8
0
 62
     7
370
    13
100
AcDbLine
 10
546.209717
 20
407.97522
 30
0.0
 11
648.02478
 21
407.97522
 31
0.0
  0
POLYLINE
  5
1E7
330
1F
100
AcDbEntity
  8
0
 62
     7
370
    13
100
AcDb2dPolyline
 66
     1
 10
0.0
 20
0.0
 30
0.0
  0
VERTEX
  5
1E8
330
1E7
100
AcDbEntity
  8
0
370
     0
100
AcDbVertex
100
AcDb2dVertex
 10
646.54248
 20
406.043365
 30
0.0
  0
VERTEX
  5
1E9
330
1E7
100
AcDbEntity
  8
0
370
     0
100
AcDbVertex
100
AcDb2dVertex
 10
646.02478
 20
407.97522
 30
0.0
  0
VERTEX
  5
1EA
330
1E7
100
AcDbEntity
  8
0
370
     0
100
AcDbVertex
100
AcDb2dVertex
 10
645.507202
 20
406.043365
 30
0.0
  0
SEQEND
  5
1EB
330
1E7
100
AcDbEntity
  8
0
 62
     7
370
    13
  0
POLYLINE
  5
1EC
330
1F
100
AcDbEntity
  8
0
 62
     7
370
    13
100
AcDb2dPolyline
 66
     1
 10
0.0
 20
0.0
 30
0.0
  0
VERTEX
  5
1ED
330
1EC
100
AcDbEntity
  8
0
370
     0
100
AcDbVertex
100
AcDb2dVertex
 10
645.507202
 20
204.907074
 30
0.0
  0
VERTEX
  5
1EE
330
1EC
100
AcDbEntity
  8
0
370
     0
100
AcDbVertex
100
AcDb2dVertex
 10
646.02478
 20
202.97522
 30
0.0
  0
VERTEX
  5
1EF
330
1EC
100
AcDbEntity
  8
0
370
     0
100
AcDbVertex
100
AcDb2dVertex
 10
646.54248
 20
204.907074
 30
0.0
  0
SEQEND
  5
1F0
330
1EC
100
AcDbEntity
  8
0
 62
     7
370
    13
  0
LINE
  5
1F1
330
1F
100
AcDbEntity
  8
0
 62
     7
370
    13
100
AcDbLine
 10
646.02478
 20
202.97522
 30
0.0
 11
646.02478
 21
407.97522
 31
0.0
  0
POLYLINE
  5
1F2
330
1F
100
AcDbEntity
  8
0
 62
     7
370
    13
100
AcDb2dPolyline
 66
     1
 10
0.0
 20
0.0
 30
0.0
  0
VERTEX
  5
1F3
330
1F2
100
AcDbEntity
  8
0
370
     0
100
AcDbVertex
100
AcDb2dVertex
 10
260.181366
 20
266.925476
 30
0.0
  0
VERTEX
  5
1F4
330
1F2
100
AcDbEntity
  8
0
370
     0
100
AcDbVertex
100
AcDb2dVertex
 10
261.750732
 20
267.359741
 30
0.0
  0
VERTEX
  5
1F5
330
1F2
100
AcDbEntity
  8
0
370
     0
100
AcDbVertex
100
AcDb2dVertex
 10
263.739929
 20
268.624939
 30
0.0
  0
VERTEX
  5
1F6
330
1F2
100
AcDbEntity
  8
0
370
     0
100
AcDbVertex
100
AcDb2dVertex
 10
264.921326
 20
269.991516
 30
0.0
  0
VERTEX
  5
1F7
330
1F2
100
AcDbEntity
  8
0
370
     0
100
AcDbVertex
100
AcDb2dVertex
 10
265.88562
 20
272.142761
 30
0.0
  0
SEQEND
  5
1F8
330
1F2
100
AcDbEntity
  8
0
 62
     7
370
    13
  0
POLYLINE
  5
1F9
330
1F
100
AcDbEntity
  8
0
 62
     7
370
    13
100
AcDb2dPolyline
 66
     1
 10
0.0
 20
0.0
 30
0.0
  0
VERTEX
  5
1FA
330
1F9
100
AcDbEntity
  8
0
370
     0
100
AcDbVertex
100
AcDb2dVertex
 10
256.319519
 20
280.412598
 30
0.0
  0
VERTEX
  5
1FB
330
1F9
100
AcDbEntity
  8
0
370
     0
100
AcDbVertex
100
AcDb2dVertex
 10
254.330292
 20
279.147369
 30
0.0
  0
VERTEX
  5
1FC
330
1F9
100
AcDbEntity
  8
0
370
     0
100
AcDbVertex
100
AcDb2dVertex
 10
253.148895
 20
277.780792
 30
0.0
  0
VERTEX
  5
1FD
330
1F9
100
AcDbEntity
  8
0
370
     0
100
AcDbVertex
100
AcDb2dVertex
 10
252.184616
 20
275.629547
 30
0.0
  0
SEQEND
  5
1FE
330
1F9
100
AcDbEntity
  8
0
 62
     7
370
    13
  0
POLYLINE
  5
1FF
330
1F
100
AcDbEntity
  8
0
 62
     7
370
    13
100
AcDb2dPolyline
 66
     1
 10
0.0
 20
0.0
 30
0.0
  0
VERTEX
  5
200
330
1FF
100
AcDbEntity
  8
0
370
     0
100
AcDbVertex
100
AcDb2dVertex
 10
260.181366
 20
266.925476
 30
0.0
  0
VERTEX
  5
201
330
1FF
100
AcDbEntity
  8
0
370
     0
100
AcDbVertex
100
AcDb2dVertex
 10
258.713409
 20
267.299072
 30
0.0
  0
VERTEX
  5
202
330
1FF
100
AcDbEntity
  8
0
370
     0
100
AcDbVertex
100
AcDb2dVertex
 10
257.688477
 20
268.18512
 30
0.0
  0
VERTEX
  5
203
330
1FF
100
AcDbEntity
  8
0
370
     0
100
AcDbVertex
100
AcDb2dVertex
 10
257.106567
 20
269.583649
 30
0.0
  0
VERTEX
  5
204
330
1FF
100
AcDbEntity
  8
0
370
     0
100
AcDbVertex
100
AcDb2dVertex
 10
257.115356
 20
271.665466
 30
0.0
  0
VERTEX
  5
205
330
1FF
100
AcDbEntity
  8
0
370
     0
100
AcDbVertex
100
AcDb2dVertex
 10
259.191589
 20
276.138794
 30
0.0
  0
VERTEX
  5
206
330
1FF
100
AcDbEntity
  8
0
370
     0
100
AcDbVertex
100
AcDb2dVertex
 10
259.588318
 20
277.288269
 30
0.0
  0
VERTEX
  5
207
330
1FF
100
AcDbEntity
  8
0
370
     0
100
AcDbVertex
100
AcDb2dVertex
 10
259.51886
 20
278.243744
 30
0.0
  0
VERTEX
  5
208
330
1FF
100
AcDbEntity
  8
0
370
     0
100
AcDbVertex
100
AcDb2dVertex
 10
258.960114
 20
279.323792
 30
0.0
  0
VERTEX
  5
209
330
1FF
100
AcDbEntity
  8
0
370
     0
100
AcDbVertex
100
AcDb2dVertex
 10
257.764343
 20
280.357513
 30
0.0
  0
VERTEX
  5
20A
330
1FF
100
AcDbEntity
  8
0
370
     0
100
AcDbVertex
100
AcDb2dVertex
 10
256.319519
 20
280.412598
 30
0.0
  0
SEQEND
  5
20B
330
1FF
100
AcDbEntity
  8
0
 62
     7
370
    13
  0
POLYLINE
  5
20C
330
1F
100
AcDbEntity
  8
0
 62
     7
370
    13
100
AcDb2dPolyline
 66
     1
 10
0.0
 20
0.0
 30
0.0
  0
VERTEX
  5
20D
330
20C
100
AcDbEntity
  8
0
370
     0
100
AcDbVertex
100
AcDb2dVertex
 10
252.184616
 20
275.629547
 30
0.0
  0
VERTEX
  5
20E
330
20C
100
AcDbEntity
  8
0
370
     0
100
AcDbVertex
100
AcDb2dVertex
 10
252.448029
 20
274.207855
 30
0.0
  0
VERTEX
  5
20F
330
20C
100
AcDbEntity
  8
0
370
     0
100
AcDbVertex
100
AcDb2dVertex
 10
253.643799
 20
273.174133
 30
0.0
  0
VERTEX
  5
210
330
20C
100
AcDbEntity
  8
0
370
     0
100
AcDbVertex
100
AcDb2dVertex
 10
254.793259
 20
272.777405
 30
0.0
  0
VERTEX
  5
211
330
20C
100
AcDbEntity
  8
0
370
     0
100
AcDbVertex
100
AcDb2dVertex
 10
255.748749
 20
272.846863
 30
0.0
  0
VERTEX
  5
212
330
20C
100
AcDbEntity
  8
0
370
     0
100
AcDbVertex
100
AcDb2dVertex
 10
256.828796
 20
273.405609
 30
0.0
  0
VERTEX
  5
213
330
20C
100
AcDbEntity
  8
0
370
     0
100
AcDbVertex
100
AcDb2dVertex
 10
261.1026
 20
276.277679
 30
0.0
  0
SEQEND
  5
214
330
20C
100
AcDbEntity
  8
0
 62
     7
370
    13
  0
POLYLINE
  5
215
330
1F
100
AcDbEntity
  8
0
 62
     7
370
    13
100
AcDb2dPolyline
 66
     1
 10
0.0
 20
0.0
 30
0.0
  0
VERTEX
  5
216
330
215
100
AcDbEntity
  8
0
370
     0
100
AcDbVertex
100
AcDb2dVertex
 10
263.161255
 20
276.587402
 30
0.0
  0
VERTEX
  5
217
330
215
100
AcDbEntity
  8
0
370
     0
100
AcDbVertex
100
AcDb2dVertex
 10
264.629211
 20
276.213806
 30
0.0
  0
VERTEX
  5
218
330
215
100
AcDbEntity
  8
0
370
     0
100
AcDbVertex
100
AcDb2dVertex
 10
265.654144
 20
275.327759
 30
0.0
  0
VERTEX
  5
219
330
215
100
AcDbEntity
  8
0
370
     0
100
AcDbVertex
100
AcDb2dVertex
 10
266.236053
 20
273.92923
 30
0.0
  0
VERTEX
  5
21A
330
215
100
AcDbEntity
  8
0
370
     0
100
AcDbVertex
100
AcDb2dVertex
 10
265.88562
 20
272.142761
 30
0.0
  0
SEQEND
  5
21B
330
215
100
AcDbEntity
  8
0
 62
     7
370
    13
  0
POLYLINE
  5
21C
330
1F
100
AcDbEntity
  8
0
 62
     7
370
    13
100
AcDb2dPolyline
 66
     1
 10
0.0
 20
0.0
 30
0.0
  0
VERTEX
  5
21D
330
21C
100
AcDbEntity
  8
0
370
     0
100
AcDbVertex
100
AcDb2dVertex
 10
263.161255
 20
276.587402
 30
0.0
  0
VERTEX
  5
21E
330
21C
100
AcDbEntity
  8
0
370
     0
100
AcDbVertex
100
AcDb2dVertex
 10
261.1026
 20
276.277679
 30
0.0
  0
SEQEND
  5
21F
330
21C
100
AcDbEntity
  8
0
 62
     7
370
    13
  0
POLYLINE
  5
220
330
1F
100
AcDbEntity
  8
0
 62
     7
370
    13
100
AcDb2dPolyline
 66
     1
 10
0.0
 20
0.0
 30
0.0
 70
     1
  0
VERTEX
  5
221
330
220
100
AcDbEntity
  8
0
370
     0
100
AcDbVertex
100
AcDb2dVertex
 10
263.988251
 20
290.319214
 30
0.0
  0
VERTEX
  5
222
330
220
100
AcDbEntity
  8
0
370
     0
100
AcDbVertex
100
AcDb2dVertex
 10
262.876282
 20
287.997131
 30
0.0
  0
VERTEX
  5
223
330
220
100
AcDbEntity
  8
0
370
     0
100
AcDbVertex
100
AcDb2dVertex
 10
263.550781
 20
285.324615
 30
0.0
  0
VERTEX
  5
224
330
220
100
AcDbEntity
  8
0
370
     0
100
AcDbVertex
100
AcDb2dVertex
 10
264.81601
 20
283.335388
 30
0.0
  0
VERTEX
  5
225
330
220
100
AcDbEntity
  8
0
370
     0
100
AcDbVertex
100
AcDb2dVertex
 10
267.036713
 20
281.415619
 30
0.0
  0
VERTEX
  5
226
330
220
100
AcDbEntity
  8
0
370
     0
100
AcDbVertex
100
AcDb2dVertex
 10
269.700439
 20
280.008301
 30
0.0
  0
VERTEX
  5
227
330
220
100
AcDbEntity
  8
0
370
     0
100
AcDbVertex
100
AcDb2dVertex
 10
272.442383
 20
279.727325
 30
0.0
  0
VERTEX
  5
228
330
220
100
AcDbEntity
  8
0
370
     0
100
AcDbVertex
100
AcDb2dVertex
 10
274.579285
 20
281.163361
 30
0.0
  0
VERTEX
  5
229
330
220
100
AcDbEntity
  8
0
370
     0
100
AcDbVertex
100
AcDb2dVertex
 10
275.760681
 20
282.529938
 30
0.0
  0
VERTEX
  5
22A
330
220
100
AcDbEntity
  8
0
370
     0
100
AcDbVertex
100
AcDb2dVertex
 10
276.872681
 20
284.85202
 30
0.0
  0
VERTEX
  5
22B
330
220
100
AcDbEntity
  8
0
370
     0
100
AcDbVertex
100
AcDb2dVertex
 10
276.198151
 20
287.524536
 30
0.0
  0
VERTEX
  5
22C
330
220
100
AcDbEntity
  8
0
370
     0
100
AcDbVertex
100
AcDb2dVertex
 10
274.591309
 20
289.809113
 30
0.0
  0
VERTEX
  5
22D
330
220
100
AcDbEntity
  8
0
370
     0
100
AcDbVertex
100
AcDb2dVertex
 10
272.199768
 20
291.876556
 30
0.0
  0
VERTEX
  5
22E
330
220
100
AcDbEntity
  8
0
370
     0
100
AcDbVertex
100
AcDb2dVertex
 10
270.048523
 20
292.840851
 30
0.0
  0
VERTEX
  5
22F
330
220
100
AcDbEntity
  8
0
370
     0
100
AcDbVertex
100
AcDb2dVertex
 10
267.30658
 20
293.121826
 30
0.0
  0
VERTEX
  5
230
330
220
100
AcDbEntity
  8
0
370
     0
100
AcDbVertex
100
AcDb2dVertex
 10
265.169647
 20
291.685791
 30
0.0
  0
SEQEND
  5
231
330
220
100
AcDbEntity
  8
0
 62
     7
370
    13
  0
POLYLINE
  5
232
330
1F
100
AcDbEntity
  8
0
 62
     7
370
    13
100
AcDb2dPolyline
 66
     1
 10
0.0
 20
0.0
 30
0.0
  0
VERTEX
  5
233
330
232
100
AcDbEntity
  8
0
370
     0
100
AcDbVertex
100
AcDb2dVertex
 10
245.554169
 20
268.995605
 30
0.0
  0
VERTEX
  5
234
330
232
100
AcDbEntity
  8
0
370
     0
100
AcDbVertex
100
AcDb2dVertex
 10
240.533234
 20
263.187622
 30
0.0
  0
SEQEND
  5
235
330
232
100
AcDbEntity
  8
0
 62
     7
370
    13
  0
POLYLINE
  5
236
330
1F
100
AcDbEntity
  8
0
 62
     7
370
    13
100
AcDb2dPolyline
 66
     1
 10
0.0
 20
0.0
 30
0.0
  0
VERTEX
  5
237
330
236
100
AcDbEntity
  8
0
370
     0
100
AcDbVertex
100
AcDb2dVertex
 10
245.657928
 20
258.757355
 30
0.0
  0
VERTEX
  5
238
330
236
100
AcDbEntity
  8
0
370
     0
100
AcDbVertex
100
AcDb2dVertex
 10
250.974228
 20
264.906982
 30
0.0
  0
SEQEND
  5
239
330
236
100
AcDbEntity
  8
0
 62
     7
370
    13
  0
POLYLINE
  5
23A
330
1F
100
AcDbEntity
  8
0
 62
     7
370
    13
100
AcDb2dPolyline
 66
     1
 10
0.0
 20
0.0
 30
0.0
  0
VERTEX
  5
23B
330
23A
100
AcDbEntity
  8
0
370
     0
100
AcDbVertex
100
AcDb2dVertex
 10
240.533234
 20
263.187622
 30
0.0
  0
VERTEX
  5
23C
330
23A
100
AcDbEntity
  8
0
370
     0
100
AcDbVertex
100
AcDb2dVertex
 10
251.124268
 20
254.031738
 30
0.0
  0
SEQEND
  5
23D
330
23A
100
AcDbEntity
  8
0
 62
     7
370
    13
  0
POLYLINE
  5
23E
330
1F
100
AcDbEntity
  8
0
 62
     7
370
    13
100
AcDb2dPolyline
 66
     1
 10
0.0
 20
0.0
 30
0.0
  0
VERTEX
  5
23F
330
23E
100
AcDbEntity
  8
0
370
     0
100
AcDbVertex
100
AcDb2dVertex
 10
245.554169
 20
268.995605
 30
0.0
  0
VERTEX
  5
240
330
23E
100
AcDbEntity
  8
0
370
     0
100
AcDbVertex
100
AcDb2dVertex
 10
247.100388
 20
269.748322
 30
0.0
  0
VERTEX
  5
241
330
23E
100
AcDbEntity
  8
0
370
     0
100
AcDbVertex
100
AcDb2dVertex
 10
249.329865
 20
269.91037
 30
0.0
  0
VERTEX
  5
242
330
23E
100
AcDbEntity
  8
0
370
     0
100
AcDbVertex
100
AcDb2dVertex
 10
251.038101
 20
268.433624
 30
0.0
  0
VERTEX
  5
243
330
23E
100
AcDbEntity
  8
0
370
     0
100
AcDbVertex
100
AcDb2dVertex
 10
251.324661
 20
266.693451
 30
0.0
  0
VERTEX
  5
244
330
23E
100
AcDbEntity
  8
0
370
     0
100
AcDbVertex
100
AcDb2dVertex
 10
250.974228
 20
264.906982
 30
0.0
  0
SEQEND
  5
245
330
23E
100
AcDbEntity
  8
0
 62
     7
370
    13
  0
POLYLINE
  5
246
330
1F
100
AcDbEntity
  8
0
 62
     7
370
    13
100
AcDb2dPolyline
 66
     1
 10
0.0
 20
0.0
 30
0.0
  0
VERTEX
  5
247
330
246
100
AcDbEntity
  8
0
370
     0
100
AcDbVertex
100
AcDb2dVertex
 10
249.792831
 20
263.540405
 30
0.0
  0
VERTEX
  5
248
330
246
100
AcDbEntity
  8
0
370
     0
100
AcDbVertex
100
AcDb2dVertex
 10
258.212677
 20
262.231262
 30
0.0
  0
SEQEND
  5
249
330
246
100
AcDbEntity
  8
0
 62
     7
370
    13
  0
POLYLINE
  5
24A
330
1F
100
AcDbEntity
  8
0
 62
     7
370
    13
100
AcDb2dPolyline
 66
     1
 10
0.0
 20
0.0
 30
0.0
  0
VERTEX
  5
24B
330
24A
100
AcDbEntity
  8
0
370
     0
100
AcDbVertex
100
AcDb2dVertex
 10
218.921951
 20
214.515076
 30
0.0
  0
VERTEX
  5
24C
330
24A
100
AcDbEntity
  8
0
370
     0
100
AcDbVertex
100
AcDb2dVertex
 10
218.05014
 20
212.715088
 30
0.0
  0
VERTEX
  5
24D
330
24A
100
AcDbEntity
  8
0
370
     0
100
AcDbVertex
100
AcDb2dVertex
 10
219.705139
 20
213.838013
 30
0.0
  0
SEQEND
  5
24E
330
24A
100
AcDbEntity
  8
0
 62
     7
370
    13
  0
LINE
  5
24F
330
1F
100
AcDbEntity
  8
0
 62
     7
370
    13
100
AcDbLine
 10
218.05014
 20
212.715088
 30
0.0
 11
281.113281
 21
285.663361
 31
0.0
  0
POLYLINE
  5
250
330
1F
100
AcDbEntity
  8
0
 62
     7
370
    13
100
AcDb2dPolyline
 66
     1
 10
0.0
 20
0.0
 30
0.0
  0
VERTEX
  5
251
330
250
100
AcDbEntity
  8
0
370
     0
100
AcDbVertex
100
AcDb2dVertex
 10
549.491272
 20
221.631897
 30
0.0
  0
VERTEX
  5
252
330
250
100
AcDbEntity
  8
0
370
     0
100
AcDbVertex
100
AcDb2dVertex
 10
549.491272
 20
213.889969
 30
0.0
  0
VERTEX
  5
253
330
250
100
AcDbEntity
  8
0
370
     0
100
AcDbVertex
100
AcDb2dVertex
 10
544.975159
 20
219.37384
 30
0.0
  0
VERTEX
  5
254
330
250
100
AcDbEntity
  8
0
370
     0
100
AcDbVertex
100
AcDb2dVertex
 10
543.684814
 20
220.502869
 30
0.0
  0
VERTEX
  5
255
330
250
100
AcDbEntity
  8
0
370
     0
100
AcDbVertex
100
AcDb2dVertex
 10
542.717041
 20
220.98674
 30
0.0
  0
VERTEX
  5
256
330
250
100
AcDbEntity
  8
0
370
     0
100
AcDbVertex
100
AcDb2dVertex
 10
541.749329
 20
220.98674
 30
0.0
  0
VERTEX
  5
257
330
250
100
AcDbEntity
  8
0
370
     0
100
AcDbVertex
100
AcDb2dVertex
 10
540.6203
 20
220.502869
 30
0.0
  0
VERTEX
  5
258
330
250
100
AcDbEntity
  8
0
370
     0
100
AcDbVertex
100
AcDb2dVertex
 10
539.975159
 20
220.018997
 30
0.0
  0
VERTEX
  5
259
330
250
100
AcDbEntity
  8
0
370
     0
100
AcDbVertex
100
AcDb2dVertex
 10
539.491272
 20
218.889969
 30
0.0
  0
VERTEX
  5
25A
330
250
100
AcDbEntity
  8
0
370
     0
100
AcDbVertex
100
AcDb2dVertex
 10
539.491272
 20
216.954483
 30
0.0
  0
VERTEX
  5
25B
330
250
100
AcDbEntity
  8
0
370
     0
100
AcDbVertex
100
AcDb2dVertex
 10
539.975159
 20
215.825439
 30
0.0
  0
VERTEX
  5
25C
330
250
100
AcDbEntity
  8
0
370
     0
100
AcDbVertex
100
AcDb2dVertex
 10
540.458984
 20
215.341583
 30
0.0
  0
VERTEX
  5
25D
330
250
100
AcDbEntity
  8
0
370
     0
100
AcDbVertex
100
AcDb2dVertex
 10
541.426758
 20
214.696411
 30
0.0
  0
VERTEX
  5
25E
330
250
100
AcDbEntity
  8
0
370
     0
100
AcDbVertex
100
AcDb2dVertex
 10
541.910645
 20
214.696411
 30
0.0
  0
SEQEND
  5
25F
330
250
100
AcDbEntity
  8
0
 62
     7
370
    13
  0
POLYLINE
  5
260
330
1F
100
AcDbEntity
  8
0
 62
     7
370
    13
100
AcDb2dPolyline
 66
     1
 10
0.0
 20
0.0
 30
0.0
  0
VERTEX
  5
261
330
260
100
AcDbEntity
  8
0
370
     0
100
AcDbVertex
100
AcDb2dVertex
 10
547.717041
 20
225.567383
 30
0.0
  0
VERTEX
  5
262
330
260
100
AcDbEntity
  8
0
370
     0
100
AcDbVertex
100
AcDb2dVertex
 10
548.52356
 20
226.051254
 30
0.0
  0
VERTEX
  5
263
330
260
100
AcDbEntity
  8
0
370
     0
100
AcDbVertex
100
AcDb2dVertex
 10
549.007385
 20
226.535126
 30
0.0
  0
VERTEX
  5
264
330
260
100
AcDbEntity
  8
0
370
     0
100
AcDbVertex
100
AcDb2dVertex
 10
549.491272
 20
228.309326
 30
0.0
  0
VERTEX
  5
265
330
260
100
AcDbEntity
  8
0
370
     0
100
AcDbVertex
100
AcDb2dVertex
 10
549.491272
 20
230.083527
 30
0.0
  0
VERTEX
  5
266
330
260
100
AcDbEntity
  8
0
370
     0
100
AcDbVertex
100
AcDb2dVertex
 10
549.007385
 20
232.018997
 30
0.0
  0
VERTEX
  5
267
330
260
100
AcDbEntity
  8
0
370
     0
100
AcDbVertex
100
AcDb2dVertex
 10
548.039673
 20
232.98674
 30
0.0
  0
VERTEX
  5
268
330
260
100
AcDbEntity
  8
0
370
     0
100
AcDbVertex
100
AcDb2dVertex
 10
546.588013
 20
233.470612
 30
0.0
  0
VERTEX
  5
269
330
260
100
AcDbEntity
  8
0
370
     0
100
AcDbVertex
100
AcDb2dVertex
 10
545.6203
 20
233.470612
 30
0.0
  0
VERTEX
  5
26A
330
260
100
AcDbEntity
  8
0
370
     0
100
AcDbVertex
100
AcDb2dVertex
 10
544.168701
 20
232.98674
 30
0.0
  0
VERTEX
  5
26B
330
260
100
AcDbEntity
  8
0
370
     0
100
AcDbVertex
100
AcDb2dVertex
 10
543.362244
 20
232.018997
 30
0.0
  0
VERTEX
  5
26C
330
260
100
AcDbEntity
  8
0
370
     0
100
AcDbVertex
100
AcDb2dVertex
 10
542.878357
 20
230.083527
 30
0.0
  0
VERTEX
  5
26D
330
260
100
AcDbEntity
  8
0
370
     0
100
AcDbVertex
100
AcDb2dVertex
 10
542.878357
 20
228.309326
 30
0.0
  0
VERTEX
  5
26E
330
260
100
AcDbEntity
  8
0
370
     0
100
AcDbVertex
100
AcDb2dVertex
 10
543.362244
 20
226.857712
 30
0.0
  0
VERTEX
  5
26F
330
260
100
AcDbEntity
  8
0
370
     0
100
AcDbVertex
100
AcDb2dVertex
 10
543.84613
 20
226.37384
 30
0.0
  0
VERTEX
  5
270
330
260
100
AcDbEntity
  8
0
370
     0
100
AcDbVertex
100
AcDb2dVertex
 10
539.491272
 20
226.857712
 30
0.0
  0
VERTEX
  5
271
330
260
100
AcDbEntity
  8
0
370
     0
100
AcDbVertex
100
AcDb2dVertex
 10
539.491272
 20
232.825455
 30
0.0
  0
SEQEND
  5
272
330
260
100
AcDbEntity
  8
0
 62
     7
370
    13
  0
POLYLINE
  5
273
330
1F
100
AcDbEntity
  8
0
 62
     7
370
    13
100
AcDb2dPolyline
 66
     1
 10
0.0
 20
0.0
 30
0.0
  0
VERTEX
  5
274
330
273
100
AcDbEntity
  8
0
370
     0
100
AcDbVertex
100
AcDb2dVertex
 10
549.491272
 20
241.115784
 30
0.0
  0
VERTEX
  5
275
330
273
100
AcDbEntity
  8
0
370
     0
100
AcDbVertex
100
AcDb2dVertex
 10
549.491272
 20
241.438354
 30
0.0
  0
SEQEND
  5
276
330
273
100
AcDbEntity
  8
0
 62
     7
370
    13
  0
POLYLINE
  5
277
330
1F
100
AcDbEntity
  8
0
 62
     7
370
    13
100
AcDb2dPolyline
 66
     1
 10
0.0
 20
0.0
 30
0.0
  0
VERTEX
  5
278
330
277
100
AcDbEntity
  8
0
370
     0
100
AcDbVertex
100
AcDb2dVertex
 10
548.684814
 20
241.922226
 30
0.0
  0
VERTEX
  5
279
330
277
100
AcDbEntity
  8
0
370
     0
100
AcDbVertex
100
AcDb2dVertex
 10
548.200928
 20
241.438354
 30
0.0
  0
SEQEND
  5
27A
330
277
100
AcDbEntity
  8
0
 62
     7
370
    13
  0
POLYLINE
  5
27B
330
1F
100
AcDbEntity
  8
0
 62
     7
370
    13
100
AcDb2dPolyline
 66
     1
 10
0.0
 20
0.0
 30
0.0
  0
VERTEX
  5
27C
330
27B
100
AcDbEntity
  8
0
370
     0
100
AcDbVertex
100
AcDb2dVertex
 10
548.200928
 20
241.115784
 30
0.0
  0
VERTEX
  5
27D
330
27B
100
AcDbEntity
  8
0
370
     0
100
AcDbVertex
100
AcDb2dVertex
 10
548.684814
 20
240.631897
 30
0.0
  0
SEQEND
  5
27E
330
27B
100
AcDbEntity
  8
0
 62
     7
370
    13
  0
POLYLINE
  5
27F
330
1F
100
AcDbEntity
  8
0
 62
     7
370
    13
100
AcDb2dPolyline
 66
     1
 10
0.0
 20
0.0
 30
0.0
  0
VERTEX
  5
280
330
27F
100
AcDbEntity
  8
0
370
     0
100
AcDbVertex
100
AcDb2dVertex
 10
549.007385
 20
240.631897
 30
0.0
  0
VERTEX
  5
281
330
27F
100
AcDbEntity
  8
0
370
     0
100
AcDbVertex
100
AcDb2dVertex
 10
549.491272
 20
241.115784
 30
0.0
  0
SEQEND
  5
282
330
27F
100
AcDbEntity
  8
0
 62
     7
370
    13
  0
POLYLINE
  5
283
330
1F
100
AcDbEntity
  8
0
 62
     7
370
    13
100
AcDb2dPolyline
 66
     1
 10
0.0
 20
0.0
 30
0.0
  0
VERTEX
  5
284
330
283
100
AcDbEntity
  8
0
370
     0
100
AcDbVertex
100
AcDb2dVertex
 10
549.491272
 20
241.438354
 30
0.0
  0
VERTEX
  5
285
330
283
100
AcDbEntity
  8
0
370
     0
100
AcDbVertex
100
AcDb2dVertex
 10
549.007385
 20
241.922226
 30
0.0
  0
SEQEND
  5
286
330
283
100
AcDbEntity
  8
0
 62
     7
370
    13
  0
POLYLINE
  5
287
330
1F
100
AcDbEntity
  8
0
 62
     7
370
    13
100
AcDb2dPolyline
 66
     1
 10
0.0
 20
0.0
 30
0.0
  0
VERTEX
  5
288
330
287
100
AcDbEntity
  8
0
370
     0
100
AcDbVertex
100
AcDb2dVertex
 10
548.684814
 20
240.631897
 30
0.0
  0
VERTEX
  5
289
330
287
100
AcDbEntity
  8
0
370
     0
100
AcDbVertex
100
AcDb2dVertex
 10
549.007385
 20
240.631897
 30
0.0
  0
SEQEND
  5
28A
330
287
100
AcDbEntity
  8
0
 62
     7
370
    13
  0
POLYLINE
  5
28B
330
1F
100
AcDbEntity
  8
0
 62
     7
370
    13
100
AcDb2dPolyline
 66
     1
 10
0.0
 20
0.0
 30
0.0
  0
VERTEX
  5
28C
330
28B
100
AcDbEntity
  8
0
370
     0
100
AcDbVertex
100
AcDb2dVertex
 10
548.200928
 20
241.115784
 30
0.0
  0
VERTEX
  5
28D
330
28B
100
AcDbEntity
  8
0
370
     0
100
AcDbVertex
100
AcDb2dVertex
 10
548.200928
 20
241.438354
 30
0.0
  0
SEQEND
  5
28E
330
28B
100
AcDbEntity
  8
0
 62
     7
370
    13
  0
POLYLINE
  5
28F
330
1F
100
AcDbEntity
  8
0
 62
     7
370
    13
100
AcDb2dPolyline
 66
     1
 10
0.0
 20
0.0
 30
0.0
  0
VERTEX
  5
290
330
28F
100
AcDbEntity
  8
0
370
     0
100
AcDbVertex
100
AcDb2dVertex
 10
548.684814
 20
241.922226
 30
0.0
  0
VERTEX
  5
291
330
28F
100
AcDbEntity
  8
0
370
     0
100
AcDbVertex
100
AcDb2dVertex
 10
549.007385
 20
241.922226
 30
0.0
  0
SEQEND
  5
292
330
28F
100
AcDbEntity
  8
0
 62
     7
370
    13
  0
POLYLINE
  5
293
330
1F
100
AcDbEntity
  8
0
 62
     7
370
    13
100
AcDb2dPolyline
 66
     1
 10
0.0
 20
0.0
 30
0.0
  0
VERTEX
  5
294
330
293
100
AcDbEntity
  8
0
370
     0
100
AcDbVertex
100
AcDb2dVertex
 10
547.717041
 20
248.922241
 30
0.0
  0
VERTEX
  5
295
330
293
100
AcDbEntity
  8
0
370
     0
100
AcDbVertex
100
AcDb2dVertex
 10
548.52356
 20
249.406097
 30
0.0
  0
VERTEX
  5
296
330
293
100
AcDbEntity
  8
0
370
     0
100
AcDbVertex
100
AcDb2dVertex
 10
549.007385
 20
249.889969
 30
0.0
  0
VERTEX
  5
297
330
293
100
AcDbEntity
  8
0
370
     0
100
AcDbVertex
100
AcDb2dVertex
 10
549.491272
 20
251.664154
 30
0.0
  0
VERTEX
  5
298
330
293
100
AcDbEntity
  8
0
370
     0
100
AcDbVertex
100
AcDb2dVertex
 10
549.491272
 20
253.438354
 30
0.0
  0
VERTEX
  5
299
330
293
100
AcDbEntity
  8
0
370
     0
100
AcDbVertex
100
AcDb2dVertex
 10
549.007385
 20
255.37384
 30
0.0
  0
VERTEX
  5
29A
330
293
100
AcDbEntity
  8
0
370
     0
100
AcDbVertex
100
AcDb2dVertex
 10
548.039673
 20
256.341583
 30
0.0
  0
VERTEX
  5
29B
330
293
100
AcDbEntity
  8
0
370
     0
100
AcDbVertex
100
AcDb2dVertex
 10
546.588013
 20
256.825439
 30
0.0
  0
VERTEX
  5
29C
330
293
100
AcDbEntity
  8
0
370
     0
100
AcDbVertex
100
AcDb2dVertex
 10
545.6203
 20
256.825439
 30
0.0
  0
VERTEX
  5
29D
330
293
100
AcDbEntity
  8
0
370
     0
100
AcDbVertex
100
AcDb2dVertex
 10
544.168701
 20
256.341583
 30
0.0
  0
VERTEX
  5
29E
330
293
100
AcDbEntity
  8
0
370
     0
100
AcDbVertex
100
AcDb2dVertex
 10
543.362244
 20
255.37384
 30
0.0
  0
VERTEX
  5
29F
330
293
100
AcDbEntity
  8
0
370
     0
100
AcDbVertex
100
AcDb2dVertex
 10
542.878357
 20
253.438354
 30
0.0
  0
VERTEX
  5
2A0
330
293
100
AcDbEntity
  8
0
370
     0
100
AcDbVertex
100
AcDb2dVertex
 10
542.878357
 20
251.664154
 30
0.0
  0
VERTEX
  5
2A1
330
293
100
AcDbEntity
  8
0
370
     0
100
AcDbVertex
100
AcDb2dVertex
 10
543.362244
 20
250.212555
 30
0.0
  0
VERTEX
  5
2A2
330
293
100
AcDbEntity
  8
0
370
     0
100
AcDbVertex
100
AcDb2dVertex
 10
543.84613
 20
249.728683
 30
0.0
  0
VERTEX
  5
2A3
330
293
100
AcDbEntity
  8
0
370
     0
100
AcDbVertex
100
AcDb2dVertex
 10
539.491272
 20
250.212555
 30
0.0
  0
VERTEX
  5
2A4
330
293
100
AcDbEntity
  8
0
370
     0
100
AcDbVertex
100
AcDb2dVertex
 10
539.491272
 20
256.180298
 30
0.0
  0
SEQEND
  5
2A5
330
293
100
AcDbEntity
  8
0
 62
     7
370
    13
  0
POLYLINE
  5
2A6
330
1F
100
AcDbEntity
  8
0
 62
     7
370
    13
100
AcDb2dPolyline
 66
     1
 10
0.0
 20
0.0
 30
0.0
  0
VERTEX
  5
2A7
330
2A6
100
AcDbEntity
  8
0
370
     0
100
AcDbVertex
100
AcDb2dVertex
 10
544.491272
 20
267.212555
 30
0.0
  0
VERTEX
  5
2A8
330
2A6
100
AcDbEntity
  8
0
370
     0
100
AcDbVertex
100
AcDb2dVertex
 10
543.362244
 20
265.922241
 30
0.0
  0
VERTEX
  5
2A9
330
2A6
100
AcDbEntity
  8
0
370
     0
100
AcDbVertex
100
AcDb2dVertex
 10
543.039673
 20
264.954498
 30
0.0
  0
VERTEX
  5
2AA
330
2A6
100
AcDbEntity
  8
0
370
     0
100
AcDbVertex
100
AcDb2dVertex
 10
543.039673
 20
263.180298
 30
0.0
  0
VERTEX
  5
2AB
330
2A6
100
AcDbEntity
  8
0
370
     0
100
AcDbVertex
100
AcDb2dVertex
 10
543.362244
 20
262.05127
 30
0.0
  0
VERTEX
  5
2AC
330
2A6
100
AcDbEntity
  8
0
370
     0
100
AcDbVertex
100
AcDb2dVertex
 10
544.491272
 20
260.760925
 30
0.0
  0
VERTEX
  5
2AD
330
2A6
100
AcDbEntity
  8
0
370
     0
100
AcDbVertex
100
AcDb2dVertex
 10
545.781616
 20
260.438354
 30
0.0
  0
SEQEND
  5
2AE
330
2A6
100
AcDbEntity
  8
0
 62
     7
370
    13
  0
POLYLINE
  5
2AF
330
1F
100
AcDbEntity
  8
0
 62
     7
370
    13
100
AcDb2dPolyline
 66
     1
 10
0.0
 20
0.0
 30
0.0
  0
VERTEX
  5
2B0
330
2AF
100
AcDbEntity
  8
0
370
     0
100
AcDbVertex
100
AcDb2dVertex
 10
549.491272
 20
264.954498
 30
0.0
  0
VERTEX
  5
2B1
330
2AF
100
AcDbEntity
  8
0
370
     0
100
AcDbVertex
100
AcDb2dVertex
 10
549.168701
 20
265.922241
 30
0.0
  0
VERTEX
  5
2B2
330
2AF
100
AcDbEntity
  8
0
370
     0
100
AcDbVertex
100
AcDb2dVertex
 10
548.039673
 20
267.212555
 30
0.0
  0
SEQEND
  5
2B3
330
2AF
100
AcDbEntity
  8
0
 62
     7
370
    13
  0
POLYLINE
  5
2B4
330
1F
100
AcDbEntity
  8
0
 62
     7
370
    13
100
AcDb2dPolyline
 66
     1
 10
0.0
 20
0.0
 30
0.0
  0
VERTEX
  5
2B5
330
2B4
100
AcDbEntity
  8
0
370
     0
100
AcDbVertex
100
AcDb2dVertex
 10
549.491272
 20
263.180298
 30
0.0
  0
VERTEX
  5
2B6
330
2B4
100
AcDbEntity
  8
0
370
     0
100
AcDbVertex
100
AcDb2dVertex
 10
549.491272
 20
264.954498
 30
0.0
  0
SEQEND
  5
2B7
330
2B4
100
AcDbEntity
  8
0
 62
     7
370
    13
  0
POLYLINE
  5
2B8
330
1F
100
AcDbEntity
  8
0
 62
     7
370
    13
100
AcDb2dPolyline
 66
     1
 10
0.0
 20
0.0
 30
0.0
  0
VERTEX
  5
2B9
330
2B8
100
AcDbEntity
  8
0
370
     0
100
AcDbVertex
100
AcDb2dVertex
 10
548.039673
 20
260.760925
 30
0.0
  0
VERTEX
  5
2BA
330
2B8
100
AcDbEntity
  8
0
370
     0
100
AcDbVertex
100
AcDb2dVertex
 10
546.749329
 20
260.438354
 30
0.0
  0
SEQEND
  5
2BB
330
2B8
100
AcDbEntity
  8
0
 62
     7
370
    13
  0
POLYLINE
  5
2BC
330
1F
100
AcDbEntity
  8
0
 62
     7
370
    13
100
AcDb2dPolyline
 66
     1
 10
0.0
 20
0.0
 30
0.0
  0
VERTEX
  5
2BD
330
2BC
100
AcDbEntity
  8
0
370
     0
100
AcDbVertex
100
AcDb2dVertex
 10
545.781616
 20
260.438354
 30
0.0
  0
VERTEX
  5
2BE
330
2BC
100
AcDbEntity
  8
0
370
     0
100
AcDbVertex
100
AcDb2dVertex
 10
546.749329
 20
260.438354
 30
0.0
  0
SEQEND
  5
2BF
330
2BC
100
AcDbEntity
  8
0
 62
     7
370
    13
  0
POLYLINE
  5
2C0
330
1F
100
AcDbEntity
  8
0
 62
     7
370
    13
100
AcDb2dPolyline
 66
     1
 10
0.0
 20
0.0
 30
0.0
  0
VERTEX
  5
2C1
330
2C0
100
AcDbEntity
  8
0
370
     0
100
AcDbVertex
100
AcDb2dVertex
 10
549.491272
 20
263.180298
 30
0.0
  0
VERTEX
  5
2C2
330
2C0
100
AcDbEntity
  8
0
370
     0
100
AcDbVertex
100
AcDb2dVertex
 10
549.168701
 20
262.05127
 30
0.0
  0
VERTEX
  5
2C3
330
2C0
100
AcDbEntity
  8
0
370
     0
100
AcDbVertex
100
AcDb2dVertex
 10
548.039673
 20
260.760925
 30
0.0
  0
SEQEND
  5
2C4
330
2C0
100
AcDbEntity
  8
0
 62
     7
370
    13
  0
POLYLINE
  5
2C5
330
1F
100
AcDbEntity
  8
0
 62
     7
370
    13
100
AcDb2dPolyline
 66
     1
 10
0.0
 20
0.0
 30
0.0
  0
VERTEX
  5
2C6
330
2C5
100
AcDbEntity
  8
0
370
     0
100
AcDbVertex
100
AcDb2dVertex
 10
549.491272
 20
271.793182
 30
0.0
  0
VERTEX
  5
2C7
330
2C5
100
AcDbEntity
  8
0
370
     0
100
AcDbVertex
100
AcDb2dVertex
 10
543.039673
 20
271.793182
 30
0.0
  0
SEQEND
  5
2C8
330
2C5
100
AcDbEntity
  8
0
 62
     7
370
    13
  0
POLYLINE
  5
2C9
330
1F
100
AcDbEntity
  8
0
 62
     7
370
    13
100
AcDb2dPolyline
 66
     1
 10
0.0
 20
0.0
 30
0.0
  0
VERTEX
  5
2CA
330
2C9
100
AcDbEntity
  8
0
370
     0
100
AcDbVertex
100
AcDb2dVertex
 10
544.813843
 20
276.148041
 30
0.0
  0
VERTEX
  5
2CB
330
2C9
100
AcDbEntity
  8
0
370
     0
100
AcDbVertex
100
AcDb2dVertex
 10
549.491272
 20
276.148041
 30
0.0
  0
SEQEND
  5
2CC
330
2C9
100
AcDbEntity
  8
0
 62
     7
370
    13
  0
POLYLINE
  5
2CD
330
1F
100
AcDbEntity
  8
0
 62
     7
370
    13
100
AcDb2dPolyline
 66
     1
 10
0.0
 20
0.0
 30
0.0
  0
VERTEX
  5
2CE
330
2CD
100
AcDbEntity
  8
0
370
     0
100
AcDbVertex
100
AcDb2dVertex
 10
544.813843
 20
280.502869
 30
0.0
  0
VERTEX
  5
2CF
330
2CD
100
AcDbEntity
  8
0
370
     0
100
AcDbVertex
100
AcDb2dVertex
 10
549.491272
 20
280.502869
 30
0.0
  0
SEQEND
  5
2D0
330
2CD
100
AcDbEntity
  8
0
 62
     7
370
    13
  0
POLYLINE
  5
2D1
330
1F
100
AcDbEntity
  8
0
 62
     7
370
    13
100
AcDb2dPolyline
 66
     1
 10
0.0
 20
0.0
 30
0.0
  0
VERTEX
  5
2D2
330
2D1
100
AcDbEntity
  8
0
370
     0
100
AcDbVertex
100
AcDb2dVertex
 10
544.813843
 20
271.793182
 30
0.0
  0
VERTEX
  5
2D3
330
2D1
100
AcDbEntity
  8
0
370
     0
100
AcDbVertex
100
AcDb2dVertex
 10
543.52356
 20
272.922241
 30
0.0
  0
VERTEX
  5
2D4
330
2D1
100
AcDbEntity
  8
0
370
     0
100
AcDbVertex
100
AcDb2dVertex
 10
543.039673
 20
274.05127
 30
0.0
  0
VERTEX
  5
2D5
330
2D1
100
AcDbEntity
  8
0
370
     0
100
AcDbVertex
100
AcDb2dVertex
 10
543.039673
 20
275.019012
 30
0.0
  0
VERTEX
  5
2D6
330
2D1
100
AcDbEntity
  8
0
370
     0
100
AcDbVertex
100
AcDb2dVertex
 10
543.52356
 20
275.664154
 30
0.0
  0
VERTEX
  5
2D7
330
2D1
100
AcDbEntity
  8
0
370
     0
100
AcDbVertex
100
AcDb2dVertex
 10
544.813843
 20
276.148041
 30
0.0
  0
VERTEX
  5
2D8
330
2D1
100
AcDbEntity
  8
0
370
     0
100
AcDbVertex
100
AcDb2dVertex
 10
543.52356
 20
277.277069
 30
0.0
  0
VERTEX
  5
2D9
330
2D1
100
AcDbEntity
  8
0
370
     0
100
AcDbVertex
100
AcDb2dVertex
 10
543.039673
 20
278.406097
 30
0.0
  0
VERTEX
  5
2DA
330
2D1
100
AcDbEntity
  8
0
370
     0
100
AcDbVertex
100
AcDb2dVertex
 10
543.039673
 20
279.37384
 30
0.0
  0
VERTEX
  5
2DB
330
2D1
100
AcDbEntity
  8
0
370
     0
100
AcDbVertex
100
AcDb2dVertex
 10
543.52356
 20
280.019012
 30
0.0
  0
VERTEX
  5
2DC
330
2D1
100
AcDbEntity
  8
0
370
     0
100
AcDbVertex
100
AcDb2dVertex
 10
544.813843
 20
280.502869
 30
0.0
  0
SEQEND
  5
2DD
330
2D1
100
AcDbEntity
  8
0
 62
     7
370
    13
  0
POLYLINE
  5
2DE
330
1F
100
AcDbEntity
  8
0
 62
     7
370
    13
100
AcDb2dPolyline
 66
     1
 10
0.0
 20
0.0
 30
0.0
  0
VERTEX
  5
2DF
330
2DE
100
AcDbEntity
  8
0
370
     0
100
AcDbVertex
100
AcDb2dVertex
 10
540.781616
 20
298.05127
 30
0.0
  0
VERTEX
  5
2E0
330
2DE
100
AcDbEntity
  8
0
370
     0
100
AcDbVertex
100
AcDb2dVertex
 10
539.491272
 20
299.825439
 30
0.0
  0
VERTEX
  5
2E1
330
2DE
100
AcDbEntity
  8
0
370
     0
100
AcDbVertex
100
AcDb2dVertex
 10
549.491272
 20
299.825439
 30
0.0
  0
SEQEND
  5
2E2
330
2DE
100
AcDbEntity
  8
0
 62
     7
370
    13
  0
POLYLINE
  5
2E3
330
1F
100
AcDbEntity
  8
0
 62
     7
370
    13
100
AcDb2dPolyline
 66
     1
 10
0.0
 20
0.0
 30
0.0
  0
VERTEX
  5
2E4
330
2E3
100
AcDbEntity
  8
0
370
     0
100
AcDbVertex
100
AcDb2dVertex
 10
541.265503
 20
297.083527
 30
0.0
  0
VERTEX
  5
2E5
330
2E3
100
AcDbEntity
  8
0
370
     0
100
AcDbVertex
100
AcDb2dVertex
 10
540.781616
 20
298.05127
 30
0.0
  0
SEQEND
  5
2E6
330
2E3
100
AcDbEntity
  8
0
 62
     7
370
    13
  0
POLYLINE
  5
2E7
330
1F
100
AcDbEntity
  8
0
 62
     7
370
    13
100
AcDb2dPolyline
 66
     1
 10
0.0
 20
0.0
 30
0.0
 70
     1
  0
VERTEX
  5
2E8
330
2E7
100
AcDbEntity
  8
0
370
     0
100
AcDbVertex
100
AcDb2dVertex
 10
539.491272
 20
310.535126
 30
0.0
  0
VERTEX
  5
2E9
330
2E7
100
AcDbEntity
  8
0
370
     0
100
AcDbVertex
100
AcDb2dVertex
 10
539.975159
 20
308.760925
 30
0.0
  0
VERTEX
  5
2EA
330
2E7
100
AcDbEntity
  8
0
370
     0
100
AcDbVertex
100
AcDb2dVertex
 10
541.588013
 20
307.631897
 30
0.0
  0
VERTEX
  5
2EB
330
2E7
100
AcDbEntity
  8
0
370
     0
100
AcDbVertex
100
AcDb2dVertex
 10
543.200928
 20
307.148041
 30
0.0
  0
VERTEX
  5
2EC
330
2E7
100
AcDbEntity
  8
0
370
     0
100
AcDbVertex
100
AcDb2dVertex
 10
545.297729
 20
307.148041
 30
0.0
  0
VERTEX
  5
2ED
330
2E7
100
AcDbEntity
  8
0
370
     0
100
AcDbVertex
100
AcDb2dVertex
 10
547.394531
 20
307.631897
 30
0.0
  0
VERTEX
  5
2EE
330
2E7
100
AcDbEntity
  8
0
370
     0
100
AcDbVertex
100
AcDb2dVertex
 10
549.007385
 20
308.760925
 30
0.0
  0
VERTEX
  5
2EF
330
2E7
100
AcDbEntity
  8
0
370
     0
100
AcDbVertex
100
AcDb2dVertex
 10
549.491272
 20
310.535126
 30
0.0
  0
VERTEX
  5
2F0
330
2E7
100
AcDbEntity
  8
0
370
     0
100
AcDbVertex
100
AcDb2dVertex
 10
549.491272
 20
311.825439
 30
0.0
  0
VERTEX
  5
2F1
330
2E7
100
AcDbEntity
  8
0
370
     0
100
AcDbVertex
100
AcDb2dVertex
 10
549.007385
 20
313.59964
 30
0.0
  0
VERTEX
  5
2F2
330
2E7
100
AcDbEntity
  8
0
370
     0
100
AcDbVertex
100
AcDb2dVertex
 10
547.394531
 20
314.728668
 30
0.0
  0
VERTEX
  5
2F3
330
2E7
100
AcDbEntity
  8
0
370
     0
100
AcDbVertex
100
AcDb2dVertex
 10
545.458984
 20
315.212555
 30
0.0
  0
VERTEX
  5
2F4
330
2E7
100
AcDbEntity
  8
0
370
     0
100
AcDbVertex
100
AcDb2dVertex
 10
543.200928
 20
315.212555
 30
0.0
  0
VERTEX
  5
2F5
330
2E7
100
AcDbEntity
  8
0
370
     0
100
AcDbVertex
100
AcDb2dVertex
 10
541.588013
 20
314.728668
 30
0.0
  0
VERTEX
  5
2F6
330
2E7
100
AcDbEntity
  8
0
370
     0
100
AcDbVertex
100
AcDb2dVertex
 10
539.975159
 20
313.59964
 30
0.0
  0
VERTEX
  5
2F7
330
2E7
100
AcDbEntity
  8
0
370
     0
100
AcDbVertex
100
AcDb2dVertex
 10
539.491272
 20
311.825439
 30
0.0
  0
SEQEND
  5
2F8
330
2E7
100
AcDbEntity
  8
0
 62
     7
370
    13
  0
POLYLINE
  5
2F9
330
1F
100
AcDbEntity
  8
0
 62
     7
370
    13
100
AcDb2dPolyline
 66
     1
 10
0.0
 20
0.0
 30
0.0
  0
VERTEX
  5
2FA
330
2F9
100
AcDbEntity
  8
0
370
     0
100
AcDbVertex
100
AcDb2dVertex
 10
539.491272
 20
321.567383
 30
0.0
  0
VERTEX
  5
2FB
330
2F9
100
AcDbEntity
  8
0
370
     0
100
AcDbVertex
100
AcDb2dVertex
 10
542.555786
 20
321.567383
 30
0.0
  0
SEQEND
  5
2FC
330
2F9
100
AcDbEntity
  8
0
 62
     7
370
    13
  0
POLYLINE
  5
2FD
330
1F
100
AcDbEntity
  8
0
 62
     7
370
    13
100
AcDb2dPolyline
 66
     1
 10
0.0
 20
0.0
 30
0.0
  0
VERTEX
  5
2FE
330
2FD
100
AcDbEntity
  8
0
370
     0
100
AcDbVertex
100
AcDb2dVertex
 10
539.491272
 20
324.793182
 30
0.0
  0
VERTEX
  5
2FF
330
2FD
100
AcDbEntity
  8
0
370
     0
100
AcDbVertex
100
AcDb2dVertex
 10
542.555786
 20
324.793182
 30
0.0
  0
SEQEND
  5
300
330
2FD
100
AcDbEntity
  8
0
 62
     7
370
    13
  0
LINE
  5
301
330
1F
100
AcDbEntity
  8
0
 62
     7
370
    13
100
AcDbLine
 10
546.209717
 20
202.97522
 30
0.0
 11
553.491272
 21
202.97522
 31
0.0
  0
LINE
  5
302
330
1F
100
AcDbEntity
  8
0
 62
     7
370
    13
100
AcDbLine
 10
525.282593
 20
330.47522
 30
0.0
 11
553.491272
 21
330.47522
 31
0.0
  0
POLYLINE
  5
303
330
1F
100
AcDbEntity
  8
0
 62
     7
370
    13
100
AcDb2dPolyline
 66
     1
 10
0.0
 20
0.0
 30
0.0
  0
VERTEX
  5
304
330
303
100
AcDbEntity
  8
0
370
     0
100
AcDbVertex
100
AcDb2dVertex
 10
550.973633
 20
204.907074
 30
0.0
  0
VERTEX
  5
305
330
303
100
AcDbEntity
  8
0
370
     0
100
AcDbVertex
100
AcDb2dVertex
 10
551.491272
 20
202.97522
 30
0.0
  0
VERTEX
  5
306
330
303
100
AcDbEntity
  8
0
370
     0
100
AcDbVertex
100
AcDb2dVertex
 10
552.008911
 20
204.907074
 30
0.0
  0
SEQEND
  5
307
330
303
100
AcDbEntity
  8
0
 62
     7
370
    13
  0
POLYLINE
  5
308
330
1F
100
AcDbEntity
  8
0
 62
     7
370
    13
100
AcDb2dPolyline
 66
     1
 10
0.0
 20
0.0
 30
0.0
  0
VERTEX
  5
309
330
308
100
AcDbEntity
  8
0
370
     0
100
AcDbVertex
100
AcDb2dVertex
 10
552.008911
 20
328.543365
 30
0.0
  0
VERTEX
  5
30A
330
308
100
AcDbEntity
  8
0
370
     0
100
AcDbVertex
100
AcDb2dVertex
 10
551.491272
 20
330.47522
 30
0.0
  0
VERTEX
  5
30B
330
308
100
AcDbEntity
  8
0
370
     0
100
AcDbVertex
100
AcDb2dVertex
 10
550.973633
 20
328.543365
 30
0.0
  0
SEQEND
  5
30C
330
308
100
AcDbEntity
  8
0
 62
     7
370
    13
  0
LINE
  5
30D
330
1F
100
AcDbEntity
  8
0
 62
     7
370
    13
100
AcDbLine
 10
551.491272
 20
202.97522
 30
0.0
 11
551.491272
 21
330.47522
 31
0.0
  0
POLYLINE
  5
30E
330
1F
100
AcDbEntity
  8
0
 62
     7
370
    13
100
AcDb2dPolyline
 66
     1
 10
0.0
 20
0.0
 30
0.0
  0
VERTEX
  5
30F
330
30E
100
AcDbEntity
  8
0
370
     0
100
AcDbVertex
100
AcDb2dVertex
 10
367.799133
 20
219.393127
 30
0.0
  0
VERTEX
  5
310
330
30E
100
AcDbEntity
  8
0
370
     0
100
AcDbVertex
100
AcDb2dVertex
 10
367.799133
 20
211.651184
 30
0.0
  0
VERTEX
  5
311
330
30E
100
AcDbEntity
  8
0
370
     0
100
AcDbVertex
100
AcDb2dVertex
 10
363.28302
 20
217.135056
 30
0.0
  0
VERTEX
  5
312
330
30E
100
AcDbEntity
  8
0
370
     0
100
AcDbVertex
100
AcDb2dVertex
 10
361.992676
 20
218.264099
 30
0.0
  0
VERTEX
  5
313
330
30E
100
AcDbEntity
  8
0
370
     0
100
AcDbVertex
100
AcDb2dVertex
 10
361.024963
 20
218.747955
 30
0.0
  0
VERTEX
  5
314
330
30E
100
AcDbEntity
  8
0
370
     0
100
AcDbVertex
100
AcDb2dVertex
 10
360.05719
 20
218.747955
 30
0.0
  0
VERTEX
  5
315
330
30E
100
AcDbEntity
  8
0
370
     0
100
AcDbVertex
100
AcDb2dVertex
 10
358.928162
 20
218.264099
 30
0.0
  0
VERTEX
  5
316
330
30E
100
AcDbEntity
  8
0
370
     0
100
AcDbVertex
100
AcDb2dVertex
 10
358.28302
 20
217.780212
 30
0.0
  0
VERTEX
  5
317
330
30E
100
AcDbEntity
  8
0
370
     0
100
AcDbVertex
100
AcDb2dVertex
 10
357.799133
 20
216.651184
 30
0.0
  0
VERTEX
  5
318
330
30E
100
AcDbEntity
  8
0
370
     0
100
AcDbVertex
100
AcDb2dVertex
 10
357.799133
 20
214.715698
 30
0.0
  0
VERTEX
  5
319
330
30E
100
AcDbEntity
  8
0
370
     0
100
AcDbVertex
100
AcDb2dVertex
 10
358.28302
 20
213.58667
 30
0.0
  0
VERTEX
  5
31A
330
30E
100
AcDbEntity
  8
0
370
     0
100
AcDbVertex
100
AcDb2dVertex
 10
358.766876
 20
213.102798
 30
0.0
  0
VERTEX
  5
31B
330
30E
100
AcDbEntity
  8
0
370
     0
100
AcDbVertex
100
AcDb2dVertex
 10
359.734619
 20
212.457642
 30
0.0
  0
VERTEX
  5
31C
330
30E
100
AcDbEntity
  8
0
370
     0
100
AcDbVertex
100
AcDb2dVertex
 10
360.218506
 20
212.457642
 30
0.0
  0
SEQEND
  5
31D
330
30E
100
AcDbEntity
  8
0
 62
     7
370
    13
  0
POLYLINE
  5
31E
330
1F
100
AcDbEntity
  8
0
 62
     7
370
    13
100
AcDb2dPolyline
 66
     1
 10
0.0
 20
0.0
 30
0.0
  0
VERTEX
  5
31F
330
31E
100
AcDbEntity
  8
0
370
     0
100
AcDbVertex
100
AcDb2dVertex
 10
366.670105
 20
223.812469
 30
0.0
  0
VERTEX
  5
320
330
31E
100
AcDbEntity
  8
0
370
     0
100
AcDbVertex
100
AcDb2dVertex
 10
367.315277
 20
224.780212
 30
0.0
  0
VERTEX
  5
321
330
31E
100
AcDbEntity
  8
0
370
     0
100
AcDbVertex
100
AcDb2dVertex
 10
367.799133
 20
226.393127
 30
0.0
  0
VERTEX
  5
322
330
31E
100
AcDbEntity
  8
0
370
     0
100
AcDbVertex
100
AcDb2dVertex
 10
367.799133
 20
227.683441
 30
0.0
  0
VERTEX
  5
323
330
31E
100
AcDbEntity
  8
0
370
     0
100
AcDbVertex
100
AcDb2dVertex
 10
367.315277
 20
229.296356
 30
0.0
  0
SEQEND
  5
324
330
31E
100
AcDbEntity
  8
0
 62
     7
370
    13
  0
POLYLINE
  5
325
330
1F
100
AcDbEntity
  8
0
 62
     7
370
    13
100
AcDb2dPolyline
 66
     1
 10
0.0
 20
0.0
 30
0.0
  0
VERTEX
  5
326
330
325
100
AcDbEntity
  8
0
370
     0
100
AcDbVertex
100
AcDb2dVertex
 10
358.28302
 20
229.296356
 30
0.0
  0
VERTEX
  5
327
330
325
100
AcDbEntity
  8
0
370
     0
100
AcDbVertex
100
AcDb2dVertex
 10
357.799133
 20
227.683441
 30
0.0
  0
VERTEX
  5
328
330
325
100
AcDbEntity
  8
0
370
     0
100
AcDbVertex
100
AcDb2dVertex
 10
357.799133
 20
226.393127
 30
0.0
  0
VERTEX
  5
329
330
325
100
AcDbEntity
  8
0
370
     0
100
AcDbVertex
100
AcDb2dVertex
 10
358.28302
 20
224.780212
 30
0.0
  0
SEQEND
  5
32A
330
325
100
AcDbEntity
  8
0
 62
     7
370
    13
  0
POLYLINE
  5
32B
330
1F
100
AcDbEntity
  8
0
 62
     7
370
    13
100
AcDb2dPolyline
 66
     1
 10
0.0
 20
0.0
 30
0.0
  0
VERTEX
  5
32C
330
32B
100
AcDbEntity
  8
0
370
     0
100
AcDbVertex
100
AcDb2dVertex
 10
366.670105
 20
223.812469
 30
0.0
  0
VERTEX
  5
32D
330
32B
100
AcDbEntity
  8
0
370
     0
100
AcDbVertex
100
AcDb2dVertex
 10
365.702362
 20
223.328613
 30
0.0
  0
VERTEX
  5
32E
330
32B
100
AcDbEntity
  8
0
370
     0
100
AcDbVertex
100
AcDb2dVertex
 10
364.734619
 20
223.328613
 30
0.0
  0
VERTEX
  5
32F
330
32B
100
AcDbEntity
  8
0
370
     0
100
AcDbVertex
100
AcDb2dVertex
 10
363.766876
 20
223.812469
 30
0.0
  0
VERTEX
  5
330
330
32B
100
AcDbEntity
  8
0
370
     0
100
AcDbVertex
100
AcDb2dVertex
 10
362.799133
 20
224.941513
 30
0.0
  0
VERTEX
  5
331
330
32B
100
AcDbEntity
  8
0
370
     0
100
AcDbVertex
100
AcDb2dVertex
 10
361.83139
 20
228.328613
 30
0.0
  0
VERTEX
  5
332
330
32B
100
AcDbEntity
  8
0
370
     0
100
AcDbVertex
100
AcDb2dVertex
 10
361.50882
 20
229.135071
 30
0.0
  0
VERTEX
  5
333
330
32B
100
AcDbEntity
  8
0
370
     0
100
AcDbVertex
100
AcDb2dVertex
 10
361.024963
 20
229.618927
 30
0.0
  0
VERTEX
  5
334
330
32B
100
AcDbEntity
  8
0
370
     0
100
AcDbVertex
100
AcDb2dVertex
 10
360.218506
 20
229.941513
 30
0.0
  0
VERTEX
  5
335
330
32B
100
AcDbEntity
  8
0
370
     0
100
AcDbVertex
100
AcDb2dVertex
 10
359.089478
 20
229.941513
 30
0.0
  0
VERTEX
  5
336
330
32B
100
AcDbEntity
  8
0
370
     0
100
AcDbVertex
100
AcDb2dVertex
 10
358.28302
 20
229.296356
 30
0.0
  0
SEQEND
  5
337
330
32B
100
AcDbEntity
  8
0
 62
     7
370
    13
  0
POLYLINE
  5
338
330
1F
100
AcDbEntity
  8
0
 62
     7
370
    13
100
AcDb2dPolyline
 66
     1
 10
0.0
 20
0.0
 30
0.0
  0
VERTEX
  5
339
330
338
100
AcDbEntity
  8
0
370
     0
100
AcDbVertex
100
AcDb2dVertex
 10
358.28302
 20
224.780212
 30
0.0
  0
VERTEX
  5
33A
330
338
100
AcDbEntity
  8
0
370
     0
100
AcDbVertex
100
AcDb2dVertex
 10
359.089478
 20
224.135071
 30
0.0
  0
VERTEX
  5
33B
330
338
100
AcDbEntity
  8
0
370
     0
100
AcDbVertex
100
AcDb2dVertex
 10
360.218506
 20
224.135071
 30
0.0
  0
VERTEX
  5
33C
330
338
100
AcDbEntity
  8
0
370
     0
100
AcDbVertex
100
AcDb2dVertex
 10
361.024963
 20
224.457642
 30
0.0
  0
VERTEX
  5
33D
330
338
100
AcDbEntity
  8
0
370
     0
100
AcDbVertex
100
AcDb2dVertex
 10
361.50882
 20
224.941513
 30
0.0
  0
VERTEX
  5
33E
330
338
100
AcDbEntity
  8
0
370
     0
100
AcDbVertex
100
AcDb2dVertex
 10
361.83139
 20
225.747955
 30
0.0
  0
VERTEX
  5
33F
330
338
100
AcDbEntity
  8
0
370
     0
100
AcDbVertex
100
AcDb2dVertex
 10
362.799133
 20
229.296356
 30
0.0
  0
SEQEND
  5
340
330
338
100
AcDbEntity
  8
0
 62
     7
370
    13
  0
POLYLINE
  5
341
330
1F
100
AcDbEntity
  8
0
 62
     7
370
    13
100
AcDb2dPolyline
 66
     1
 10
0.0
 20
0.0
 30
0.0
  0
VERTEX
  5
342
330
341
100
AcDbEntity
  8
0
370
     0
100
AcDbVertex
100
AcDb2dVertex
 10
363.766876
 20
230.425385
 30
0.0
  0
VERTEX
  5
343
330
341
100
AcDbEntity
  8
0
370
     0
100
AcDbVertex
100
AcDb2dVertex
 10
364.734619
 20
230.909256
 30
0.0
  0
VERTEX
  5
344
330
341
100
AcDbEntity
  8
0
370
     0
100
AcDbVertex
100
AcDb2dVertex
 10
365.702362
 20
230.909256
 30
0.0
  0
VERTEX
  5
345
330
341
100
AcDbEntity
  8
0
370
     0
100
AcDbVertex
100
AcDb2dVertex
 10
366.670105
 20
230.425385
 30
0.0
  0
VERTEX
  5
346
330
341
100
AcDbEntity
  8
0
370
     0
100
AcDbVertex
100
AcDb2dVertex
 10
367.315277
 20
229.296356
 30
0.0
  0
SEQEND
  5
347
330
341
100
AcDbEntity
  8
0
 62
     7
370
    13
  0
POLYLINE
  5
348
330
1F
100
AcDbEntity
  8
0
 62
     7
370
    13
100
AcDb2dPolyline
 66
     1
 10
0.0
 20
0.0
 30
0.0
  0
VERTEX
  5
349
330
348
100
AcDbEntity
  8
0
370
     0
100
AcDbVertex
100
AcDb2dVertex
 10
363.766876
 20
230.425385
 30
0.0
  0
VERTEX
  5
34A
330
348
100
AcDbEntity
  8
0
370
     0
100
AcDbVertex
100
AcDb2dVertex
 10
362.799133
 20
229.296356
 30
0.0
  0
SEQEND
  5
34B
330
348
100
AcDbEntity
  8
0
 62
     7
370
    13
  0
POLYLINE
  5
34C
330
1F
100
AcDbEntity
  8
0
 62
     7
370
    13
100
AcDb2dPolyline
 66
     1
 10
0.0
 20
0.0
 30
0.0
  0
VERTEX
  5
34D
330
34C
100
AcDbEntity
  8
0
370
     0
100
AcDbVertex
100
AcDb2dVertex
 10
367.799133
 20
238.876999
 30
0.0
  0
VERTEX
  5
34E
330
34C
100
AcDbEntity
  8
0
370
     0
100
AcDbVertex
100
AcDb2dVertex
 10
367.799133
 20
239.199585
 30
0.0
  0
SEQEND
  5
34F
330
34C
100
AcDbEntity
  8
0
 62
     7
370
    13
  0
POLYLINE
  5
350
330
1F
100
AcDbEntity
  8
0
 62
     7
370
    13
100
AcDb2dPolyline
 66
     1
 10
0.0
 20
0.0
 30
0.0
  0
VERTEX
  5
351
330
350
100
AcDbEntity
  8
0
370
     0
100
AcDbVertex
100
AcDb2dVertex
 10
366.992676
 20
239.683441
 30
0.0
  0
VERTEX
  5
352
330
350
100
AcDbEntity
  8
0
370
     0
100
AcDbVertex
100
AcDb2dVertex
 10
366.50882
 20
239.199585
 30
0.0
  0
SEQEND
  5
353
330
350
100
AcDbEntity
  8
0
 62
     7
370
    13
  0
POLYLINE
  5
354
330
1F
100
AcDbEntity
  8
0
 62
     7
370
    13
100
AcDb2dPolyline
 66
     1
 10
0.0
 20
0.0
 30
0.0
  0
VERTEX
  5
355
330
354
100
AcDbEntity
  8
0
370
     0
100
AcDbVertex
100
AcDb2dVertex
 10
366.50882
 20
238.876999
 30
0.0
  0
VERTEX
  5
356
330
354
100
AcDbEntity
  8
0
370
     0
100
AcDbVertex
100
AcDb2dVertex
 10
366.992676
 20
238.393127
 30
0.0
  0
SEQEND
  5
357
330
354
100
AcDbEntity
  8
0
 62
     7
370
    13
  0
POLYLINE
  5
358
330
1F
100
AcDbEntity
  8
0
 62
     7
370
    13
100
AcDb2dPolyline
 66
     1
 10
0.0
 20
0.0
 30
0.0
  0
VERTEX
  5
359
330
358
100
AcDbEntity
  8
0
370
     0
100
AcDbVertex
100
AcDb2dVertex
 10
367.315277
 20
238.393127
 30
0.0
  0
VERTEX
  5
35A
330
358
100
AcDbEntity
  8
0
370
     0
100
AcDbVertex
100
AcDb2dVertex
 10
367.799133
 20
238.876999
 30
0.0
  0
SEQEND
  5
35B
330
358
100
AcDbEntity
  8
0
 62
     7
370
    13
  0
POLYLINE
  5
35C
330
1F
100
AcDbEntity
  8
0
 62
     7
370
    13
100
AcDb2dPolyline
 66
     1
 10
0.0
 20
0.0
 30
0.0
  0
VERTEX
  5
35D
330
35C
100
AcDbEntity
  8
0
370
     0
100
AcDbVertex
100
AcDb2dVertex
 10
367.799133
 20
239.199585
 30
0.0
  0
VERTEX
  5
35E
330
35C
100
AcDbEntity
  8
0
370
     0
100
AcDbVertex
100
AcDb2dVertex
 10
367.315277
 20
239.683441
 30
0.0
  0
SEQEND
  5
35F
330
35C
100
AcDbEntity
  8
0
 62
     7
370
    13
  0
POLYLINE
  5
360
330
1F
100
AcDbEntity
  8
0
 62
     7
370
    13
100
AcDb2dPolyline
 66
     1
 10
0.0
 20
0.0
 30
0.0
  0
VERTEX
  5
361
330
360
100
AcDbEntity
  8
0
370
     0
100
AcDbVertex
100
AcDb2dVertex
 10
366.992676
 20
238.393127
 30
0.0
  0
VERTEX
  5
362
330
360
100
AcDbEntity
  8
0
370
     0
100
AcDbVertex
100
AcDb2dVertex
 10
367.315277
 20
238.393127
 30
0.0
  0
SEQEND
  5
363
330
360
100
AcDbEntity
  8
0
 62
     7
370
    13
  0
POLYLINE
  5
364
330
1F
100
AcDbEntity
  8
0
 62
     7
370
    13
100
AcDb2dPolyline
 66
     1
 10
0.0
 20
0.0
 30
0.0
  0
VERTEX
  5
365
330
364
100
AcDbEntity
  8
0
370
     0
100
AcDbVertex
100
AcDb2dVertex
 10
366.50882
 20
238.876999
 30
0.0
  0
VERTEX
  5
366
330
364
100
AcDbEntity
  8
0
370
     0
100
AcDbVertex
100
AcDb2dVertex
 10
366.50882
 20
239.199585
 30
0.0
  0
SEQEND
  5
367
330
364
100
AcDbEntity
  8
0
 62
     7
370
    13
  0
POLYLINE
  5
368
330
1F
100
AcDbEntity
  8
0
 62
     7
370
    13
100
AcDb2dPolyline
 66
     1
 10
0.0
 20
0.0
 30
0.0
  0
VERTEX
  5
369
330
368
100
AcDbEntity
  8
0
370
     0
100
AcDbVertex
100
AcDb2dVertex
 10
366.992676
 20
239.683441
 30
0.0
  0
VERTEX
  5
36A
330
368
100
AcDbEntity
  8
0
370
     0
100
AcDbVertex
100
AcDb2dVertex
 10
367.315277
 20
239.683441
 30
0.0
  0
SEQEND
  5
36B
330
368
100
AcDbEntity
  8
0
 62
     7
370
    13
  0
POLYLINE
  5
36C
330
1F
100
AcDbEntity
  8
0
 62
     7
370
    13
100
AcDb2dPolyline
 66
     1
 10
0.0
 20
0.0
 30
0.0
  0
VERTEX
  5
36D
330
36C
100
AcDbEntity
  8
0
370
     0
100
AcDbVertex
100
AcDb2dVertex
 10
366.024963
 20
246.683456
 30
0.0
  0
VERTEX
  5
36E
330
36C
100
AcDbEntity
  8
0
370
     0
100
AcDbVertex
100
AcDb2dVertex
 10
366.83139
 20
247.167328
 30
0.0
  0
VERTEX
  5
36F
330
36C
100
AcDbEntity
  8
0
370
     0
100
AcDbVertex
100
AcDb2dVertex
 10
367.315277
 20
247.651184
 30
0.0
  0
VERTEX
  5
370
330
36C
100
AcDbEntity
  8
0
370
     0
100
AcDbVertex
100
AcDb2dVertex
 10
367.799133
 20
249.425385
 30
0.0
  0
VERTEX
  5
371
330
36C
100
AcDbEntity
  8
0
370
     0
100
AcDbVertex
100
AcDb2dVertex
 10
367.799133
 20
251.199585
 30
0.0
  0
VERTEX
  5
372
330
36C
100
AcDbEntity
  8
0
370
     0
100
AcDbVertex
100
AcDb2dVertex
 10
367.315277
 20
253.135071
 30
0.0
  0
VERTEX
  5
373
330
36C
100
AcDbEntity
  8
0
370
     0
100
AcDbVertex
100
AcDb2dVertex
 10
366.347534
 20
254.102814
 30
0.0
  0
VERTEX
  5
374
330
36C
100
AcDbEntity
  8
0
370
     0
100
AcDbVertex
100
AcDb2dVertex
 10
364.895905
 20
254.58667
 30
0.0
  0
VERTEX
  5
375
330
36C
100
AcDbEntity
  8
0
370
     0
100
AcDbVertex
100
AcDb2dVertex
 10
363.928162
 20
254.58667
 30
0.0
  0
VERTEX
  5
376
330
36C
100
AcDbEntity
  8
0
370
     0
100
AcDbVertex
100
AcDb2dVertex
 10
362.476562
 20
254.102814
 30
0.0
  0
VERTEX
  5
377
330
36C
100
AcDbEntity
  8
0
370
     0
100
AcDbVertex
100
AcDb2dVertex
 10
361.670105
 20
253.135071
 30
0.0
  0
VERTEX
  5
378
330
36C
100
AcDbEntity
  8
0
370
     0
100
AcDbVertex
100
AcDb2dVertex
 10
361.186249
 20
251.199585
 30
0.0
  0
VERTEX
  5
379
330
36C
100
AcDbEntity
  8
0
370
     0
100
AcDbVertex
100
AcDb2dVertex
 10
361.186249
 20
249.425385
 30
0.0
  0
VERTEX
  5
37A
330
36C
100
AcDbEntity
  8
0
370
     0
100
AcDbVertex
100
AcDb2dVertex
 10
361.670105
 20
247.973785
 30
0.0
  0
VERTEX
  5
37B
330
36C
100
AcDbEntity
  8
0
370
     0
100
AcDbVertex
100
AcDb2dVertex
 10
362.153992
 20
247.489899
 30
0.0
  0
VERTEX
  5
37C
330
36C
100
AcDbEntity
  8
0
370
     0
100
AcDbVertex
100
AcDb2dVertex
 10
357.799133
 20
247.973785
 30
0.0
  0
VERTEX
  5
37D
330
36C
100
AcDbEntity
  8
0
370
     0
100
AcDbVertex
100
AcDb2dVertex
 10
357.799133
 20
253.941528
 30
0.0
  0
SEQEND
  5
37E
330
36C
100
AcDbEntity
  8
0
 62
     7
370
    13
  0
POLYLINE
  5
37F
330
1F
100
AcDbEntity
  8
0
 62
     7
370
    13
100
AcDb2dPolyline
 66
     1
 10
0.0
 20
0.0
 30
0.0
  0
VERTEX
  5
380
330
37F
100
AcDbEntity
  8
0
370
     0
100
AcDbVertex
100
AcDb2dVertex
 10
362.799133
 20
264.973785
 30
0.0
  0
VERTEX
  5
381
330
37F
100
AcDbEntity
  8
0
370
     0
100
AcDbVertex
100
AcDb2dVertex
 10
361.670105
 20
263.683441
 30
0.0
  0
VERTEX
  5
382
330
37F
100
AcDbEntity
  8
0
370
     0
100
AcDbVertex
100
AcDb2dVertex
 10
361.347534
 20
262.715698
 30
0.0
  0
VERTEX
  5
383
330
37F
100
AcDbEntity
  8
0
370
     0
100
AcDbVertex
100
AcDb2dVertex
 10
361.347534
 20
260.941528
 30
0.0
  0
VERTEX
  5
384
330
37F
100
AcDbEntity
  8
0
370
     0
100
AcDbVertex
100
AcDb2dVertex
 10
361.670105
 20
259.8125
 30
0.0
  0
VERTEX
  5
385
330
37F
100
AcDbEntity
  8
0
370
     0
100
AcDbVertex
100
AcDb2dVertex
 10
362.799133
 20
258.522156
 30
0.0
  0
VERTEX
  5
386
330
37F
100
AcDbEntity
  8
0
370
     0
100
AcDbVertex
100
AcDb2dVertex
 10
364.089478
 20
258.199585
 30
0.0
  0
SEQEND
  5
387
330
37F
100
AcDbEntity
  8
0
 62
     7
370
    13
  0
POLYLINE
  5
388
330
1F
100
AcDbEntity
  8
0
 62
     7
370
    13
100
AcDb2dPolyline
 66
     1
 10
0.0
 20
0.0
 30
0.0
  0
VERTEX
  5
389
330
388
100
AcDbEntity
  8
0
370
     0
100
AcDbVertex
100
AcDb2dVertex
 10
367.799133
 20
262.715698
 30
0.0
  0
VERTEX
  5
38A
330
388
100
AcDbEntity
  8
0
370
     0
100
AcDbVertex
100
AcDb2dVertex
 10
367.476562
 20
263.683441
 30
0.0
  0
VERTEX
  5
38B
330
388
100
AcDbEntity
  8
0
370
     0
100
AcDbVertex
100
AcDb2dVertex
 10
366.347534
 20
264.973785
 30
0.0
  0
SEQEND
  5
38C
330
388
100
AcDbEntity
  8
0
 62
     7
370
    13
  0
POLYLINE
  5
38D
330
1F
100
AcDbEntity
  8
0
 62
     7
370
    13
100
AcDb2dPolyline
 66
     1
 10
0.0
 20
0.0
 30
0.0
  0
VERTEX
  5
38E
330
38D
100
AcDbEntity
  8
0
370
     0
100
AcDbVertex
100
AcDb2dVertex
 10
367.799133
 20
260.941528
 30
0.0
  0
VERTEX
  5
38F
330
38D
100
AcDbEntity
  8
0
370
     0
100
AcDbVertex
100
AcDb2dVertex
 10
367.799133
 20
262.715698
 30
0.0
  0
SEQEND
  5
390
330
38D
100
AcDbEntity
  8
0
 62
     7
370
    13
  0
POLYLINE
  5
391
330
1F
100
AcDbEntity
  8
0
 62
     7
370
    13
100
AcDb2dPolyline
 66
     1
 10
0.0
 20
0.0
 30
0.0
  0
VERTEX
  5
392
330
391
100
AcDbEntity
  8
0
370
     0
100
AcDbVertex
100
AcDb2dVertex
 10
366.347534
 20
258.522156
 30
0.0
  0
VERTEX
  5
393
330
391
100
AcDbEntity
  8
0
370
     0
100
AcDbVertex
100
AcDb2dVertex
 10
365.05719
 20
258.199585
 30
0.0
  0
SEQEND
  5
394
330
391
100
AcDbEntity
  8
0
 62
     7
370
    13
  0
POLYLINE
  5
395
330
1F
100
AcDbEntity
  8
0
 62
     7
370
    13
100
AcDb2dPolyline
 66
     1
 10
0.0
 20
0.0
 30
0.0
  0
VERTEX
  5
396
330
395
100
AcDbEntity
  8
0
370
     0
100
AcDbVertex
100
AcDb2dVertex
 10
364.089478
 20
258.199585
 30
0.0
  0
VERTEX
  5
397
330
395
100
AcDbEntity
  8
0
370
     0
100
AcDbVertex
100
AcDb2dVertex
 10
365.05719
 20
258.199585
 30
0.0
  0
SEQEND
  5
398
330
395
100
AcDbEntity
  8
0
 62
     7
370
    13
  0
POLYLINE
  5
399
330
1F
100
AcDbEntity
  8
0
 62
     7
370
    13
100
AcDb2dPolyline
 66
     1
 10
0.0
 20
0.0
 30
0.0
  0
VERTEX
  5
39A
330
399
100
AcDbEntity
  8
0
370
     0
100
AcDbVertex
100
AcDb2dVertex
 10
367.799133
 20
260.941528
 30
0.0
  0
VERTEX
  5
39B
330
399
100
AcDbEntity
  8
0
370
     0
100
AcDbVertex
100
AcDb2dVertex
 10
367.476562
 20
259.8125
 30
0.0
  0
VERTEX
  5
39C
330
399
100
AcDbEntity
  8
0
370
     0
100
AcDbVertex
100
AcDb2dVertex
 10
366.347534
 20
258.522156
 30
0.0
  0
SEQEND
  5
39D
330
399
100
AcDbEntity
  8
0
 62
     7
370
    13
  0
POLYLINE
  5
39E
330
1F
100
AcDbEntity
  8
0
 62
     7
370
    13
100
AcDb2dPolyline
 66
     1
 10
0.0
 20
0.0
 30
0.0
  0
VERTEX
  5
39F
330
39E
100
AcDbEntity
  8
0
370
     0
100
AcDbVertex
100
AcDb2dVertex
 10
367.799133
 20
269.554413
 30
0.0
  0
VERTEX
  5
3A0
330
39E
100
AcDbEntity
  8
0
370
     0
100
AcDbVertex
100
AcDb2dVertex
 10
361.347534
 20
269.554413
 30
0.0
  0
SEQEND
  5
3A1
330
39E
100
AcDbEntity
  8
0
 62
     7
370
    13
  0
POLYLINE
  5
3A2
330
1F
100
AcDbEntity
  8
0
 62
     7
370
    13
100
AcDb2dPolyline
 66
     1
 10
0.0
 20
0.0
 30
0.0
  0
VERTEX
  5
3A3
330
3A2
100
AcDbEntity
  8
0
370
     0
100
AcDbVertex
100
AcDb2dVertex
 10
363.121735
 20
273.909241
 30
0.0
  0
VERTEX
  5
3A4
330
3A2
100
AcDbEntity
  8
0
370
     0
100
AcDbVertex
100
AcDb2dVertex
 10
367.799133
 20
273.909241
 30
0.0
  0
SEQEND
  5
3A5
330
3A2
100
AcDbEntity
  8
0
 62
     7
370
    13
  0
POLYLINE
  5
3A6
330
1F
100
AcDbEntity
  8
0
 62
     7
370
    13
100
AcDb2dPolyline
 66
     1
 10
0.0
 20
0.0
 30
0.0
  0
VERTEX
  5
3A7
330
3A6
100
AcDbEntity
  8
0
370
     0
100
AcDbVertex
100
AcDb2dVertex
 10
363.121735
 20
278.264099
 30
0.0
  0
VERTEX
  5
3A8
330
3A6
100
AcDbEntity
  8
0
370
     0
100
AcDbVertex
100
AcDb2dVertex
 10
367.799133
 20
278.264099
 30
0.0
  0
SEQEND
  5
3A9
330
3A6
100
AcDbEntity
  8
0
 62
     7
370
    13
  0
POLYLINE
  5
3AA
330
1F
100
AcDbEntity
  8
0
 62
     7
370
    13
100
AcDb2dPolyline
 66
     1
 10
0.0
 20
0.0
 30
0.0
  0
VERTEX
  5
3AB
330
3AA
100
AcDbEntity
  8
0
370
     0
100
AcDbVertex
100
AcDb2dVertex
 10
363.121735
 20
269.554413
 30
0.0
  0
VERTEX
  5
3AC
330
3AA
100
AcDbEntity
  8
0
370
     0
100
AcDbVertex
100
AcDb2dVertex
 10
361.83139
 20
270.683441
 30
0.0
  0
VERTEX
  5
3AD
330
3AA
100
AcDbEntity
  8
0
370
     0
100
AcDbVertex
100
AcDb2dVertex
 10
361.347534
 20
271.812469
 30
0.0
  0
VERTEX
  5
3AE
330
3AA
100
AcDbEntity
  8
0
370
     0
100
AcDbVertex
100
AcDb2dVertex
 10
361.347534
 20
272.780212
 30
0.0
  0
VERTEX
  5
3AF
330
3AA
100
AcDbEntity
  8
0
370
     0
100
AcDbVertex
100
AcDb2dVertex
 10
361.83139
 20
273.425385
 30
0.0
  0
VERTEX
  5
3B0
330
3AA
100
AcDbEntity
  8
0
370
     0
100
AcDbVertex
100
AcDb2dVertex
 10
363.121735
 20
273.909241
 30
0.0
  0
VERTEX
  5
3B1
330
3AA
100
AcDbEntity
  8
0
370
     0
100
AcDbVertex
100
AcDb2dVertex
 10
361.83139
 20
275.0383
 30
0.0
  0
VERTEX
  5
3B2
330
3AA
100
AcDbEntity
  8
0
370
     0
100
AcDbVertex
100
AcDb2dVertex
 10
361.347534
 20
276.167328
 30
0.0
  0
VERTEX
  5
3B3
330
3AA
100
AcDbEntity
  8
0
370
     0
100
AcDbVertex
100
AcDb2dVertex
 10
361.347534
 20
277.135071
 30
0.0
  0
VERTEX
  5
3B4
330
3AA
100
AcDbEntity
  8
0
370
     0
100
AcDbVertex
100
AcDb2dVertex
 10
361.83139
 20
277.780212
 30
0.0
  0
VERTEX
  5
3B5
330
3AA
100
AcDbEntity
  8
0
370
     0
100
AcDbVertex
100
AcDb2dVertex
 10
363.121735
 20
278.264099
 30
0.0
  0
SEQEND
  5
3B6
330
3AA
100
AcDbEntity
  8
0
 62
     7
370
    13
  0
POLYLINE
  5
3B7
330
1F
100
AcDbEntity
  8
0
 62
     7
370
    13
100
AcDb2dPolyline
 66
     1
 10
0.0
 20
0.0
 30
0.0
  0
VERTEX
  5
3B8
330
3B7
100
AcDbEntity
  8
0
370
     0
100
AcDbVertex
100
AcDb2dVertex
 10
359.089478
 20
295.812469
 30
0.0
  0
VERTEX
  5
3B9
330
3B7
100
AcDbEntity
  8
0
370
     0
100
AcDbVertex
100
AcDb2dVertex
 10
357.799133
 20
297.58667
 30
0.0
  0
VERTEX
  5
3BA
330
3B7
100
AcDbEntity
  8
0
370
     0
100
AcDbVertex
100
AcDb2dVertex
 10
367.799133
 20
297.58667
 30
0.0
  0
SEQEND
  5
3BB
330
3B7
100
AcDbEntity
  8
0
 62
     7
370
    13
  0
POLYLINE
  5
3BC
330
1F
100
AcDbEntity
  8
0
 62
     7
370
    13
100
AcDb2dPolyline
 66
     1
 10
0.0
 20
0.0
 30
0.0
  0
VERTEX
  5
3BD
330
3BC
100
AcDbEntity
  8
0
370
     0
100
AcDbVertex
100
AcDb2dVertex
 10
359.573334
 20
294.844727
 30
0.0
  0
VERTEX
  5
3BE
330
3BC
100
AcDbEntity
  8
0
370
     0
100
AcDbVertex
100
AcDb2dVertex
 10
359.089478
 20
295.812469
 30
0.0
  0
SEQEND
  5
3BF
330
3BC
100
AcDbEntity
  8
0
 62
     7
370
    13
  0
POLYLINE
  5
3C0
330
1F
100
AcDbEntity
  8
0
 62
     7
370
    13
100
AcDb2dPolyline
 66
     1
 10
0.0
 20
0.0
 30
0.0
  0
VERTEX
  5
3C1
330
3C0
100
AcDbEntity
  8
0
370
     0
100
AcDbVertex
100
AcDb2dVertex
 10
359.089478
 20
307.489899
 30
0.0
  0
VERTEX
  5
3C2
330
3C0
100
AcDbEntity
  8
0
370
     0
100
AcDbVertex
100
AcDb2dVertex
 10
357.799133
 20
309.264099
 30
0.0
  0
VERTEX
  5
3C3
330
3C0
100
AcDbEntity
  8
0
370
     0
100
AcDbVertex
100
AcDb2dVertex
 10
367.799133
 20
309.264099
 30
0.0
  0
SEQEND
  5
3C4
330
3C0
100
AcDbEntity
  8
0
 62
     7
370
    13
  0
POLYLINE
  5
3C5
330
1F
100
AcDbEntity
  8
0
 62
     7
370
    13
100
AcDb2dPolyline
 66
     1
 10
0.0
 20
0.0
 30
0.0
  0
VERTEX
  5
3C6
330
3C5
100
AcDbEntity
  8
0
370
     0
100
AcDbVertex
100
AcDb2dVertex
 10
359.573334
 20
306.522156
 30
0.0
  0
VERTEX
  5
3C7
330
3C5
100
AcDbEntity
  8
0
370
     0
100
AcDbVertex
100
AcDb2dVertex
 10
359.089478
 20
307.489899
 30
0.0
  0
SEQEND
  5
3C8
330
3C5
100
AcDbEntity
  8
0
 62
     7
370
    13
  0
POLYLINE
  5
3C9
330
1F
100
AcDbEntity
  8
0
 62
     7
370
    13
100
AcDb2dPolyline
 66
     1
 10
0.0
 20
0.0
 30
0.0
  0
VERTEX
  5
3CA
330
3C9
100
AcDbEntity
  8
0
370
     0
100
AcDbVertex
100
AcDb2dVertex
 10
363.766876
 20
317.231842
 30
0.0
  0
VERTEX
  5
3CB
330
3C9
100
AcDbEntity
  8
0
370
     0
100
AcDbVertex
100
AcDb2dVertex
 10
363.766876
 20
324.651184
 30
0.0
  0
SEQEND
  5
3CC
330
3C9
100
AcDbEntity
  8
0
 62
     7
370
    13
  0
POLYLINE
  5
3CD
330
1F
100
AcDbEntity
  8
0
 62
     7
370
    13
100
AcDb2dPolyline
 66
     1
 10
0.0
 20
0.0
 30
0.0
  0
VERTEX
  5
3CE
330
3CD
100
AcDbEntity
  8
0
370
     0
100
AcDbVertex
100
AcDb2dVertex
 10
367.799133
 20
336.167328
 30
0.0
  0
VERTEX
  5
3CF
330
3CD
100
AcDbEntity
  8
0
370
     0
100
AcDbVertex
100
AcDb2dVertex
 10
367.799133
 20
328.425385
 30
0.0
  0
VERTEX
  5
3D0
330
3CD
100
AcDbEntity
  8
0
370
     0
100
AcDbVertex
100
AcDb2dVertex
 10
363.28302
 20
333.909241
 30
0.0
  0
VERTEX
  5
3D1
330
3CD
100
AcDbEntity
  8
0
370
     0
100
AcDbVertex
100
AcDb2dVertex
 10
361.992676
 20
335.038269
 30
0.0
  0
VERTEX
  5
3D2
330
3CD
100
AcDbEntity
  8
0
370
     0
100
AcDbVertex
100
AcDb2dVertex
 10
361.024963
 20
335.522156
 30
0.0
  0
VERTEX
  5
3D3
330
3CD
100
AcDbEntity
  8
0
370
     0
100
AcDbVertex
100
AcDb2dVertex
 10
360.05719
 20
335.522156
 30
0.0
  0
VERTEX
  5
3D4
330
3CD
100
AcDbEntity
  8
0
370
     0
100
AcDbVertex
100
AcDb2dVertex
 10
358.928162
 20
335.038269
 30
0.0
  0
VERTEX
  5
3D5
330
3CD
100
AcDbEntity
  8
0
370
     0
100
AcDbVertex
100
AcDb2dVertex
 10
358.28302
 20
334.554413
 30
0.0
  0
VERTEX
  5
3D6
330
3CD
100
AcDbEntity
  8
0
370
     0
100
AcDbVertex
100
AcDb2dVertex
 10
357.799133
 20
333.425385
 30
0.0
  0
VERTEX
  5
3D7
330
3CD
100
AcDbEntity
  8
0
370
     0
100
AcDbVertex
100
AcDb2dVertex
 10
357.799133
 20
331.489899
 30
0.0
  0
VERTEX
  5
3D8
330
3CD
100
AcDbEntity
  8
0
370
     0
100
AcDbVertex
100
AcDb2dVertex
 10
358.28302
 20
330.36087
 30
0.0
  0
VERTEX
  5
3D9
330
3CD
100
AcDbEntity
  8
0
370
     0
100
AcDbVertex
100
AcDb2dVertex
 10
358.766876
 20
329.876984
 30
0.0
  0
VERTEX
  5
3DA
330
3CD
100
AcDbEntity
  8
0
370
     0
100
AcDbVertex
100
AcDb2dVertex
 10
359.734619
 20
329.231842
 30
0.0
  0
VERTEX
  5
3DB
330
3CD
100
AcDbEntity
  8
0
370
     0
100
AcDbVertex
100
AcDb2dVertex
 10
360.218506
 20
329.231842
 30
0.0
  0
SEQEND
  5
3DC
330
3CD
100
AcDbEntity
  8
0
 62
     7
370
    13
  0
POLYLINE
  5
3DD
330
1F
100
AcDbEntity
  8
0
 62
     7
370
    13
100
AcDb2dPolyline
 66
     1
 10
0.0
 20
0.0
 30
0.0
  0
VERTEX
  5
3DE
330
3DD
100
AcDbEntity
  8
0
370
     0
100
AcDbVertex
100
AcDb2dVertex
 10
371.024963
 20
339.618927
 30
0.0
  0
VERTEX
  5
3DF
330
3DD
100
AcDbEntity
  8
0
370
     0
100
AcDbVertex
100
AcDb2dVertex
 10
364.089478
 20
344.135071
 30
0.0
  0
VERTEX
  5
3E0
330
3DD
100
AcDbEntity
  8
0
370
     0
100
AcDbVertex
100
AcDb2dVertex
 10
356.992676
 20
348.651184
 30
0.0
  0
SEQEND
  5
3E1
330
3DD
100
AcDbEntity
  8
0
 62
     7
370
    13
  0
POLYLINE
  5
3E2
330
1F
100
AcDbEntity
  8
0
 62
     7
370
    13
100
AcDb2dPolyline
 66
     1
 10
0.0
 20
0.0
 30
0.0
  0
VERTEX
  5
3E3
330
3E2
100
AcDbEntity
  8
0
370
     0
100
AcDbVertex
100
AcDb2dVertex
 10
361.024963
 20
359.038269
 30
0.0
  0
VERTEX
  5
3E4
330
3E2
100
AcDbEntity
  8
0
370
     0
100
AcDbVertex
100
AcDb2dVertex
 10
359.250763
 20
358.554413
 30
0.0
  0
VERTEX
  5
3E5
330
3E2
100
AcDbEntity
  8
0
370
     0
100
AcDbVertex
100
AcDb2dVertex
 10
358.28302
 20
357.425385
 30
0.0
  0
VERTEX
  5
3E6
330
3E2
100
AcDbEntity
  8
0
370
     0
100
AcDbVertex
100
AcDb2dVertex
 10
357.799133
 20
355.651184
 30
0.0
  0
VERTEX
  5
3E7
330
3E2
100
AcDbEntity
  8
0
370
     0
100
AcDbVertex
100
AcDb2dVertex
 10
357.799133
 20
355.167297
 30
0.0
  0
VERTEX
  5
3E8
330
3E2
100
AcDbEntity
  8
0
370
     0
100
AcDbVertex
100
AcDb2dVertex
 10
358.28302
 20
353.393127
 30
0.0
  0
VERTEX
  5
3E9
330
3E2
100
AcDbEntity
  8
0
370
     0
100
AcDbVertex
100
AcDb2dVertex
 10
359.250763
 20
352.264099
 30
0.0
  0
VERTEX
  5
3EA
330
3E2
100
AcDbEntity
  8
0
370
     0
100
AcDbVertex
100
AcDb2dVertex
 10
360.541077
 20
351.780212
 30
0.0
  0
VERTEX
  5
3EB
330
3E2
100
AcDbEntity
  8
0
370
     0
100
AcDbVertex
100
AcDb2dVertex
 10
361.024963
 20
351.780212
 30
0.0
  0
VERTEX
  5
3EC
330
3E2
100
AcDbEntity
  8
0
370
     0
100
AcDbVertex
100
AcDb2dVertex
 10
362.315277
 20
352.264099
 30
0.0
  0
VERTEX
  5
3ED
330
3E2
100
AcDbEntity
  8
0
370
     0
100
AcDbVertex
100
AcDb2dVertex
 10
363.28302
 20
353.393127
 30
0.0
  0
VERTEX
  5
3EE
330
3E2
100
AcDbEntity
  8
0
370
     0
100
AcDbVertex
100
AcDb2dVertex
 10
363.928162
 20
355.167297
 30
0.0
  0
VERTEX
  5
3EF
330
3E2
100
AcDbEntity
  8
0
370
     0
100
AcDbVertex
100
AcDb2dVertex
 10
363.928162
 20
355.651184
 30
0.0
  0
VERTEX
  5
3F0
330
3E2
100
AcDbEntity
  8
0
370
     0
100
AcDbVertex
100
AcDb2dVertex
 10
363.444305
 20
357.425385
 30
0.0
  0
VERTEX
  5
3F1
330
3E2
100
AcDbEntity
  8
0
370
     0
100
AcDbVertex
100
AcDb2dVertex
 10
362.476562
 20
358.554413
 30
0.0
  0
VERTEX
  5
3F2
330
3E2
100
AcDbEntity
  8
0
370
     0
100
AcDbVertex
100
AcDb2dVertex
 10
361.024963
 20
359.038269
 30
0.0
  0
VERTEX
  5
3F3
330
3E2
100
AcDbEntity
  8
0
370
     0
100
AcDbVertex
100
AcDb2dVertex
 10
363.28302
 20
359.038269
 30
0.0
  0
VERTEX
  5
3F4
330
3E2
100
AcDbEntity
  8
0
370
     0
100
AcDbVertex
100
AcDb2dVertex
 10
365.541077
 20
358.554413
 30
0.0
  0
VERTEX
  5
3F5
330
3E2
100
AcDbEntity
  8
0
370
     0
100
AcDbVertex
100
AcDb2dVertex
 10
367.315277
 20
357.425385
 30
0.0
  0
VERTEX
  5
3F6
330
3E2
100
AcDbEntity
  8
0
370
     0
100
AcDbVertex
100
AcDb2dVertex
 10
367.799133
 20
355.651184
 30
0.0
  0
VERTEX
  5
3F7
330
3E2
100
AcDbEntity
  8
0
370
     0
100
AcDbVertex
100
AcDb2dVertex
 10
367.799133
 20
354.522156
 30
0.0
  0
VERTEX
  5
3F8
330
3E2
100
AcDbEntity
  8
0
370
     0
100
AcDbVertex
100
AcDb2dVertex
 10
367.315277
 20
352.909241
 30
0.0
  0
VERTEX
  5
3F9
330
3E2
100
AcDbEntity
  8
0
370
     0
100
AcDbVertex
100
AcDb2dVertex
 10
366.347534
 20
352.264099
 30
0.0
  0
SEQEND
  5
3FA
330
3E2
100
AcDbEntity
  8
0
 62
     7
370
    13
  0
POLYLINE
  5
3FB
330
1F
100
AcDbEntity
  8
0
 62
     7
370
    13
100
AcDb2dPolyline
 66
     1
 10
0.0
 20
0.0
 30
0.0
  0
VERTEX
  5
3FC
330
3FB
100
AcDbEntity
  8
0
370
     0
100
AcDbVertex
100
AcDb2dVertex
 10
357.799133
 20
366.038269
 30
0.0
  0
VERTEX
  5
3FD
330
3FB
100
AcDbEntity
  8
0
370
     0
100
AcDbVertex
100
AcDb2dVertex
 10
360.863647
 20
366.038269
 30
0.0
  0
SEQEND
  5
3FE
330
3FB
100
AcDbEntity
  8
0
 62
     7
370
    13
  0
POLYLINE
  5
3FF
330
1F
100
AcDbEntity
  8
0
 62
     7
370
    13
100
AcDb2dPolyline
 66
     1
 10
0.0
 20
0.0
 30
0.0
  0
VERTEX
  5
400
330
3FF
100
AcDbEntity
  8
0
370
     0
100
AcDbVertex
100
AcDb2dVertex
 10
357.799133
 20
369.264099
 30
0.0
  0
VERTEX
  5
401
330
3FF
100
AcDbEntity
  8
0
370
     0
100
AcDbVertex
100
AcDb2dVertex
 10
360.863647
 20
369.264099
 30
0.0
  0
SEQEND
  5
402
330
3FF
100
AcDbEntity
  8
0
 62
     7
370
    13
  0
LINE
  5
403
330
1F
100
AcDbEntity
  8
0
 62
     7
370
    13
100
AcDbLine
 10
361.209747
 20
202.97522
 30
0.0
 11
371.799133
 21
202.97522
 31
0.0
  0
LINE
  5
404
330
1F
100
AcDbEntity
  8
0
 62
     7
370
    13
100
AcDbLine
 10
327.60498
 20
345.47522
 30
0.0
 11
371.799133
 21
345.47522
 31
0.0
  0
POLYLINE
  5
405
330
1F
100
AcDbEntity
  8
0
 62
     7
370
    13
100
AcDb2dPolyline
 66
     1
 10
0.0
 20
0.0
 30
0.0
  0
VERTEX
  5
406
330
405
100
AcDbEntity
  8
0
370
     0
100
AcDbVertex
100
AcDb2dVertex
 10
370.316772
 20
343.543365
 30
0.0
  0
VERTEX
  5
407
330
405
100
AcDbEntity
  8
0
370
     0
100
AcDbVertex
100
AcDb2dVertex
 10
369.799133
 20
345.47522
 30
0.0
  0
VERTEX
  5
408
330
405
100
AcDbEntity
  8
0
370
     0
100
AcDbVertex
100
AcDb2dVertex
 10
369.281494
 20
343.543365
 30
0.0
  0
SEQEND
  5
409
330
405
100
AcDbEntity
  8
0
 62
     7
370
    13
  0
POLYLINE
  5
40A
330
1F
100
AcDbEntity
  8
0
 62
     7
370
    13
100
AcDb2dPolyline
 66
     1
 10
0.0
 20
0.0
 30
0.0
  0
VERTEX
  5
40B
330
40A
100
AcDbEntity
  8
0
370
     0
100
AcDbVertex
100
AcDb2dVertex
 10
369.281494
 20
204.907074
 30
0.0
  0
VERTEX
  5
40C
330
40A
100
AcDbEntity
  8
0
370
     0
100
AcDbVertex
100
AcDb2dVertex
 10
369.799133
 20
202.97522
 30
0.0
  0
VERTEX
  5
40D
330
40A
100
AcDbEntity
  8
0
370
     0
100
AcDbVertex
100
AcDb2dVertex
 10
370.316772
 20
204.907074
 30
0.0
  0
SEQEND
  5
40E
330
40A
100
AcDbEntity
  8
0
 62
     7
370
    13
  0
LINE
  5
40F
330
1F
100
AcDbEntity
  8
0
 62
     7
370
    13
100
AcDbLine
 10
369.799133
 20
202.97522
 30
0.0
 11
369.799133
 21
372.167328
 31
0.0
  0
LINE
  5
410
330
1F
100
AcDbEntity
  8
0
  6
DASHDOT
 62
     7
370
    13
100
AcDbLine
 10
523.282593
 20
330.47522
 30
0.0
 11
475.136932
 21
330.47522
 31
0.0
  0
LINE
  5
411
330
1F
100
AcDbEntity
  8
0
  6
DASHDOT
 62
     7
370
    13
100
AcDbLine
 10
499.209747
 20
354.548035
 30
0.0
 11
499.209747
 21
306.402405
 31
0.0
  0
LINE
  5
412
330
1F
100
AcDbEntity
  8
0
  6
DASHDOT
 62
     7
370
    13
100
AcDbLine
 10
325.60498
 20
345.47522
 30
0.0
 11
277.814514
 21
345.47522
 31
0.0
  0
LINE
  5
413
330
1F
100
AcDbEntity
  8
0
  6
DASHDOT
 62
     7
370
    13
100
AcDbLine
 10
301.709747
 20
369.370422
 30
0.0
 11
301.709747
 21
321.579987
 31
0.0
  0
POLYLINE
  5
414
330
1F
100
AcDbEntity
  8
0
 62
     7
370
    13
100
AcDb2dPolyline
 66
     1
 10
0.0
 20
0.0
 30
0.0
  0
VERTEX
  5
415
330
414
100
AcDbEntity
  8
0
370
     0
100
AcDbVertex
100
AcDb2dVertex
 10
633.225891
 20
296.120392
 30
0.0
  0
VERTEX
  5
416
330
414
100
AcDbEntity
  8
0
370
     0
100
AcDbVertex
100
AcDb2dVertex
 10
635.935547
 20
296.120392
 30
0.0
  0
SEQEND
  5
417
330
414
100
AcDbEntity
  8
0
 62
     7
370
    13
  0
POLYLINE
  5
418
330
1F
100
AcDbEntity
  8
0
 62
     7
370
    13
100
AcDb2dPolyline
 66
     1
 10
0.0
 20
0.0
 30
0.0
  0
VERTEX
  5
419
330
418
100
AcDbEntity
  8
0
370
     0
100
AcDbVertex
100
AcDb2dVertex
 10
633.225891
 20
296.120392
 30
0.0
  0
VERTEX
  5
41A
330
418
100
AcDbEntity
  8
0
370
     0
100
AcDbVertex
100
AcDb2dVertex
 10
630.290405
 20
296.797791
 30
0.0
  0
VERTEX
  5
41B
330
418
100
AcDbEntity
  8
0
370
     0
100
AcDbVertex
100
AcDb2dVertex
 10
628.483948
 20
297.701019
 30
0.0
  0
VERTEX
  5
41C
330
418
100
AcDbEntity
  8
0
370
     0
100
AcDbVertex
100
AcDb2dVertex
 10
627.129089
 20
298.604248
 30
0.0
  0
VERTEX
  5
41D
330
418
100
AcDbEntity
  8
0
370
     0
100
AcDbVertex
100
AcDb2dVertex
 10
626.000061
 20
299.733276
 30
0.0
  0
SEQEND
  5
41E
330
418
100
AcDbEntity
  8
0
 62
     7
370
    13
  0
POLYLINE
  5
41F
330
1F
100
AcDbEntity
  8
0
 62
     7
370
    13
100
AcDb2dPolyline
 66
     1
 10
0.0
 20
0.0
 30
0.0
  0
VERTEX
  5
420
330
41F
100
AcDbEntity
  8
0
370
     0
100
AcDbVertex
100
AcDb2dVertex
 10
635.935547
 20
296.120392
 30
0.0
  0
VERTEX
  5
421
330
41F
100
AcDbEntity
  8
0
370
     0
100
AcDbVertex
100
AcDb2dVertex
 10
638.871033
 20
296.797791
 30
0.0
  0
VERTEX
  5
422
330
41F
100
AcDbEntity
  8
0
370
     0
100
AcDbVertex
100
AcDb2dVertex
 10
640.903259
 20
297.701019
 30
0.0
  0
SEQEND
  5
423
330
41F
100
AcDbEntity
  8
0
 62
     7
370
    13
  0
POLYLINE
  5
424
330
1F
100
AcDbEntity
  8
0
 62
     7
370
    13
100
AcDb2dPolyline
 66
     1
 10
0.0
 20
0.0
 30
0.0
  0
VERTEX
  5
425
330
424
100
AcDbEntity
  8
0
370
     0
100
AcDbVertex
100
AcDb2dVertex
 10
642.935547
 20
298.604248
 30
0.0
  0
VERTEX
  5
426
330
424
100
AcDbEntity
  8
0
370
     0
100
AcDbVertex
100
AcDb2dVertex
 10
644.290405
 20
299.733276
 30
0.0
  0
SEQEND
  5
427
330
424
100
AcDbEntity
  8
0
 62
     7
370
    13
  0
POLYLINE
  5
428
330
1F
100
AcDbEntity
  8
0
 62
     7
370
    13
100
AcDb2dPolyline
 66
     1
 10
0.0
 20
0.0
 30
0.0
  0
VERTEX
  5
429
330
428
100
AcDbEntity
  8
0
370
     0
100
AcDbVertex
100
AcDb2dVertex
 10
640.903259
 20
297.701019
 30
0.0
  0
VERTEX
  5
42A
330
428
100
AcDbEntity
  8
0
370
     0
100
AcDbVertex
100
AcDb2dVertex
 10
642.935547
 20
298.604248
 30
0.0
  0
SEQEND
  5
42B
330
428
100
AcDbEntity
  8
0
 62
     7
370
    13
  0
POLYLINE
  5
42C
330
1F
100
AcDbEntity
  8
0
 62
     7
370
    13
100
AcDb2dPolyline
 66
     1
 10
0.0
 20
0.0
 30
0.0
  0
VERTEX
  5
42D
330
42C
100
AcDbEntity
  8
0
370
     0
100
AcDbVertex
100
AcDb2dVertex
 10
628.935547
 20
308.765533
 30
0.0
  0
VERTEX
  5
42E
330
42C
100
AcDbEntity
  8
0
370
     0
100
AcDbVertex
100
AcDb2dVertex
 10
627.129089
 20
311.24942
 30
0.0
  0
VERTEX
  5
42F
330
42C
100
AcDbEntity
  8
0
370
     0
100
AcDbVertex
100
AcDb2dVertex
 10
641.129089
 20
311.24942
 30
0.0
  0
SEQEND
  5
430
330
42C
100
AcDbEntity
  8
0
 62
     7
370
    13
  0
POLYLINE
  5
431
330
1F
100
AcDbEntity
  8
0
 62
     7
370
    13
100
AcDb2dPolyline
 66
     1
 10
0.0
 20
0.0
 30
0.0
  0
VERTEX
  5
432
330
431
100
AcDbEntity
  8
0
370
     0
100
AcDbVertex
100
AcDb2dVertex
 10
629.612976
 20
307.410706
 30
0.0
  0
VERTEX
  5
433
330
431
100
AcDbEntity
  8
0
370
     0
100
AcDbVertex
100
AcDb2dVertex
 10
628.935547
 20
308.765533
 30
0.0
  0
SEQEND
  5
434
330
431
100
AcDbEntity
  8
0
 62
     7
370
    13
  0
POLYLINE
  5
435
330
1F
100
AcDbEntity
  8
0
 62
     7
370
    13
100
AcDb2dPolyline
 66
     1
 10
0.0
 20
0.0
 30
0.0
  0
VERTEX
  5
436
330
435
100
AcDbEntity
  8
0
370
     0
100
AcDbVertex
100
AcDb2dVertex
 10
628.935547
 20
328.862305
 30
0.0
  0
VERTEX
  5
437
330
435
100
AcDbEntity
  8
0
370
     0
100
AcDbVertex
100
AcDb2dVertex
 10
627.806519
 20
328.184906
 30
0.0
  0
VERTEX
  5
438
330
435
100
AcDbEntity
  8
0
370
     0
100
AcDbVertex
100
AcDb2dVertex
 10
627.129089
 20
325.701019
 30
0.0
  0
VERTEX
  5
439
330
435
100
AcDbEntity
  8
0
370
     0
100
AcDbVertex
100
AcDb2dVertex
 10
627.129089
 20
324.346191
 30
0.0
  0
VERTEX
  5
43A
330
435
100
AcDbEntity
  8
0
370
     0
100
AcDbVertex
100
AcDb2dVertex
 10
627.806519
 20
321.862305
 30
0.0
  0
VERTEX
  5
43B
330
435
100
AcDbEntity
  8
0
370
     0
100
AcDbVertex
100
AcDb2dVertex
 10
629.612976
 20
320.281677
 30
0.0
  0
VERTEX
  5
43C
330
435
100
AcDbEntity
  8
0
370
     0
100
AcDbVertex
100
AcDb2dVertex
 10
632.774231
 20
319.604248
 30
0.0
  0
VERTEX
  5
43D
330
435
100
AcDbEntity
  8
0
370
     0
100
AcDbVertex
100
AcDb2dVertex
 10
635.935547
 20
319.604248
 30
0.0
  0
VERTEX
  5
43E
330
435
100
AcDbEntity
  8
0
370
     0
100
AcDbVertex
100
AcDb2dVertex
 10
638.419434
 20
320.281677
 30
0.0
  0
VERTEX
  5
43F
330
435
100
AcDbEntity
  8
0
370
     0
100
AcDbVertex
100
AcDb2dVertex
 10
640.000061
 20
321.636505
 30
0.0
  0
VERTEX
  5
440
330
435
100
AcDbEntity
  8
0
370
     0
100
AcDbVertex
100
AcDb2dVertex
 10
641.129089
 20
324.120392
 30
0.0
  0
VERTEX
  5
441
330
435
100
AcDbEntity
  8
0
370
     0
100
AcDbVertex
100
AcDb2dVertex
 10
641.129089
 20
325.023621
 30
0.0
  0
VERTEX
  5
442
330
435
100
AcDbEntity
  8
0
370
     0
100
AcDbVertex
100
AcDb2dVertex
 10
640.45166
 20
327.507477
 30
0.0
  0
VERTEX
  5
443
330
435
100
AcDbEntity
  8
0
370
     0
100
AcDbVertex
100
AcDb2dVertex
 10
639.096802
 20
328.862305
 30
0.0
  0
VERTEX
  5
444
330
435
100
AcDbEntity
  8
0
370
     0
100
AcDbVertex
100
AcDb2dVertex
 10
637.290405
 20
329.539734
 30
0.0
  0
VERTEX
  5
445
330
435
100
AcDbEntity
  8
0
370
     0
100
AcDbVertex
100
AcDb2dVertex
 10
636.612976
 20
329.539734
 30
0.0
  0
VERTEX
  5
446
330
435
100
AcDbEntity
  8
0
370
     0
100
AcDbVertex
100
AcDb2dVertex
 10
634.806519
 20
328.862305
 30
0.0
  0
VERTEX
  5
447
330
435
100
AcDbEntity
  8
0
370
     0
100
AcDbVertex
100
AcDb2dVertex
 10
633.45166
 20
327.507477
 30
0.0
  0
VERTEX
  5
448
330
435
100
AcDbEntity
  8
0
370
     0
100
AcDbVertex
100
AcDb2dVertex
 10
632.774231
 20
325.023621
 30
0.0
  0
VERTEX
  5
449
330
435
100
AcDbEntity
  8
0
370
     0
100
AcDbVertex
100
AcDb2dVertex
 10
632.774231
 20
324.120392
 30
0.0
  0
VERTEX
  5
44A
330
435
100
AcDbEntity
  8
0
370
     0
100
AcDbVertex
100
AcDb2dVertex
 10
633.45166
 20
321.636505
 30
0.0
  0
VERTEX
  5
44B
330
435
100
AcDbEntity
  8
0
370
     0
100
AcDbVertex
100
AcDb2dVertex
 10
634.580688
 20
320.281677
 30
0.0
  0
VERTEX
  5
44C
330
435
100
AcDbEntity
  8
0
370
     0
100
AcDbVertex
100
AcDb2dVertex
 10
636.161316
 20
319.604248
 30
0.0
  0
SEQEND
  5
44D
330
435
100
AcDbEntity
  8
0
 62
     7
370
    13
  0
POLYLINE
  5
44E
330
1F
100
AcDbEntity
  8
0
 62
     7
370
    13
100
AcDb2dPolyline
 66
     1
 10
0.0
 20
0.0
 30
0.0
  0
VERTEX
  5
44F
330
44E
100
AcDbEntity
  8
0
370
     0
100
AcDbVertex
100
AcDb2dVertex
 10
635.483948
 20
333.152649
 30
0.0
  0
VERTEX
  5
450
330
44E
100
AcDbEntity
  8
0
370
     0
100
AcDbVertex
100
AcDb2dVertex
 10
635.483948
 20
343.539734
 30
0.0
  0
SEQEND
  5
451
330
44E
100
AcDbEntity
  8
0
 62
     7
370
    13
  0
POLYLINE
  5
452
330
1F
100
AcDbEntity
  8
0
 62
     7
370
    13
100
AcDb2dPolyline
 66
     1
 10
0.0
 20
0.0
 30
0.0
  0
VERTEX
  5
453
330
452
100
AcDbEntity
  8
0
370
     0
100
AcDbVertex
100
AcDb2dVertex
 10
628.935547
 20
349.410706
 30
0.0
  0
VERTEX
  5
454
330
452
100
AcDbEntity
  8
0
370
     0
100
AcDbVertex
100
AcDb2dVertex
 10
627.129089
 20
351.894562
 30
0.0
  0
VERTEX
  5
455
330
452
100
AcDbEntity
  8
0
370
     0
100
AcDbVertex
100
AcDb2dVertex
 10
641.129089
 20
351.894562
 30
0.0
  0
SEQEND
  5
456
330
452
100
AcDbEntity
  8
0
 62
     7
370
    13
  0
POLYLINE
  5
457
330
1F
100
AcDbEntity
  8
0
 62
     7
370
    13
100
AcDb2dPolyline
 66
     1
 10
0.0
 20
0.0
 30
0.0
  0
VERTEX
  5
458
330
457
100
AcDbEntity
  8
0
370
     0
100
AcDbVertex
100
AcDb2dVertex
 10
629.612976
 20
348.055847
 30
0.0
  0
VERTEX
  5
459
330
457
100
AcDbEntity
  8
0
370
     0
100
AcDbVertex
100
AcDb2dVertex
 10
628.935547
 20
349.410706
 30
0.0
  0
SEQEND
  5
45A
330
457
100
AcDbEntity
  8
0
 62
     7
370
    13
  0
POLYLINE
  5
45B
330
1F
100
AcDbEntity
  8
0
 62
     7
370
    13
100
AcDb2dPolyline
 66
     1
 10
0.0
 20
0.0
 30
0.0
  0
VERTEX
  5
45C
330
45B
100
AcDbEntity
  8
0
370
     0
100
AcDbVertex
100
AcDb2dVertex
 10
645.645203
 20
358.894592
 30
0.0
  0
VERTEX
  5
45D
330
45B
100
AcDbEntity
  8
0
370
     0
100
AcDbVertex
100
AcDb2dVertex
 10
635.935547
 20
365.217163
 30
0.0
  0
VERTEX
  5
45E
330
45B
100
AcDbEntity
  8
0
370
     0
100
AcDbVertex
100
AcDb2dVertex
 10
626.000061
 20
371.539734
 30
0.0
  0
SEQEND
  5
45F
330
45B
100
AcDbEntity
  8
0
 62
     7
370
    13
  0
POLYLINE
  5
460
330
1F
100
AcDbEntity
  8
0
 62
     7
370
    13
100
AcDb2dPolyline
 66
     1
 10
0.0
 20
0.0
 30
0.0
  0
VERTEX
  5
461
330
460
100
AcDbEntity
  8
0
370
     0
100
AcDbVertex
100
AcDb2dVertex
 10
639.548462
 20
373.797791
 30
0.0
  0
VERTEX
  5
462
330
460
100
AcDbEntity
  8
0
370
     0
100
AcDbVertex
100
AcDb2dVertex
 10
640.45166
 20
375.152649
 30
0.0
  0
VERTEX
  5
463
330
460
100
AcDbEntity
  8
0
370
     0
100
AcDbVertex
100
AcDb2dVertex
 10
641.129089
 20
377.410706
 30
0.0
  0
VERTEX
  5
464
330
460
100
AcDbEntity
  8
0
370
     0
100
AcDbVertex
100
AcDb2dVertex
 10
641.129089
 20
379.217163
 30
0.0
  0
VERTEX
  5
465
330
460
100
AcDbEntity
  8
0
370
     0
100
AcDbVertex
100
AcDb2dVertex
 10
640.45166
 20
381.47522
 30
0.0
  0
SEQEND
  5
466
330
460
100
AcDbEntity
  8
0
 62
     7
370
    13
  0
POLYLINE
  5
467
330
1F
100
AcDbEntity
  8
0
 62
     7
370
    13
100
AcDb2dPolyline
 66
     1
 10
0.0
 20
0.0
 30
0.0
  0
VERTEX
  5
468
330
467
100
AcDbEntity
  8
0
370
     0
100
AcDbVertex
100
AcDb2dVertex
 10
627.806519
 20
381.47522
 30
0.0
  0
VERTEX
  5
469
330
467
100
AcDbEntity
  8
0
370
     0
100
AcDbVertex
100
AcDb2dVertex
 10
627.129089
 20
379.217163
 30
0.0
  0
VERTEX
  5
46A
330
467
100
AcDbEntity
  8
0
370
     0
100
AcDbVertex
100
AcDb2dVertex
 10
627.129089
 20
377.410706
 30
0.0
  0
VERTEX
  5
46B
330
467
100
AcDbEntity
  8
0
370
     0
100
AcDbVertex
100
AcDb2dVertex
 10
627.806519
 20
375.152649
 30
0.0
  0
SEQEND
  5
46C
330
467
100
AcDbEntity
  8
0
 62
     7
370
    13
  0
POLYLINE
  5
46D
330
1F
100
AcDbEntity
  8
0
 62
     7
370
    13
100
AcDb2dPolyline
 66
     1
 10
0.0
 20
0.0
 30
0.0
  0
VERTEX
  5
46E
330
46D
100
AcDbEntity
  8
0
370
     0
100
AcDbVertex
100
AcDb2dVertex
 10
639.548462
 20
373.797791
 30
0.0
  0
VERTEX
  5
46F
330
46D
100
AcDbEntity
  8
0
370
     0
100
AcDbVertex
100
AcDb2dVertex
 10
638.193604
 20
373.120361
 30
0.0
  0
VERTEX
  5
470
330
46D
100
AcDbEntity
  8
0
370
     0
100
AcDbVertex
100
AcDb2dVertex
 10
636.838745
 20
373.120361
 30
0.0
  0
VERTEX
  5
471
330
46D
100
AcDbEntity
  8
0
370
     0
100
AcDbVertex
100
AcDb2dVertex
 10
635.483948
 20
373.797791
 30
0.0
  0
VERTEX
  5
472
330
46D
100
AcDbEntity
  8
0
370
     0
100
AcDbVertex
100
AcDb2dVertex
 10
634.129089
 20
375.378448
 30
0.0
  0
VERTEX
  5
473
330
46D
100
AcDbEntity
  8
0
370
     0
100
AcDbVertex
100
AcDb2dVertex
 10
632.774231
 20
380.120361
 30
0.0
  0
VERTEX
  5
474
330
46D
100
AcDbEntity
  8
0
370
     0
100
AcDbVertex
100
AcDb2dVertex
 10
632.322632
 20
381.24942
 30
0.0
  0
VERTEX
  5
475
330
46D
100
AcDbEntity
  8
0
370
     0
100
AcDbVertex
100
AcDb2dVertex
 10
631.645203
 20
381.926819
 30
0.0
  0
VERTEX
  5
476
330
46D
100
AcDbEntity
  8
0
370
     0
100
AcDbVertex
100
AcDb2dVertex
 10
630.516174
 20
382.378448
 30
0.0
  0
VERTEX
  5
477
330
46D
100
AcDbEntity
  8
0
370
     0
100
AcDbVertex
100
AcDb2dVertex
 10
628.935547
 20
382.378448
 30
0.0
  0
VERTEX
  5
478
330
46D
100
AcDbEntity
  8
0
370
     0
100
AcDbVertex
100
AcDb2dVertex
 10
627.806519
 20
381.47522
 30
0.0
  0
SEQEND
  5
479
330
46D
100
AcDbEntity
  8
0
 62
     7
370
    13
  0
POLYLINE
  5
47A
330
1F
100
AcDbEntity
  8
0
 62
     7
370
    13
100
AcDb2dPolyline
 66
     1
 10
0.0
 20
0.0
 30
0.0
  0
VERTEX
  5
47B
330
47A
100
AcDbEntity
  8
0
370
     0
100
AcDbVertex
100
AcDb2dVertex
 10
627.806519
 20
375.152649
 30
0.0
  0
VERTEX
  5
47C
330
47A
100
AcDbEntity
  8
0
370
     0
100
AcDbVertex
100
AcDb2dVertex
 10
628.935547
 20
374.24942
 30
0.0
  0
VERTEX
  5
47D
330
47A
100
AcDbEntity
  8
0
370
     0
100
AcDbVertex
100
AcDb2dVertex
 10
630.516174
 20
374.24942
 30
0.0
  0
VERTEX
  5
47E
330
47A
100
AcDbEntity
  8
0
370
     0
100
AcDbVertex
100
AcDb2dVertex
 10
631.645203
 20
374.701019
 30
0.0
  0
VERTEX
  5
47F
330
47A
100
AcDbEntity
  8
0
370
     0
100
AcDbVertex
100
AcDb2dVertex
 10
632.322632
 20
375.378448
 30
0.0
  0
VERTEX
  5
480
330
47A
100
AcDbEntity
  8
0
370
     0
100
AcDbVertex
100
AcDb2dVertex
 10
632.774231
 20
376.507477
 30
0.0
  0
VERTEX
  5
481
330
47A
100
AcDbEntity
  8
0
370
     0
100
AcDbVertex
100
AcDb2dVertex
 10
634.129089
 20
381.47522
 30
0.0
  0
SEQEND
  5
482
330
47A
100
AcDbEntity
  8
0
 62
     7
370
    13
  0
POLYLINE
  5
483
330
1F
100
AcDbEntity
  8
0
 62
     7
370
    13
100
AcDb2dPolyline
 66
     1
 10
0.0
 20
0.0
 30
0.0
  0
VERTEX
  5
484
330
483
100
AcDbEntity
  8
0
370
     0
100
AcDbVertex
100
AcDb2dVertex
 10
635.483948
 20
383.055847
 30
0.0
  0
VERTEX
  5
485
330
483
100
AcDbEntity
  8
0
370
     0
100
AcDbVertex
100
AcDb2dVertex
 10
636.838745
 20
383.733276
 30
0.0
  0
VERTEX
  5
486
330
483
100
AcDbEntity
  8
0
370
     0
100
AcDbVertex
100
AcDb2dVertex
 10
638.193604
 20
383.733276
 30
0.0
  0
VERTEX
  5
487
330
483
100
AcDbEntity
  8
0
370
     0
100
AcDbVertex
100
AcDb2dVertex
 10
639.548462
 20
383.055847
 30
0.0
  0
VERTEX
  5
488
330
483
100
AcDbEntity
  8
0
370
     0
100
AcDbVertex
100
AcDb2dVertex
 10
640.45166
 20
381.47522
 30
0.0
  0
SEQEND
  5
489
330
483
100
AcDbEntity
  8
0
 62
     7
370
    13
  0
POLYLINE
  5
48A
330
1F
100
AcDbEntity
  8
0
 62
     7
370
    13
100
AcDb2dPolyline
 66
     1
 10
0.0
 20
0.0
 30
0.0
  0
VERTEX
  5
48B
330
48A
100
AcDbEntity
  8
0
370
     0
100
AcDbVertex
100
AcDb2dVertex
 10
635.483948
 20
383.055847
 30
0.0
  0
VERTEX
  5
48C
330
48A
100
AcDbEntity
  8
0
370
     0
100
AcDbVertex
100
AcDb2dVertex
 10
634.129089
 20
381.47522
 30
0.0
  0
SEQEND
  5
48D
330
48A
100
AcDbEntity
  8
0
 62
     7
370
    13
  0
POLYLINE
  5
48E
330
1F
100
AcDbEntity
  8
0
 62
     7
370
    13
100
AcDb2dPolyline
 66
     1
 10
0.0
 20
0.0
 30
0.0
  0
VERTEX
  5
48F
330
48E
100
AcDbEntity
  8
0
370
     0
100
AcDbVertex
100
AcDb2dVertex
 10
627.129089
 20
390.281677
 30
0.0
  0
VERTEX
  5
490
330
48E
100
AcDbEntity
  8
0
370
     0
100
AcDbVertex
100
AcDb2dVertex
 10
631.419434
 20
390.281677
 30
0.0
  0
SEQEND
  5
491
330
48E
100
AcDbEntity
  8
0
 62
     7
370
    13
  0
POLYLINE
  5
492
330
1F
100
AcDbEntity
  8
0
 62
     7
370
    13
100
AcDb2dPolyline
 66
     1
 10
0.0
 20
0.0
 30
0.0
  0
VERTEX
  5
493
330
492
100
AcDbEntity
  8
0
370
     0
100
AcDbVertex
100
AcDb2dVertex
 10
627.129089
 20
394.797791
 30
0.0
  0
VERTEX
  5
494
330
492
100
AcDbEntity
  8
0
370
     0
100
AcDbVertex
100
AcDb2dVertex
 10
631.419434
 20
394.797791
 30
0.0
  0
SEQEND
  5
495
330
492
100
AcDbEntity
  8
0
 62
     7
370
    13
  0
POLYLINE
  5
496
330
1F
100
AcDbEntity
  8
0
 62
     7
370
    13
100
AcDb2dPolyline
 66
     1
 10
0.0
 20
0.0
 30
0.0
  0
VERTEX
  5
497
330
496
100
AcDbEntity
  8
0
370
     0
100
AcDbVertex
100
AcDb2dVertex
 10
631.193604
 20
407.217163
 30
0.0
  0
VERTEX
  5
498
330
496
100
AcDbEntity
  8
0
370
     0
100
AcDbVertex
100
AcDb2dVertex
 10
633.22583
 20
407.894562
 30
0.0
  0
VERTEX
  5
499
330
496
100
AcDbEntity
  8
0
370
     0
100
AcDbVertex
100
AcDb2dVertex
 10
635.935547
 20
407.894562
 30
0.0
  0
VERTEX
  5
49A
330
496
100
AcDbEntity
  8
0
370
     0
100
AcDbVertex
100
AcDb2dVertex
 10
638.871033
 20
407.217163
 30
0.0
  0
VERTEX
  5
49B
330
496
100
AcDbEntity
  8
0
370
     0
100
AcDbVertex
100
AcDb2dVertex
 10
640.67749
 20
406.313934
 30
0.0
  0
SEQEND
  5
49C
330
496
100
AcDbEntity
  8
0
 62
     7
370
    13
  0
POLYLINE
  5
49D
330
1F
100
AcDbEntity
  8
0
 62
     7
370
    13
100
AcDb2dPolyline
 66
     1
 10
0.0
 20
0.0
 30
0.0
  0
VERTEX
  5
49E
330
49D
100
AcDbEntity
  8
0
370
     0
100
AcDbVertex
100
AcDb2dVertex
 10
631.193604
 20
407.217163
 30
0.0
  0
VERTEX
  5
49F
330
49D
100
AcDbEntity
  8
0
370
     0
100
AcDbVertex
100
AcDb2dVertex
 10
629.161316
 20
406.313934
 30
0.0
  0
SEQEND
  5
4A0
330
49D
100
AcDbEntity
  8
0
 62
     7
370
    13
  0
POLYLINE
  5
4A1
330
1F
100
AcDbEntity
  8
0
 62
     7
370
    13
100
AcDb2dPolyline
 66
     1
 10
0.0
 20
0.0
 30
0.0
  0
VERTEX
  5
4A2
330
4A1
100
AcDbEntity
  8
0
370
     0
100
AcDbVertex
100
AcDb2dVertex
 10
627.580688
 20
405.410706
 30
0.0
  0
VERTEX
  5
4A3
330
4A1
100
AcDbEntity
  8
0
370
     0
100
AcDbVertex
100
AcDb2dVertex
 10
629.161316
 20
406.313934
 30
0.0
  0
SEQEND
  5
4A4
330
4A1
100
AcDbEntity
  8
0
 62
     7
370
    13
  0
POLYLINE
  5
4A5
330
1F
100
AcDbEntity
  8
0
 62
     7
370
    13
100
AcDb2dPolyline
 66
     1
 10
0.0
 20
0.0
 30
0.0
  0
VERTEX
  5
4A6
330
4A5
100
AcDbEntity
  8
0
370
     0
100
AcDbVertex
100
AcDb2dVertex
 10
626.000061
 20
404.281677
 30
0.0
  0
VERTEX
  5
4A7
330
4A5
100
AcDbEntity
  8
0
370
     0
100
AcDbVertex
100
AcDb2dVertex
 10
627.580688
 20
405.410706
 30
0.0
  0
SEQEND
  5
4A8
330
4A5
100
AcDbEntity
  8
0
 62
     7
370
    13
  0
POLYLINE
  5
4A9
330
1F
100
AcDbEntity
  8
0
 62
     7
370
    13
100
AcDb2dPolyline
 66
     1
 10
0.0
 20
0.0
 30
0.0
  0
VERTEX
  5
4AA
330
4A9
100
AcDbEntity
  8
0
370
     0
100
AcDbVertex
100
AcDb2dVertex
 10
644.064575
 20
404.281677
 30
0.0
  0
VERTEX
  5
4AB
330
4A9
100
AcDbEntity
  8
0
370
     0
100
AcDbVertex
100
AcDb2dVertex
 10
642.258118
 20
405.410706
 30
0.0
  0
VERTEX
  5
4AC
330
4A9
100
AcDbEntity
  8
0
370
     0
100
AcDbVertex
100
AcDb2dVertex
 10
640.67749
 20
406.313934
 30
0.0
  0
SEQEND
  5
4AD
330
4A9
100
AcDbEntity
  8
0
 62
     7
370
    13
  0
POLYLINE
  5
4AE
330
1F
100
AcDbEntity
  8
0
 62
     7
370
    13
100
AcDb2dPolyline
 66
     1
 10
0.0
 20
0.0
 30
0.0
  0
VERTEX
  5
4AF
330
4AE
100
AcDbEntity
  8
0
370
     0
100
AcDbVertex
100
AcDb2dVertex
 10
474.068359
 20
471.990387
 30
0.0
  0
VERTEX
  5
4B0
330
4AE
100
AcDbEntity
  8
0
370
     0
100
AcDbVertex
100
AcDb2dVertex
 10
474.068359
 20
469.280701
 30
0.0
  0
SEQEND
  5
4B1
330
4AE
100
AcDbEntity
  8
0
 62
     7
370
    13
  0
POLYLINE
  5
4B2
330
1F
100
AcDbEntity
  8
0
 62
     7
370
    13
100
AcDb2dPolyline
 66
     1
 10
0.0
 20
0.0
 30
0.0
  0
VERTEX
  5
4B3
330
4B2
100
AcDbEntity
  8
0
370
     0
100
AcDbVertex
100
AcDb2dVertex
 10
474.068359
 20
471.990387
 30
0.0
  0
VERTEX
  5
4B4
330
4B2
100
AcDbEntity
  8
0
370
     0
100
AcDbVertex
100
AcDb2dVertex
 10
474.745758
 20
474.925873
 30
0.0
  0
VERTEX
  5
4B5
330
4B2
100
AcDbEntity
  8
0
370
     0
100
AcDbVertex
100
AcDb2dVertex
 10
475.648987
 20
476.73233
 30
0.0
  0
VERTEX
  5
4B6
330
4B2
100
AcDbEntity
  8
0
370
     0
100
AcDbVertex
100
AcDb2dVertex
 10
476.552216
 20
478.087158
 30
0.0
  0
VERTEX
  5
4B7
330
4B2
100
AcDbEntity
  8
0
370
     0
100
AcDbVertex
100
AcDb2dVertex
 10
477.681244
 20
479.216187
 30
0.0
  0
SEQEND
  5
4B8
330
4B2
100
AcDbEntity
  8
0
 62
     7
370
    13
  0
POLYLINE
  5
4B9
330
1F
100
AcDbEntity
  8
0
 62
     7
370
    13
100
AcDb2dPolyline
 66
     1
 10
0.0
 20
0.0
 30
0.0
  0
VERTEX
  5
4BA
330
4B9
100
AcDbEntity
  8
0
370
     0
100
AcDbVertex
100
AcDb2dVertex
 10
474.068359
 20
469.280701
 30
0.0
  0
VERTEX
  5
4BB
330
4B9
100
AcDbEntity
  8
0
370
     0
100
AcDbVertex
100
AcDb2dVertex
 10
474.745758
 20
466.345215
 30
0.0
  0
VERTEX
  5
4BC
330
4B9
100
AcDbEntity
  8
0
370
     0
100
AcDbVertex
100
AcDb2dVertex
 10
475.648987
 20
464.312958
 30
0.0
  0
SEQEND
  5
4BD
330
4B9
100
AcDbEntity
  8
0
 62
     7
370
    13
  0
POLYLINE
  5
4BE
330
1F
100
AcDbEntity
  8
0
 62
     7
370
    13
100
AcDb2dPolyline
 66
     1
 10
0.0
 20
0.0
 30
0.0
  0
VERTEX
  5
4BF
330
4BE
100
AcDbEntity
  8
0
370
     0
100
AcDbVertex
100
AcDb2dVertex
 10
476.552216
 20
462.280701
 30
0.0
  0
VERTEX
  5
4C0
330
4BE
100
AcDbEntity
  8
0
370
     0
100
AcDbVertex
100
AcDb2dVertex
 10
477.681244
 20
460.925873
 30
0.0
  0
SEQEND
  5
4C1
330
4BE
100
AcDbEntity
  8
0
 62
     7
370
    13
  0
POLYLINE
  5
4C2
330
1F
100
AcDbEntity
  8
0
 62
     7
370
    13
100
AcDb2dPolyline
 66
     1
 10
0.0
 20
0.0
 30
0.0
  0
VERTEX
  5
4C3
330
4C2
100
AcDbEntity
  8
0
370
     0
100
AcDbVertex
100
AcDb2dVertex
 10
475.648987
 20
464.312958
 30
0.0
  0
VERTEX
  5
4C4
330
4C2
100
AcDbEntity
  8
0
370
     0
100
AcDbVertex
100
AcDb2dVertex
 10
476.552216
 20
462.280701
 30
0.0
  0
SEQEND
  5
4C5
330
4C2
100
AcDbEntity
  8
0
 62
     7
370
    13
  0
POLYLINE
  5
4C6
330
1F
100
AcDbEntity
  8
0
 62
     7
370
    13
100
AcDb2dPolyline
 66
     1
 10
0.0
 20
0.0
 30
0.0
  0
VERTEX
  5
4C7
330
4C6
100
AcDbEntity
  8
0
370
     0
100
AcDbVertex
100
AcDb2dVertex
 10
486.713501
 20
476.280701
 30
0.0
  0
VERTEX
  5
4C8
330
4C6
100
AcDbEntity
  8
0
370
     0
100
AcDbVertex
100
AcDb2dVertex
 10
489.197388
 20
478.087158
 30
0.0
  0
VERTEX
  5
4C9
330
4C6
100
AcDbEntity
  8
0
370
     0
100
AcDbVertex
100
AcDb2dVertex
 10
489.197388
 20
464.087158
 30
0.0
  0
SEQEND
  5
4CA
330
4C6
100
AcDbEntity
  8
0
 62
     7
370
    13
  0
POLYLINE
  5
4CB
330
1F
100
AcDbEntity
  8
0
 62
     7
370
    13
100
AcDb2dPolyline
 66
     1
 10
0.0
 20
0.0
 30
0.0
  0
VERTEX
  5
4CC
330
4CB
100
AcDbEntity
  8
0
370
     0
100
AcDbVertex
100
AcDb2dVertex
 10
485.358673
 20
475.603271
 30
0.0
  0
VERTEX
  5
4CD
330
4CB
100
AcDbEntity
  8
0
370
     0
100
AcDbVertex
100
AcDb2dVertex
 10
486.713501
 20
476.280701
 30
0.0
  0
SEQEND
  5
4CE
330
4CB
100
AcDbEntity
  8
0
 62
     7
370
    13
  0
POLYLINE
  5
4CF
330
1F
100
AcDbEntity
  8
0
 62
     7
370
    13
100
AcDb2dPolyline
 66
     1
 10
0.0
 20
0.0
 30
0.0
  0
VERTEX
  5
4D0
330
4CF
100
AcDbEntity
  8
0
370
     0
100
AcDbVertex
100
AcDb2dVertex
 10
507.713501
 20
464.087158
 30
0.0
  0
VERTEX
  5
4D1
330
4CF
100
AcDbEntity
  8
0
370
     0
100
AcDbVertex
100
AcDb2dVertex
 10
496.874817
 20
464.087158
 30
0.0
  0
VERTEX
  5
4D2
330
4CF
100
AcDbEntity
  8
0
370
     0
100
AcDbVertex
100
AcDb2dVertex
 10
504.552216
 20
470.409729
 30
0.0
  0
VERTEX
  5
4D3
330
4CF
100
AcDbEntity
  8
0
370
     0
100
AcDbVertex
100
AcDb2dVertex
 10
506.132874
 20
472.216187
 30
0.0
  0
VERTEX
  5
4D4
330
4CF
100
AcDbEntity
  8
0
370
     0
100
AcDbVertex
100
AcDb2dVertex
 10
506.810272
 20
473.571014
 30
0.0
  0
VERTEX
  5
4D5
330
4CF
100
AcDbEntity
  8
0
370
     0
100
AcDbVertex
100
AcDb2dVertex
 10
506.810272
 20
474.925873
 30
0.0
  0
VERTEX
  5
4D6
330
4CF
100
AcDbEntity
  8
0
370
     0
100
AcDbVertex
100
AcDb2dVertex
 10
506.132874
 20
476.5065
 30
0.0
  0
VERTEX
  5
4D7
330
4CF
100
AcDbEntity
  8
0
370
     0
100
AcDbVertex
100
AcDb2dVertex
 10
505.455444
 20
477.409729
 30
0.0
  0
VERTEX
  5
4D8
330
4CF
100
AcDbEntity
  8
0
370
     0
100
AcDbVertex
100
AcDb2dVertex
 10
503.874817
 20
478.087158
 30
0.0
  0
VERTEX
  5
4D9
330
4CF
100
AcDbEntity
  8
0
370
     0
100
AcDbVertex
100
AcDb2dVertex
 10
501.165131
 20
478.087158
 30
0.0
  0
VERTEX
  5
4DA
330
4CF
100
AcDbEntity
  8
0
370
     0
100
AcDbVertex
100
AcDb2dVertex
 10
499.584473
 20
477.409729
 30
0.0
  0
VERTEX
  5
4DB
330
4CF
100
AcDbEntity
  8
0
370
     0
100
AcDbVertex
100
AcDb2dVertex
 10
498.907043
 20
476.73233
 30
0.0
  0
VERTEX
  5
4DC
330
4CF
100
AcDbEntity
  8
0
370
     0
100
AcDbVertex
100
AcDb2dVertex
 10
498.003845
 20
475.377472
 30
0.0
  0
VERTEX
  5
4DD
330
4CF
100
AcDbEntity
  8
0
370
     0
100
AcDbVertex
100
AcDb2dVertex
 10
498.003845
 20
474.700073
 30
0.0
  0
SEQEND
  5
4DE
330
4CF
100
AcDbEntity
  8
0
 62
     7
370
    13
  0
POLYLINE
  5
4DF
330
1F
100
AcDbEntity
  8
0
 62
     7
370
    13
100
AcDb2dPolyline
 66
     1
 10
0.0
 20
0.0
 30
0.0
  0
VERTEX
  5
4E0
330
4DF
100
AcDbEntity
  8
0
370
     0
100
AcDbVertex
100
AcDb2dVertex
 10
511.100616
 20
469.73233
 30
0.0
  0
VERTEX
  5
4E1
330
4DF
100
AcDbEntity
  8
0
370
     0
100
AcDbVertex
100
AcDb2dVertex
 10
521.487671
 20
469.73233
 30
0.0
  0
SEQEND
  5
4E2
330
4DF
100
AcDbEntity
  8
0
 62
     7
370
    13
  0
POLYLINE
  5
4E3
330
1F
100
AcDbEntity
  8
0
 62
     7
370
    13
100
AcDb2dPolyline
 66
     1
 10
0.0
 20
0.0
 30
0.0
  0
VERTEX
  5
4E4
330
4E3
100
AcDbEntity
  8
0
370
     0
100
AcDbVertex
100
AcDb2dVertex
 10
523.971558
 20
478.087158
 30
0.0
  0
VERTEX
  5
4E5
330
4E3
100
AcDbEntity
  8
0
370
     0
100
AcDbVertex
100
AcDb2dVertex
 10
534.810303
 20
478.087158
 30
0.0
  0
VERTEX
  5
4E6
330
4E3
100
AcDbEntity
  8
0
370
     0
100
AcDbVertex
100
AcDb2dVertex
 10
526.681274
 20
464.087158
 30
0.0
  0
SEQEND
  5
4E7
330
4E3
100
AcDbEntity
  8
0
 62
     7
370
    13
  0
POLYLINE
  5
4E8
330
1F
100
AcDbEntity
  8
0
 62
     7
370
    13
100
AcDb2dPolyline
 66
     1
 10
0.0
 20
0.0
 30
0.0
  0
VERTEX
  5
4E9
330
4E8
100
AcDbEntity
  8
0
370
     0
100
AcDbVertex
100
AcDb2dVertex
 10
536.842529
 20
459.571014
 30
0.0
  0
VERTEX
  5
4EA
330
4E8
100
AcDbEntity
  8
0
370
     0
100
AcDbVertex
100
AcDb2dVertex
 10
543.1651
 20
469.280701
 30
0.0
  0
VERTEX
  5
4EB
330
4E8
100
AcDbEntity
  8
0
370
     0
100
AcDbVertex
100
AcDb2dVertex
 10
549.487671
 20
479.216187
 30
0.0
  0
SEQEND
  5
4EC
330
4E8
100
AcDbEntity
  8
0
 62
     7
370
    13
  0
POLYLINE
  5
4ED
330
1F
100
AcDbEntity
  8
0
 62
     7
370
    13
100
AcDb2dPolyline
 66
     1
 10
0.0
 20
0.0
 30
0.0
  0
VERTEX
  5
4EE
330
4ED
100
AcDbEntity
  8
0
370
     0
100
AcDbVertex
100
AcDb2dVertex
 10
551.745789
 20
465.667816
 30
0.0
  0
VERTEX
  5
4EF
330
4ED
100
AcDbEntity
  8
0
370
     0
100
AcDbVertex
100
AcDb2dVertex
 10
553.100586
 20
464.764587
 30
0.0
  0
VERTEX
  5
4F0
330
4ED
100
AcDbEntity
  8
0
370
     0
100
AcDbVertex
100
AcDb2dVertex
 10
555.358643
 20
464.087158
 30
0.0
  0
VERTEX
  5
4F1
330
4ED
100
AcDbEntity
  8
0
370
     0
100
AcDbVertex
100
AcDb2dVertex
 10
557.1651
 20
464.087158
 30
0.0
  0
VERTEX
  5
4F2
330
4ED
100
AcDbEntity
  8
0
370
     0
100
AcDbVertex
100
AcDb2dVertex
 10
559.423218
 20
464.764587
 30
0.0
  0
SEQEND
  5
4F3
330
4ED
100
AcDbEntity
  8
0
 62
     7
370
    13
  0
POLYLINE
  5
4F4
330
1F
100
AcDbEntity
  8
0
 62
     7
370
    13
100
AcDb2dPolyline
 66
     1
 10
0.0
 20
0.0
 30
0.0
  0
VERTEX
  5
4F5
330
4F4
100
AcDbEntity
  8
0
370
     0
100
AcDbVertex
100
AcDb2dVertex
 10
559.423218
 20
477.409729
 30
0.0
  0
VERTEX
  5
4F6
330
4F4
100
AcDbEntity
  8
0
370
     0
100
AcDbVertex
100
AcDb2dVertex
 10
557.1651
 20
478.087158
 30
0.0
  0
VERTEX
  5
4F7
330
4F4
100
AcDbEntity
  8
0
370
     0
100
AcDbVertex
100
AcDb2dVertex
 10
555.358643
 20
478.087158
 30
0.0
  0
VERTEX
  5
4F8
330
4F4
100
AcDbEntity
  8
0
370
     0
100
AcDbVertex
100
AcDb2dVertex
 10
553.100586
 20
477.409729
 30
0.0
  0
SEQEND
  5
4F9
330
4F4
100
AcDbEntity
  8
0
 62
     7
370
    13
  0
POLYLINE
  5
4FA
330
1F
100
AcDbEntity
  8
0
 62
     7
370
    13
100
AcDb2dPolyline
 66
     1
 10
0.0
 20
0.0
 30
0.0
  0
VERTEX
  5
4FB
330
4FA
100
AcDbEntity
  8
0
370
     0
100
AcDbVertex
100
AcDb2dVertex
 10
551.745789
 20
465.667816
 30
0.0
  0
VERTEX
  5
4FC
330
4FA
100
AcDbEntity
  8
0
370
     0
100
AcDbVertex
100
AcDb2dVertex
 10
551.068359
 20
467.022644
 30
0.0
  0
VERTEX
  5
4FD
330
4FA
100
AcDbEntity
  8
0
370
     0
100
AcDbVertex
100
AcDb2dVertex
 10
551.068359
 20
468.377472
 30
0.0
  0
VERTEX
  5
4FE
330
4FA
100
AcDbEntity
  8
0
370
     0
100
AcDbVertex
100
AcDb2dVertex
 10
551.745789
 20
469.73233
 30
0.0
  0
VERTEX
  5
4FF
330
4FA
100
AcDbEntity
  8
0
370
     0
100
AcDbVertex
100
AcDb2dVertex
 10
553.326416
 20
471.087158
 30
0.0
  0
VERTEX
  5
500
330
4FA
100
AcDbEntity
  8
0
370
     0
100
AcDbVertex
100
AcDb2dVertex
 10
558.068359
 20
472.441986
 30
0.0
  0
VERTEX
  5
501
330
4FA
100
AcDbEntity
  8
0
370
     0
100
AcDbVertex
100
AcDb2dVertex
 10
559.197388
 20
472.893616
 30
0.0
  0
VERTEX
  5
502
330
4FA
100
AcDbEntity
  8
0
370
     0
100
AcDbVertex
100
AcDb2dVertex
 10
559.874817
 20
473.571014
 30
0.0
  0
VERTEX
  5
503
330
4FA
100
AcDbEntity
  8
0
370
     0
100
AcDbVertex
100
AcDb2dVertex
 10
560.326416
 20
474.700073
 30
0.0
  0
VERTEX
  5
504
330
4FA
100
AcDbEntity
  8
0
370
     0
100
AcDbVertex
100
AcDb2dVertex
 10
560.326416
 20
476.280701
 30
0.0
  0
VERTEX
  5
505
330
4FA
100
AcDbEntity
  8
0
370
     0
100
AcDbVertex
100
AcDb2dVertex
 10
559.423218
 20
477.409729
 30
0.0
  0
SEQEND
  5
506
330
4FA
100
AcDbEntity
  8
0
 62
     7
370
    13
  0
POLYLINE
  5
507
330
1F
100
AcDbEntity
  8
0
 62
     7
370
    13
100
AcDb2dPolyline
 66
     1
 10
0.0
 20
0.0
 30
0.0
  0
VERTEX
  5
508
330
507
100
AcDbEntity
  8
0
370
     0
100
AcDbVertex
100
AcDb2dVertex
 10
553.100586
 20
477.409729
 30
0.0
  0
VERTEX
  5
509
330
507
100
AcDbEntity
  8
0
370
     0
100
AcDbVertex
100
AcDb2dVertex
 10
552.197388
 20
476.280701
 30
0.0
  0
VERTEX
  5
50A
330
507
100
AcDbEntity
  8
0
370
     0
100
AcDbVertex
100
AcDb2dVertex
 10
552.197388
 20
474.700073
 30
0.0
  0
VERTEX
  5
50B
330
507
100
AcDbEntity
  8
0
370
     0
100
AcDbVertex
100
AcDb2dVertex
 10
552.648987
 20
473.571014
 30
0.0
  0
VERTEX
  5
50C
330
507
100
AcDbEntity
  8
0
370
     0
100
AcDbVertex
100
AcDb2dVertex
 10
553.326416
 20
472.893616
 30
0.0
  0
VERTEX
  5
50D
330
507
100
AcDbEntity
  8
0
370
     0
100
AcDbVertex
100
AcDb2dVertex
 10
554.455444
 20
472.441986
 30
0.0
  0
VERTEX
  5
50E
330
507
100
AcDbEntity
  8
0
370
     0
100
AcDbVertex
100
AcDb2dVertex
 10
559.423218
 20
471.087158
 30
0.0
  0
SEQEND
  5
50F
330
507
100
AcDbEntity
  8
0
 62
     7
370
    13
  0
POLYLINE
  5
510
330
1F
100
AcDbEntity
  8
0
 62
     7
370
    13
100
AcDb2dPolyline
 66
     1
 10
0.0
 20
0.0
 30
0.0
  0
VERTEX
  5
511
330
510
100
AcDbEntity
  8
0
370
     0
100
AcDbVertex
100
AcDb2dVertex
 10
561.003845
 20
469.73233
 30
0.0
  0
VERTEX
  5
512
330
510
100
AcDbEntity
  8
0
370
     0
100
AcDbVertex
100
AcDb2dVertex
 10
561.681274
 20
468.377472
 30
0.0
  0
VERTEX
  5
513
330
510
100
AcDbEntity
  8
0
370
     0
100
AcDbVertex
100
AcDb2dVertex
 10
561.681274
 20
467.022644
 30
0.0
  0
VERTEX
  5
514
330
510
100
AcDbEntity
  8
0
370
     0
100
AcDbVertex
100
AcDb2dVertex
 10
561.003845
 20
465.667816
 30
0.0
  0
VERTEX
  5
515
330
510
100
AcDbEntity
  8
0
370
     0
100
AcDbVertex
100
AcDb2dVertex
 10
559.423218
 20
464.764587
 30
0.0
  0
SEQEND
  5
516
330
510
100
AcDbEntity
  8
0
 62
     7
370
    13
  0
POLYLINE
  5
517
330
1F
100
AcDbEntity
  8
0
 62
     7
370
    13
100
AcDb2dPolyline
 66
     1
 10
0.0
 20
0.0
 30
0.0
  0
VERTEX
  5
518
330
517
100
AcDbEntity
  8
0
370
     0
100
AcDbVertex
100
AcDb2dVertex
 10
561.003845
 20
469.73233
 30
0.0
  0
VERTEX
  5
519
330
517
100
AcDbEntity
  8
0
370
     0
100
AcDbVertex
100
AcDb2dVertex
 10
559.423218
 20
471.087158
 30
0.0
  0
SEQEND
  5
51A
330
517
100
AcDbEntity
  8
0
 62
     7
370
    13
  0
POLYLINE
  5
51B
330
1F
100
AcDbEntity
  8
0
 62
     7
370
    13
100
AcDb2dPolyline
 66
     1
 10
0.0
 20
0.0
 30
0.0
  0
VERTEX
  5
51C
330
51B
100
AcDbEntity
  8
0
370
     0
100
AcDbVertex
100
AcDb2dVertex
 10
568.229614
 20
478.087158
 30
0.0
  0
VERTEX
  5
51D
330
51B
100
AcDbEntity
  8
0
370
     0
100
AcDbVertex
100
AcDb2dVertex
 10
568.229614
 20
473.796844
 30
0.0
  0
SEQEND
  5
51E
330
51B
100
AcDbEntity
  8
0
 62
     7
370
    13
  0
POLYLINE
  5
51F
330
1F
100
AcDbEntity
  8
0
 62
     7
370
    13
100
AcDb2dPolyline
 66
     1
 10
0.0
 20
0.0
 30
0.0
  0
VERTEX
  5
520
330
51F
100
AcDbEntity
  8
0
370
     0
100
AcDbVertex
100
AcDb2dVertex
 10
572.745789
 20
478.087158
 30
0.0
  0
VERTEX
  5
521
330
51F
100
AcDbEntity
  8
0
370
     0
100
AcDbVertex
100
AcDb2dVertex
 10
572.745789
 20
473.796844
 30
0.0
  0
SEQEND
  5
522
330
51F
100
AcDbEntity
  8
0
 62
     7
370
    13
  0
POLYLINE
  5
523
330
1F
100
AcDbEntity
  8
0
 62
     7
370
    13
100
AcDb2dPolyline
 66
     1
 10
0.0
 20
0.0
 30
0.0
  0
VERTEX
  5
524
330
523
100
AcDbEntity
  8
0
370
     0
100
AcDbVertex
100
AcDb2dVertex
 10
585.1651
 20
474.022644
 30
0.0
  0
VERTEX
  5
525
330
523
100
AcDbEntity
  8
0
370
     0
100
AcDbVertex
100
AcDb2dVertex
 10
585.842529
 20
471.990387
 30
0.0
  0
VERTEX
  5
526
330
523
100
AcDbEntity
  8
0
370
     0
100
AcDbVertex
100
AcDb2dVertex
 10
585.842529
 20
469.280701
 30
0.0
  0
VERTEX
  5
527
330
523
100
AcDbEntity
  8
0
370
     0
100
AcDbVertex
100
AcDb2dVertex
 10
585.1651
 20
466.345215
 30
0.0
  0
VERTEX
  5
528
330
523
100
AcDbEntity
  8
0
370
     0
100
AcDbVertex
100
AcDb2dVertex
 10
584.261902
 20
464.538757
 30
0.0
  0
SEQEND
  5
529
330
523
100
AcDbEntity
  8
0
 62
     7
370
    13
  0
POLYLINE
  5
52A
330
1F
100
AcDbEntity
  8
0
 62
     7
370
    13
100
AcDb2dPolyline
 66
     1
 10
0.0
 20
0.0
 30
0.0
  0
VERTEX
  5
52B
330
52A
100
AcDbEntity
  8
0
370
     0
100
AcDbVertex
100
AcDb2dVertex
 10
585.1651
 20
474.022644
 30
0.0
  0
VERTEX
  5
52C
330
52A
100
AcDbEntity
  8
0
370
     0
100
AcDbVertex
100
AcDb2dVertex
 10
584.261902
 20
476.054901
 30
0.0
  0
SEQEND
  5
52D
330
52A
100
AcDbEntity
  8
0
 62
     7
370
    13
  0
POLYLINE
  5
52E
330
1F
100
AcDbEntity
  8
0
 62
     7
370
    13
100
AcDb2dPolyline
 66
     1
 10
0.0
 20
0.0
 30
0.0
  0
VERTEX
  5
52F
330
52E
100
AcDbEntity
  8
0
370
     0
100
AcDbVertex
100
AcDb2dVertex
 10
583.358643
 20
477.635559
 30
0.0
  0
VERTEX
  5
530
330
52E
100
AcDbEntity
  8
0
370
     0
100
AcDbVertex
100
AcDb2dVertex
 10
584.261902
 20
476.054901
 30
0.0
  0
SEQEND
  5
531
330
52E
100
AcDbEntity
  8
0
 62
     7
370
    13
  0
POLYLINE
  5
532
330
1F
100
AcDbEntity
  8
0
 62
     7
370
    13
100
AcDb2dPolyline
 66
     1
 10
0.0
 20
0.0
 30
0.0
  0
VERTEX
  5
533
330
532
100
AcDbEntity
  8
0
370
     0
100
AcDbVertex
100
AcDb2dVertex
 10
582.229614
 20
479.216187
 30
0.0
  0
VERTEX
  5
534
330
532
100
AcDbEntity
  8
0
370
     0
100
AcDbVertex
100
AcDb2dVertex
 10
583.358643
 20
477.635559
 30
0.0
  0
SEQEND
  5
535
330
532
100
AcDbEntity
  8
0
 62
     7
370
    13
  0
POLYLINE
  5
536
330
1F
100
AcDbEntity
  8
0
 62
     7
370
    13
100
AcDb2dPolyline
 66
     1
 10
0.0
 20
0.0
 30
0.0
  0
VERTEX
  5
537
330
536
100
AcDbEntity
  8
0
370
     0
100
AcDbVertex
100
AcDb2dVertex
 10
582.229614
 20
461.151672
 30
0.0
  0
VERTEX
  5
538
330
536
100
AcDbEntity
  8
0
370
     0
100
AcDbVertex
100
AcDb2dVertex
 10
583.358643
 20
462.95813
 30
0.0
  0
VERTEX
  5
539
330
536
100
AcDbEntity
  8
0
370
     0
100
AcDbVertex
100
AcDb2dVertex
 10
584.261902
 20
464.538757
 30
0.0
  0
SEQEND
  5
53A
330
536
100
AcDbEntity
  8
0
 62
     7
370
    13
  0
POLYLINE
  5
53B
330
1F
100
AcDbEntity
  8
0
 62
     7
370
    13
100
AcDb2dPolyline
 66
     1
 10
0.0
 20
0.0
 30
0.0
  0
VERTEX
  5
53C
330
53B
100
AcDbEntity
  8
0
370
     0
100
AcDbVertex
100
AcDb2dVertex
 10
267.917419
 20
483.607941
 30
0.0
  0
VERTEX
  5
53D
330
53B
100
AcDbEntity
  8
0
370
     0
100
AcDbVertex
100
AcDb2dVertex
 10
267.917419
 20
480.898254
 30
0.0
  0
SEQEND
  5
53E
330
53B
100
AcDbEntity
  8
0
 62
     7
370
    13
  0
POLYLINE
  5
53F
330
1F
100
AcDbEntity
  8
0
 62
     7
370
    13
100
AcDb2dPolyline
 66
     1
 10
0.0
 20
0.0
 30
0.0
  0
VERTEX
  5
540
330
53F
100
AcDbEntity
  8
0
370
     0
100
AcDbVertex
100
AcDb2dVertex
 10
267.917419
 20
483.607941
 30
0.0
  0
VERTEX
  5
541
330
53F
100
AcDbEntity
  8
0
370
     0
100
AcDbVertex
100
AcDb2dVertex
 10
268.594818
 20
486.543427
 30
0.0
  0
VERTEX
  5
542
330
53F
100
AcDbEntity
  8
0
370
     0
100
AcDbVertex
100
AcDb2dVertex
 10
269.498047
 20
488.349884
 30
0.0
  0
VERTEX
  5
543
330
53F
100
AcDbEntity
  8
0
370
     0
100
AcDbVertex
100
AcDb2dVertex
 10
270.401276
 20
489.704712
 30
0.0
  0
VERTEX
  5
544
330
53F
100
AcDbEntity
  8
0
370
     0
100
AcDbVertex
100
AcDb2dVertex
 10
271.530304
 20
490.83374
 30
0.0
  0
SEQEND
  5
545
330
53F
100
AcDbEntity
  8
0
 62
     7
370
    13
  0
POLYLINE
  5
546
330
1F
100
AcDbEntity
  8
0
 62
     7
370
    13
100
AcDb2dPolyline
 66
     1
 10
0.0
 20
0.0
 30
0.0
  0
VERTEX
  5
547
330
546
100
AcDbEntity
  8
0
370
     0
100
AcDbVertex
100
AcDb2dVertex
 10
267.917419
 20
480.898254
 30
0.0
  0
VERTEX
  5
548
330
546
100
AcDbEntity
  8
0
370
     0
100
AcDbVertex
100
AcDb2dVertex
 10
268.594818
 20
477.962769
 30
0.0
  0
VERTEX
  5
549
330
546
100
AcDbEntity
  8
0
370
     0
100
AcDbVertex
100
AcDb2dVertex
 10
269.498047
 20
475.930511
 30
0.0
  0
SEQEND
  5
54A
330
546
100
AcDbEntity
  8
0
 62
     7
370
    13
  0
POLYLINE
  5
54B
330
1F
100
AcDbEntity
  8
0
 62
     7
370
    13
100
AcDb2dPolyline
 66
     1
 10
0.0
 20
0.0
 30
0.0
  0
VERTEX
  5
54C
330
54B
100
AcDbEntity
  8
0
370
     0
100
AcDbVertex
100
AcDb2dVertex
 10
270.401276
 20
473.898254
 30
0.0
  0
VERTEX
  5
54D
330
54B
100
AcDbEntity
  8
0
370
     0
100
AcDbVertex
100
AcDb2dVertex
 10
271.530304
 20
472.543427
 30
0.0
  0
SEQEND
  5
54E
330
54B
100
AcDbEntity
  8
0
 62
     7
370
    13
  0
POLYLINE
  5
54F
330
1F
100
AcDbEntity
  8
0
 62
     7
370
    13
100
AcDb2dPolyline
 66
     1
 10
0.0
 20
0.0
 30
0.0
  0
VERTEX
  5
550
330
54F
100
AcDbEntity
  8
0
370
     0
100
AcDbVertex
100
AcDb2dVertex
 10
269.498047
 20
475.930511
 30
0.0
  0
VERTEX
  5
551
330
54F
100
AcDbEntity
  8
0
370
     0
100
AcDbVertex
100
AcDb2dVertex
 10
270.401276
 20
473.898254
 30
0.0
  0
SEQEND
  5
552
330
54F
100
AcDbEntity
  8
0
 62
     7
370
    13
  0
POLYLINE
  5
553
330
1F
100
AcDbEntity
  8
0
 62
     7
370
    13
100
AcDb2dPolyline
 66
     1
 10
0.0
 20
0.0
 30
0.0
  0
VERTEX
  5
554
330
553
100
AcDbEntity
  8
0
370
     0
100
AcDbVertex
100
AcDb2dVertex
 10
280.562561
 20
487.898254
 30
0.0
  0
VERTEX
  5
555
330
553
100
AcDbEntity
  8
0
370
     0
100
AcDbVertex
100
AcDb2dVertex
 10
283.046448
 20
489.704712
 30
0.0
  0
VERTEX
  5
556
330
553
100
AcDbEntity
  8
0
370
     0
100
AcDbVertex
100
AcDb2dVertex
 10
283.046448
 20
475.704712
 30
0.0
  0
SEQEND
  5
557
330
553
100
AcDbEntity
  8
0
 62
     7
370
    13
  0
POLYLINE
  5
558
330
1F
100
AcDbEntity
  8
0
 62
     7
370
    13
100
AcDb2dPolyline
 66
     1
 10
0.0
 20
0.0
 30
0.0
  0
VERTEX
  5
559
330
558
100
AcDbEntity
  8
0
370
     0
100
AcDbVertex
100
AcDb2dVertex
 10
279.207733
 20
487.220825
 30
0.0
  0
VERTEX
  5
55A
330
558
100
AcDbEntity
  8
0
370
     0
100
AcDbVertex
100
AcDb2dVertex
 10
280.562561
 20
487.898254
 30
0.0
  0
SEQEND
  5
55B
330
558
100
AcDbEntity
  8
0
 62
     7
370
    13
  0
POLYLINE
  5
55C
330
1F
100
AcDbEntity
  8
0
 62
     7
370
    13
100
AcDb2dPolyline
 66
     1
 10
0.0
 20
0.0
 30
0.0
  0
VERTEX
  5
55D
330
55C
100
AcDbEntity
  8
0
370
     0
100
AcDbVertex
100
AcDb2dVertex
 10
290.723877
 20
478.188568
 30
0.0
  0
VERTEX
  5
55E
330
55C
100
AcDbEntity
  8
0
370
     0
100
AcDbVertex
100
AcDb2dVertex
 10
291.401276
 20
477.05954
 30
0.0
  0
VERTEX
  5
55F
330
55C
100
AcDbEntity
  8
0
370
     0
100
AcDbVertex
100
AcDb2dVertex
 10
292.078705
 20
476.382141
 30
0.0
  0
VERTEX
  5
560
330
55C
100
AcDbEntity
  8
0
370
     0
100
AcDbVertex
100
AcDb2dVertex
 10
294.562561
 20
475.704712
 30
0.0
  0
VERTEX
  5
561
330
55C
100
AcDbEntity
  8
0
370
     0
100
AcDbVertex
100
AcDb2dVertex
 10
297.046448
 20
475.704712
 30
0.0
  0
VERTEX
  5
562
330
55C
100
AcDbEntity
  8
0
370
     0
100
AcDbVertex
100
AcDb2dVertex
 10
299.756104
 20
476.382141
 30
0.0
  0
VERTEX
  5
563
330
55C
100
AcDbEntity
  8
0
370
     0
100
AcDbVertex
100
AcDb2dVertex
 10
301.110962
 20
477.736969
 30
0.0
  0
VERTEX
  5
564
330
55C
100
AcDbEntity
  8
0
370
     0
100
AcDbVertex
100
AcDb2dVertex
 10
301.788391
 20
479.769226
 30
0.0
  0
VERTEX
  5
565
330
55C
100
AcDbEntity
  8
0
370
     0
100
AcDbVertex
100
AcDb2dVertex
 10
301.788391
 20
481.124054
 30
0.0
  0
VERTEX
  5
566
330
55C
100
AcDbEntity
  8
0
370
     0
100
AcDbVertex
100
AcDb2dVertex
 10
301.110962
 20
483.156311
 30
0.0
  0
VERTEX
  5
567
330
55C
100
AcDbEntity
  8
0
370
     0
100
AcDbVertex
100
AcDb2dVertex
 10
299.756104
 20
484.28537
 30
0.0
  0
VERTEX
  5
568
330
55C
100
AcDbEntity
  8
0
370
     0
100
AcDbVertex
100
AcDb2dVertex
 10
297.046448
 20
484.962769
 30
0.0
  0
VERTEX
  5
569
330
55C
100
AcDbEntity
  8
0
370
     0
100
AcDbVertex
100
AcDb2dVertex
 10
294.562561
 20
484.962769
 30
0.0
  0
VERTEX
  5
56A
330
55C
100
AcDbEntity
  8
0
370
     0
100
AcDbVertex
100
AcDb2dVertex
 10
292.530304
 20
484.28537
 30
0.0
  0
VERTEX
  5
56B
330
55C
100
AcDbEntity
  8
0
370
     0
100
AcDbVertex
100
AcDb2dVertex
 10
291.852905
 20
483.607941
 30
0.0
  0
VERTEX
  5
56C
330
55C
100
AcDbEntity
  8
0
370
     0
100
AcDbVertex
100
AcDb2dVertex
 10
292.530304
 20
489.704712
 30
0.0
  0
VERTEX
  5
56D
330
55C
100
AcDbEntity
  8
0
370
     0
100
AcDbVertex
100
AcDb2dVertex
 10
300.885162
 20
489.704712
 30
0.0
  0
SEQEND
  5
56E
330
55C
100
AcDbEntity
  8
0
 62
     7
370
    13
  0
POLYLINE
  5
56F
330
1F
100
AcDbEntity
  8
0
 62
     7
370
    13
100
AcDb2dPolyline
 66
     1
 10
0.0
 20
0.0
 30
0.0
  0
VERTEX
  5
570
330
56F
100
AcDbEntity
  8
0
370
     0
100
AcDbVertex
100
AcDb2dVertex
 10
304.949677
 20
481.349884
 30
0.0
  0
VERTEX
  5
571
330
56F
100
AcDbEntity
  8
0
370
     0
100
AcDbVertex
100
AcDb2dVertex
 10
315.336761
 20
481.349884
 30
0.0
  0
SEQEND
  5
572
330
56F
100
AcDbEntity
  8
0
 62
     7
370
    13
  0
POLYLINE
  5
573
330
1F
100
AcDbEntity
  8
0
 62
     7
370
    13
100
AcDb2dPolyline
 66
     1
 10
0.0
 20
0.0
 30
0.0
  0
VERTEX
  5
574
330
573
100
AcDbEntity
  8
0
370
     0
100
AcDbVertex
100
AcDb2dVertex
 10
317.820618
 20
478.188568
 30
0.0
  0
VERTEX
  5
575
330
573
100
AcDbEntity
  8
0
370
     0
100
AcDbVertex
100
AcDb2dVertex
 10
318.498047
 20
477.05954
 30
0.0
  0
VERTEX
  5
576
330
573
100
AcDbEntity
  8
0
370
     0
100
AcDbVertex
100
AcDb2dVertex
 10
319.175476
 20
476.382141
 30
0.0
  0
VERTEX
  5
577
330
573
100
AcDbEntity
  8
0
370
     0
100
AcDbVertex
100
AcDb2dVertex
 10
321.659332
 20
475.704712
 30
0.0
  0
VERTEX
  5
578
330
573
100
AcDbEntity
  8
0
370
     0
100
AcDbVertex
100
AcDb2dVertex
 10
324.143219
 20
475.704712
 30
0.0
  0
VERTEX
  5
579
330
573
100
AcDbEntity
  8
0
370
     0
100
AcDbVertex
100
AcDb2dVertex
 10
326.852905
 20
476.382141
 30
0.0
  0
VERTEX
  5
57A
330
573
100
AcDbEntity
  8
0
370
     0
100
AcDbVertex
100
AcDb2dVertex
 10
328.207733
 20
477.736969
 30
0.0
  0
VERTEX
  5
57B
330
573
100
AcDbEntity
  8
0
370
     0
100
AcDbVertex
100
AcDb2dVertex
 10
328.885132
 20
479.769226
 30
0.0
  0
VERTEX
  5
57C
330
573
100
AcDbEntity
  8
0
370
     0
100
AcDbVertex
100
AcDb2dVertex
 10
328.885132
 20
481.124054
 30
0.0
  0
VERTEX
  5
57D
330
573
100
AcDbEntity
  8
0
370
     0
100
AcDbVertex
100
AcDb2dVertex
 10
328.207733
 20
483.156311
 30
0.0
  0
VERTEX
  5
57E
330
573
100
AcDbEntity
  8
0
370
     0
100
AcDbVertex
100
AcDb2dVertex
 10
327.530304
 20
483.83374
 30
0.0
  0
VERTEX
  5
57F
330
573
100
AcDbEntity
  8
0
370
     0
100
AcDbVertex
100
AcDb2dVertex
 10
326.175476
 20
484.511169
 30
0.0
  0
VERTEX
  5
580
330
573
100
AcDbEntity
  8
0
370
     0
100
AcDbVertex
100
AcDb2dVertex
 10
323.014191
 20
484.511169
 30
0.0
  0
VERTEX
  5
581
330
573
100
AcDbEntity
  8
0
370
     0
100
AcDbVertex
100
AcDb2dVertex
 10
327.756104
 20
489.704712
 30
0.0
  0
VERTEX
  5
582
330
573
100
AcDbEntity
  8
0
370
     0
100
AcDbVertex
100
AcDb2dVertex
 10
319.401276
 20
489.704712
 30
0.0
  0
SEQEND
  5
583
330
573
100
AcDbEntity
  8
0
 62
     7
370
    13
  0
POLYLINE
  5
584
330
1F
100
AcDbEntity
  8
0
 62
     7
370
    13
100
AcDb2dPolyline
 66
     1
 10
0.0
 20
0.0
 30
0.0
  0
VERTEX
  5
585
330
584
100
AcDbEntity
  8
0
370
     0
100
AcDbVertex
100
AcDb2dVertex
 10
330.691589
 20
471.188568
 30
0.0
  0
VERTEX
  5
586
330
584
100
AcDbEntity
  8
0
370
     0
100
AcDbVertex
100
AcDb2dVertex
 10
337.014191
 20
480.898254
 30
0.0
  0
VERTEX
  5
587
330
584
100
AcDbEntity
  8
0
370
     0
100
AcDbVertex
100
AcDb2dVertex
 10
343.336761
 20
490.83374
 30
0.0
  0
SEQEND
  5
588
330
584
100
AcDbEntity
  8
0
 62
     7
370
    13
  0
POLYLINE
  5
589
330
1F
100
AcDbEntity
  8
0
 62
     7
370
    13
100
AcDb2dPolyline
 66
     1
 10
0.0
 20
0.0
 30
0.0
  0
VERTEX
  5
58A
330
589
100
AcDbEntity
  8
0
370
     0
100
AcDbVertex
100
AcDb2dVertex
 10
345.594818
 20
477.28537
 30
0.0
  0
VERTEX
  5
58B
330
589
100
AcDbEntity
  8
0
370
     0
100
AcDbVertex
100
AcDb2dVertex
 10
346.949646
 20
476.382141
 30
0.0
  0
VERTEX
  5
58C
330
589
100
AcDbEntity
  8
0
370
     0
100
AcDbVertex
100
AcDb2dVertex
 10
349.207733
 20
475.704712
 30
0.0
  0
VERTEX
  5
58D
330
589
100
AcDbEntity
  8
0
370
     0
100
AcDbVertex
100
AcDb2dVertex
 10
351.014191
 20
475.704712
 30
0.0
  0
VERTEX
  5
58E
330
589
100
AcDbEntity
  8
0
370
     0
100
AcDbVertex
100
AcDb2dVertex
 10
353.272247
 20
476.382141
 30
0.0
  0
SEQEND
  5
58F
330
589
100
AcDbEntity
  8
0
 62
     7
370
    13
  0
POLYLINE
  5
590
330
1F
100
AcDbEntity
  8
0
 62
     7
370
    13
100
AcDb2dPolyline
 66
     1
 10
0.0
 20
0.0
 30
0.0
  0
VERTEX
  5
591
330
590
100
AcDbEntity
  8
0
370
     0
100
AcDbVertex
100
AcDb2dVertex
 10
353.272247
 20
489.027283
 30
0.0
  0
VERTEX
  5
592
330
590
100
AcDbEntity
  8
0
370
     0
100
AcDbVertex
100
AcDb2dVertex
 10
351.014191
 20
489.704712
 30
0.0
  0
VERTEX
  5
593
330
590
100
AcDbEntity
  8
0
370
     0
100
AcDbVertex
100
AcDb2dVertex
 10
349.207733
 20
489.704712
 30
0.0
  0
VERTEX
  5
594
330
590
100
AcDbEntity
  8
0
370
     0
100
AcDbVertex
100
AcDb2dVertex
 10
346.949646
 20
489.027283
 30
0.0
  0
SEQEND
  5
595
330
590
100
AcDbEntity
  8
0
 62
     7
370
    13
  0
POLYLINE
  5
596
330
1F
100
AcDbEntity
  8
0
 62
     7
370
    13
100
AcDb2dPolyline
 66
     1
 10
0.0
 20
0.0
 30
0.0
  0
VERTEX
  5
597
330
596
100
AcDbEntity
  8
0
370
     0
100
AcDbVertex
100
AcDb2dVertex
 10
345.594818
 20
477.28537
 30
0.0
  0
VERTEX
  5
598
330
596
100
AcDbEntity
  8
0
370
     0
100
AcDbVertex
100
AcDb2dVertex
 10
344.917419
 20
478.640198
 30
0.0
  0
VERTEX
  5
599
330
596
100
AcDbEntity
  8
0
370
     0
100
AcDbVertex
100
AcDb2dVertex
 10
344.917419
 20
479.995026
 30
0.0
  0
VERTEX
  5
59A
330
596
100
AcDbEntity
  8
0
370
     0
100
AcDbVertex
100
AcDb2dVertex
 10
345.594818
 20
481.349884
 30
0.0
  0
VERTEX
  5
59B
330
596
100
AcDbEntity
  8
0
370
     0
100
AcDbVertex
100
AcDb2dVertex
 10
347.175476
 20
482.704712
 30
0.0
  0
VERTEX
  5
59C
330
596
100
AcDbEntity
  8
0
370
     0
100
AcDbVertex
100
AcDb2dVertex
 10
351.917419
 20
484.05954
 30
0.0
  0
VERTEX
  5
59D
330
596
100
AcDbEntity
  8
0
370
     0
100
AcDbVertex
100
AcDb2dVertex
 10
353.046448
 20
484.511169
 30
0.0
  0
VERTEX
  5
59E
330
596
100
AcDbEntity
  8
0
370
     0
100
AcDbVertex
100
AcDb2dVertex
 10
353.723877
 20
485.188568
 30
0.0
  0
VERTEX
  5
59F
330
596
100
AcDbEntity
  8
0
370
     0
100
AcDbVertex
100
AcDb2dVertex
 10
354.175476
 20
486.317627
 30
0.0
  0
VERTEX
  5
5A0
330
596
100
AcDbEntity
  8
0
370
     0
100
AcDbVertex
100
AcDb2dVertex
 10
354.175476
 20
487.898254
 30
0.0
  0
VERTEX
  5
5A1
330
596
100
AcDbEntity
  8
0
370
     0
100
AcDbVertex
100
AcDb2dVertex
 10
353.272247
 20
489.027283
 30
0.0
  0
SEQEND
  5
5A2
330
596
100
AcDbEntity
  8
0
 62
     7
370
    13
  0
POLYLINE
  5
5A3
330
1F
100
AcDbEntity
  8
0
 62
     7
370
    13
100
AcDb2dPolyline
 66
     1
 10
0.0
 20
0.0
 30
0.0
  0
VERTEX
  5
5A4
330
5A3
100
AcDbEntity
  8
0
370
     0
100
AcDbVertex
100
AcDb2dVertex
 10
346.949646
 20
489.027283
 30
0.0
  0
VERTEX
  5
5A5
330
5A3
100
AcDbEntity
  8
0
370
     0
100
AcDbVertex
100
AcDb2dVertex
 10
346.046448
 20
487.898254
 30
0.0
  0
VERTEX
  5
5A6
330
5A3
100
AcDbEntity
  8
0
370
     0
100
AcDbVertex
100
AcDb2dVertex
 10
346.046448
 20
486.317627
 30
0.0
  0
VERTEX
  5
5A7
330
5A3
100
AcDbEntity
  8
0
370
     0
100
AcDbVertex
100
AcDb2dVertex
 10
346.498047
 20
485.188568
 30
0.0
  0
VERTEX
  5
5A8
330
5A3
100
AcDbEntity
  8
0
370
     0
100
AcDbVertex
100
AcDb2dVertex
 10
347.175476
 20
484.511169
 30
0.0
  0
VERTEX
  5
5A9
330
5A3
100
AcDbEntity
  8
0
370
     0
100
AcDbVertex
100
AcDb2dVertex
 10
348.304504
 20
484.05954
 30
0.0
  0
VERTEX
  5
5AA
330
5A3
100
AcDbEntity
  8
0
370
     0
100
AcDbVertex
100
AcDb2dVertex
 10
353.272247
 20
482.704712
 30
0.0
  0
SEQEND
  5
5AB
330
5A3
100
AcDbEntity
  8
0
 62
     7
370
    13
  0
POLYLINE
  5
5AC
330
1F
100
AcDbEntity
  8
0
 62
     7
370
    13
100
AcDb2dPolyline
 66
     1
 10
0.0
 20
0.0
 30
0.0
  0
VERTEX
  5
5AD
330
5AC
100
AcDbEntity
  8
0
370
     0
100
AcDbVertex
100
AcDb2dVertex
 10
354.852905
 20
481.349884
 30
0.0
  0
VERTEX
  5
5AE
330
5AC
100
AcDbEntity
  8
0
370
     0
100
AcDbVertex
100
AcDb2dVertex
 10
355.530304
 20
479.995026
 30
0.0
  0
VERTEX
  5
5AF
330
5AC
100
AcDbEntity
  8
0
370
     0
100
AcDbVertex
100
AcDb2dVertex
 10
355.530304
 20
478.640198
 30
0.0
  0
VERTEX
  5
5B0
330
5AC
100
AcDbEntity
  8
0
370
     0
100
AcDbVertex
100
AcDb2dVertex
 10
354.852905
 20
477.28537
 30
0.0
  0
VERTEX
  5
5B1
330
5AC
100
AcDbEntity
  8
0
370
     0
100
AcDbVertex
100
AcDb2dVertex
 10
353.272247
 20
476.382141
 30
0.0
  0
SEQEND
  5
5B2
330
5AC
100
AcDbEntity
  8
0
 62
     7
370
    13
  0
POLYLINE
  5
5B3
330
1F
100
AcDbEntity
  8
0
 62
     7
370
    13
100
AcDb2dPolyline
 66
     1
 10
0.0
 20
0.0
 30
0.0
  0
VERTEX
  5
5B4
330
5B3
100
AcDbEntity
  8
0
370
     0
100
AcDbVertex
100
AcDb2dVertex
 10
354.852905
 20
481.349884
 30
0.0
  0
VERTEX
  5
5B5
330
5B3
100
AcDbEntity
  8
0
370
     0
100
AcDbVertex
100
AcDb2dVertex
 10
353.272247
 20
482.704712
 30
0.0
  0
SEQEND
  5
5B6
330
5B3
100
AcDbEntity
  8
0
 62
     7
370
    13
  0
POLYLINE
  5
5B7
330
1F
100
AcDbEntity
  8
0
 62
     7
370
    13
100
AcDb2dPolyline
 66
     1
 10
0.0
 20
0.0
 30
0.0
  0
VERTEX
  5
5B8
330
5B7
100
AcDbEntity
  8
0
370
     0
100
AcDbVertex
100
AcDb2dVertex
 10
362.078705
 20
489.704712
 30
0.0
  0
VERTEX
  5
5B9
330
5B7
100
AcDbEntity
  8
0
370
     0
100
AcDbVertex
100
AcDb2dVertex
 10
362.078705
 20
485.414398
 30
0.0
  0
SEQEND
  5
5BA
330
5B7
100
AcDbEntity
  8
0
 62
     7
370
    13
  0
POLYLINE
  5
5BB
330
1F
100
AcDbEntity
  8
0
 62
     7
370
    13
100
AcDb2dPolyline
 66
     1
 10
0.0
 20
0.0
 30
0.0
  0
VERTEX
  5
5BC
330
5BB
100
AcDbEntity
  8
0
370
     0
100
AcDbVertex
100
AcDb2dVertex
 10
366.594818
 20
489.704712
 30
0.0
  0
VERTEX
  5
5BD
330
5BB
100
AcDbEntity
  8
0
370
     0
100
AcDbVertex
100
AcDb2dVertex
 10
366.594818
 20
485.414398
 30
0.0
  0
SEQEND
  5
5BE
330
5BB
100
AcDbEntity
  8
0
 62
     7
370
    13
  0
POLYLINE
  5
5BF
330
1F
100
AcDbEntity
  8
0
 62
     7
370
    13
100
AcDb2dPolyline
 66
     1
 10
0.0
 20
0.0
 30
0.0
  0
VERTEX
  5
5C0
330
5BF
100
AcDbEntity
  8
0
370
     0
100
AcDbVertex
100
AcDb2dVertex
 10
379.01416
 20
485.640198
 30
0.0
  0
VERTEX
  5
5C1
330
5BF
100
AcDbEntity
  8
0
370
     0
100
AcDbVertex
100
AcDb2dVertex
 10
379.691589
 20
483.607941
 30
0.0
  0
VERTEX
  5
5C2
330
5BF
100
AcDbEntity
  8
0
370
     0
100
AcDbVertex
100
AcDb2dVertex
 10
379.691589
 20
480.898254
 30
0.0
  0
VERTEX
  5
5C3
330
5BF
100
AcDbEntity
  8
0
370
     0
100
AcDbVertex
100
AcDb2dVertex
 10
379.01416
 20
477.962769
 30
0.0
  0
VERTEX
  5
5C4
330
5BF
100
AcDbEntity
  8
0
370
     0
100
AcDbVertex
100
AcDb2dVertex
 10
378.110962
 20
476.156311
 30
0.0
  0
SEQEND
  5
5C5
330
5BF
100
AcDbEntity
  8
0
 62
     7
370
    13
  0
POLYLINE
  5
5C6
330
1F
100
AcDbEntity
  8
0
 62
     7
370
    13
100
AcDb2dPolyline
 66
     1
 10
0.0
 20
0.0
 30
0.0
  0
VERTEX
  5
5C7
330
5C6
100
AcDbEntity
  8
0
370
     0
100
AcDbVertex
100
AcDb2dVertex
 10
379.01416
 20
485.640198
 30
0.0
  0
VERTEX
  5
5C8
330
5C6
100
AcDbEntity
  8
0
370
     0
100
AcDbVertex
100
AcDb2dVertex
 10
378.110962
 20
487.672455
 30
0.0
  0
SEQEND
  5
5C9
330
5C6
100
AcDbEntity
  8
0
 62
     7
370
    13
  0
POLYLINE
  5
5CA
330
1F
100
AcDbEntity
  8
0
 62
     7
370
    13
100
AcDb2dPolyline
 66
     1
 10
0.0
 20
0.0
 30
0.0
  0
VERTEX
  5
5CB
330
5CA
100
AcDbEntity
  8
0
370
     0
100
AcDbVertex
100
AcDb2dVertex
 10
377.207733
 20
489.253113
 30
0.0
  0
VERTEX
  5
5CC
330
5CA
100
AcDbEntity
  8
0
370
     0
100
AcDbVertex
100
AcDb2dVertex
 10
378.110962
 20
487.672455
 30
0.0
  0
SEQEND
  5
5CD
330
5CA
100
AcDbEntity
  8
0
 62
     7
370
    13
  0
POLYLINE
  5
5CE
330
1F
100
AcDbEntity
  8
0
 62
     7
370
    13
100
AcDb2dPolyline
 66
     1
 10
0.0
 20
0.0
 30
0.0
  0
VERTEX
  5
5CF
330
5CE
100
AcDbEntity
  8
0
370
     0
100
AcDbVertex
100
AcDb2dVertex
 10
376.078705
 20
490.83374
 30
0.0
  0
VERTEX
  5
5D0
330
5CE
100
AcDbEntity
  8
0
370
     0
100
AcDbVertex
100
AcDb2dVertex
 10
377.207733
 20
489.253113
 30
0.0
  0
SEQEND
  5
5D1
330
5CE
100
AcDbEntity
  8
0
 62
     7
370
    13
  0
POLYLINE
  5
5D2
330
1F
100
AcDbEntity
  8
0
 62
     7
370
    13
100
AcDb2dPolyline
 66
     1
 10
0.0
 20
0.0
 30
0.0
  0
VERTEX
  5
5D3
330
5D2
100
AcDbEntity
  8
0
370
     0
100
AcDbVertex
100
AcDb2dVertex
 10
376.078705
 20
472.769226
 30
0.0
  0
VERTEX
  5
5D4
330
5D2
100
AcDbEntity
  8
0
370
     0
100
AcDbVertex
100
AcDb2dVertex
 10
377.207733
 20
474.575684
 30
0.0
  0
VERTEX
  5
5D5
330
5D2
100
AcDbEntity
  8
0
370
     0
100
AcDbVertex
100
AcDb2dVertex
 10
378.110962
 20
476.156311
 30
0.0
  0
SEQEND
  5
5D6
330
5D2
100
AcDbEntity
  8
0
 62
     7
370
    13
  0
POLYLINE
  5
5D7
330
1F
100
AcDbEntity
  8
0
 62
     7
370
    13
100
AcDb2dPolyline
 66
     1
 10
0.0
 20
0.0
 30
0.0
  0
VERTEX
  5
5D8
330
5D7
100
AcDbEntity
  8
0
370
     0
100
AcDbVertex
100
AcDb2dVertex
 10
166.410599
 20
309.421417
 30
0.0
  0
VERTEX
  5
5D9
330
5D7
100
AcDbEntity
  8
0
370
     0
100
AcDbVertex
100
AcDb2dVertex
 10
169.120285
 20
309.421417
 30
0.0
  0
SEQEND
  5
5DA
330
5D7
100
AcDbEntity
  8
0
 62
     7
370
    13
  0
POLYLINE
  5
5DB
330
1F
100
AcDbEntity
  8
0
 62
     7
370
    13
100
AcDb2dPolyline
 66
     1
 10
0.0
 20
0.0
 30
0.0
  0
VERTEX
  5
5DC
330
5DB
100
AcDbEntity
  8
0
370
     0
100
AcDbVertex
100
AcDb2dVertex
 10
166.410599
 20
309.421417
 30
0.0
  0
VERTEX
  5
5DD
330
5DB
100
AcDbEntity
  8
0
370
     0
100
AcDbVertex
100
AcDb2dVertex
 10
163.475113
 20
310.098816
 30
0.0
  0
VERTEX
  5
5DE
330
5DB
100
AcDbEntity
  8
0
370
     0
100
AcDbVertex
100
AcDb2dVertex
 10
161.668671
 20
311.002045
 30
0.0
  0
VERTEX
  5
5DF
330
5DB
100
AcDbEntity
  8
0
370
     0
100
AcDbVertex
100
AcDb2dVertex
 10
160.313828
 20
311.905273
 30
0.0
  0
VERTEX
  5
5E0
330
5DB
100
AcDbEntity
  8
0
370
     0
100
AcDbVertex
100
AcDb2dVertex
 10
159.184799
 20
313.034302
 30
0.0
  0
SEQEND
  5
5E1
330
5DB
100
AcDbEntity
  8
0
 62
     7
370
    13
  0
POLYLINE
  5
5E2
330
1F
100
AcDbEntity
  8
0
 62
     7
370
    13
100
AcDb2dPolyline
 66
     1
 10
0.0
 20
0.0
 30
0.0
  0
VERTEX
  5
5E3
330
5E2
100
AcDbEntity
  8
0
370
     0
100
AcDbVertex
100
AcDb2dVertex
 10
169.120285
 20
309.421417
 30
0.0
  0
VERTEX
  5
5E4
330
5E2
100
AcDbEntity
  8
0
370
     0
100
AcDbVertex
100
AcDb2dVertex
 10
172.055756
 20
310.098816
 30
0.0
  0
VERTEX
  5
5E5
330
5E2
100
AcDbEntity
  8
0
370
     0
100
AcDbVertex
100
AcDb2dVertex
 10
174.088028
 20
311.002045
 30
0.0
  0
SEQEND
  5
5E6
330
5E2
100
AcDbEntity
  8
0
 62
     7
370
    13
  0
POLYLINE
  5
5E7
330
1F
100
AcDbEntity
  8
0
 62
     7
370
    13
100
AcDb2dPolyline
 66
     1
 10
0.0
 20
0.0
 30
0.0
  0
VERTEX
  5
5E8
330
5E7
100
AcDbEntity
  8
0
370
     0
100
AcDbVertex
100
AcDb2dVertex
 10
176.120285
 20
311.905273
 30
0.0
  0
VERTEX
  5
5E9
330
5E7
100
AcDbEntity
  8
0
370
     0
100
AcDbVertex
100
AcDb2dVertex
 10
177.475113
 20
313.034302
 30
0.0
  0
SEQEND
  5
5EA
330
5E7
100
AcDbEntity
  8
0
 62
     7
370
    13
  0
POLYLINE
  5
5EB
330
1F
100
AcDbEntity
  8
0
 62
     7
370
    13
100
AcDb2dPolyline
 66
     1
 10
0.0
 20
0.0
 30
0.0
  0
VERTEX
  5
5EC
330
5EB
100
AcDbEntity
  8
0
370
     0
100
AcDbVertex
100
AcDb2dVertex
 10
174.088028
 20
311.002045
 30
0.0
  0
VERTEX
  5
5ED
330
5EB
100
AcDbEntity
  8
0
370
     0
100
AcDbVertex
100
AcDb2dVertex
 10
176.120285
 20
311.905273
 30
0.0
  0
SEQEND
  5
5EE
330
5EB
100
AcDbEntity
  8
0
 62
     7
370
    13
  0
POLYLINE
  5
5EF
330
1F
100
AcDbEntity
  8
0
 62
     7
370
    13
100
AcDb2dPolyline
 66
     1
 10
0.0
 20
0.0
 30
0.0
  0
VERTEX
  5
5F0
330
5EF
100
AcDbEntity
  8
0
370
     0
100
AcDbVertex
100
AcDb2dVertex
 10
162.120285
 20
322.066559
 30
0.0
  0
VERTEX
  5
5F1
330
5EF
100
AcDbEntity
  8
0
370
     0
100
AcDbVertex
100
AcDb2dVertex
 10
160.313828
 20
324.550446
 30
0.0
  0
VERTEX
  5
5F2
330
5EF
100
AcDbEntity
  8
0
370
     0
100
AcDbVertex
100
AcDb2dVertex
 10
174.313828
 20
324.550446
 30
0.0
  0
SEQEND
  5
5F3
330
5EF
100
AcDbEntity
  8
0
 62
     7
370
    13
  0
POLYLINE
  5
5F4
330
1F
100
AcDbEntity
  8
0
 62
     7
370
    13
100
AcDb2dPolyline
 66
     1
 10
0.0
 20
0.0
 30
0.0
  0
VERTEX
  5
5F5
330
5F4
100
AcDbEntity
  8
0
370
     0
100
AcDbVertex
100
AcDb2dVertex
 10
162.797699
 20
320.711731
 30
0.0
  0
VERTEX
  5
5F6
330
5F4
100
AcDbEntity
  8
0
370
     0
100
AcDbVertex
100
AcDb2dVertex
 10
162.120285
 20
322.066559
 30
0.0
  0
SEQEND
  5
5F7
330
5F4
100
AcDbEntity
  8
0
 62
     7
370
    13
  0
POLYLINE
  5
5F8
330
1F
100
AcDbEntity
  8
0
 62
     7
370
    13
100
AcDb2dPolyline
 66
     1
 10
0.0
 20
0.0
 30
0.0
  0
VERTEX
  5
5F9
330
5F8
100
AcDbEntity
  8
0
370
     0
100
AcDbVertex
100
AcDb2dVertex
 10
172.733185
 20
332.905273
 30
0.0
  0
VERTEX
  5
5FA
330
5F8
100
AcDbEntity
  8
0
370
     0
100
AcDbVertex
100
AcDb2dVertex
 10
173.636414
 20
334.260132
 30
0.0
  0
VERTEX
  5
5FB
330
5F8
100
AcDbEntity
  8
0
370
     0
100
AcDbVertex
100
AcDb2dVertex
 10
174.313828
 20
336.518188
 30
0.0
  0
VERTEX
  5
5FC
330
5F8
100
AcDbEntity
  8
0
370
     0
100
AcDbVertex
100
AcDb2dVertex
 10
174.313828
 20
338.324646
 30
0.0
  0
VERTEX
  5
5FD
330
5F8
100
AcDbEntity
  8
0
370
     0
100
AcDbVertex
100
AcDb2dVertex
 10
173.636414
 20
340.582703
 30
0.0
  0
SEQEND
  5
5FE
330
5F8
100
AcDbEntity
  8
0
 62
     7
370
    13
  0
POLYLINE
  5
5FF
330
1F
100
AcDbEntity
  8
0
 62
     7
370
    13
100
AcDb2dPolyline
 66
     1
 10
0.0
 20
0.0
 30
0.0
  0
VERTEX
  5
600
330
5FF
100
AcDbEntity
  8
0
370
     0
100
AcDbVertex
100
AcDb2dVertex
 10
160.991241
 20
340.582703
 30
0.0
  0
VERTEX
  5
601
330
5FF
100
AcDbEntity
  8
0
370
     0
100
AcDbVertex
100
AcDb2dVertex
 10
160.313828
 20
338.324646
 30
0.0
  0
VERTEX
  5
602
330
5FF
100
AcDbEntity
  8
0
370
     0
100
AcDbVertex
100
AcDb2dVertex
 10
160.313828
 20
336.518188
 30
0.0
  0
VERTEX
  5
603
330
5FF
100
AcDbEntity
  8
0
370
     0
100
AcDbVertex
100
AcDb2dVertex
 10
160.991241
 20
334.260132
 30
0.0
  0
SEQEND
  5
604
330
5FF
100
AcDbEntity
  8
0
 62
     7
370
    13
  0
POLYLINE
  5
605
330
1F
100
AcDbEntity
  8
0
 62
     7
370
    13
100
AcDb2dPolyline
 66
     1
 10
0.0
 20
0.0
 30
0.0
  0
VERTEX
  5
606
330
605
100
AcDbEntity
  8
0
370
     0
100
AcDbVertex
100
AcDb2dVertex
 10
172.733185
 20
332.905273
 30
0.0
  0
VERTEX
  5
607
330
605
100
AcDbEntity
  8
0
370
     0
100
AcDbVertex
100
AcDb2dVertex
 10
171.378342
 20
332.227844
 30
0.0
  0
VERTEX
  5
608
330
605
100
AcDbEntity
  8
0
370
     0
100
AcDbVertex
100
AcDb2dVertex
 10
170.023499
 20
332.227844
 30
0.0
  0
VERTEX
  5
609
330
605
100
AcDbEntity
  8
0
370
     0
100
AcDbVertex
100
AcDb2dVertex
 10
168.668671
 20
332.905273
 30
0.0
  0
VERTEX
  5
60A
330
605
100
AcDbEntity
  8
0
370
     0
100
AcDbVertex
100
AcDb2dVertex
 10
167.313828
 20
334.485931
 30
0.0
  0
VERTEX
  5
60B
330
605
100
AcDbEntity
  8
0
370
     0
100
AcDbVertex
100
AcDb2dVertex
 10
165.958984
 20
339.227844
 30
0.0
  0
VERTEX
  5
60C
330
605
100
AcDbEntity
  8
0
370
     0
100
AcDbVertex
100
AcDb2dVertex
 10
165.50737
 20
340.356903
 30
0.0
  0
VERTEX
  5
60D
330
605
100
AcDbEntity
  8
0
370
     0
100
AcDbVertex
100
AcDb2dVertex
 10
164.829956
 20
341.034302
 30
0.0
  0
VERTEX
  5
60E
330
605
100
AcDbEntity
  8
0
370
     0
100
AcDbVertex
100
AcDb2dVertex
 10
163.700928
 20
341.485931
 30
0.0
  0
VERTEX
  5
60F
330
605
100
AcDbEntity
  8
0
370
     0
100
AcDbVertex
100
AcDb2dVertex
 10
162.12027
 20
341.485931
 30
0.0
  0
VERTEX
  5
610
330
605
100
AcDbEntity
  8
0
370
     0
100
AcDbVertex
100
AcDb2dVertex
 10
160.991241
 20
340.582703
 30
0.0
  0
SEQEND
  5
611
330
605
100
AcDbEntity
  8
0
 62
     7
370
    13
  0
POLYLINE
  5
612
330
1F
100
AcDbEntity
  8
0
 62
     7
370
    13
100
AcDb2dPolyline
 66
     1
 10
0.0
 20
0.0
 30
0.0
  0
VERTEX
  5
613
330
612
100
AcDbEntity
  8
0
370
     0
100
AcDbVertex
100
AcDb2dVertex
 10
160.991241
 20
334.260132
 30
0.0
  0
VERTEX
  5
614
330
612
100
AcDbEntity
  8
0
370
     0
100
AcDbVertex
100
AcDb2dVertex
 10
162.120285
 20
333.356903
 30
0.0
  0
VERTEX
  5
615
330
612
100
AcDbEntity
  8
0
370
     0
100
AcDbVertex
100
AcDb2dVertex
 10
163.700928
 20
333.356903
 30
0.0
  0
VERTEX
  5
616
330
612
100
AcDbEntity
  8
0
370
     0
100
AcDbVertex
100
AcDb2dVertex
 10
164.829956
 20
333.808502
 30
0.0
  0
VERTEX
  5
617
330
612
100
AcDbEntity
  8
0
370
     0
100
AcDbVertex
100
AcDb2dVertex
 10
165.50737
 20
334.485931
 30
0.0
  0
VERTEX
  5
618
330
612
100
AcDbEntity
  8
0
370
     0
100
AcDbVertex
100
AcDb2dVertex
 10
165.958984
 20
335.61496
 30
0.0
  0
VERTEX
  5
619
330
612
100
AcDbEntity
  8
0
370
     0
100
AcDbVertex
100
AcDb2dVertex
 10
167.313828
 20
340.582703
 30
0.0
  0
SEQEND
  5
61A
330
612
100
AcDbEntity
  8
0
 62
     7
370
    13
  0
POLYLINE
  5
61B
330
1F
100
AcDbEntity
  8
0
 62
     7
370
    13
100
AcDb2dPolyline
 66
     1
 10
0.0
 20
0.0
 30
0.0
  0
VERTEX
  5
61C
330
61B
100
AcDbEntity
  8
0
370
     0
100
AcDbVertex
100
AcDb2dVertex
 10
168.668671
 20
342.16333
 30
0.0
  0
VERTEX
  5
61D
330
61B
100
AcDbEntity
  8
0
370
     0
100
AcDbVertex
100
AcDb2dVertex
 10
170.023499
 20
342.840759
 30
0.0
  0
VERTEX
  5
61E
330
61B
100
AcDbEntity
  8
0
370
     0
100
AcDbVertex
100
AcDb2dVertex
 10
171.378342
 20
342.840759
 30
0.0
  0
VERTEX
  5
61F
330
61B
100
AcDbEntity
  8
0
370
     0
100
AcDbVertex
100
AcDb2dVertex
 10
172.733185
 20
342.16333
 30
0.0
  0
VERTEX
  5
620
330
61B
100
AcDbEntity
  8
0
370
     0
100
AcDbVertex
100
AcDb2dVertex
 10
173.636414
 20
340.582703
 30
0.0
  0
SEQEND
  5
621
330
61B
100
AcDbEntity
  8
0
 62
     7
370
    13
  0
POLYLINE
  5
622
330
1F
100
AcDbEntity
  8
0
 62
     7
370
    13
100
AcDb2dPolyline
 66
     1
 10
0.0
 20
0.0
 30
0.0
  0
VERTEX
  5
623
330
622
100
AcDbEntity
  8
0
370
     0
100
AcDbVertex
100
AcDb2dVertex
 10
168.668671
 20
342.16333
 30
0.0
  0
VERTEX
  5
624
330
622
100
AcDbEntity
  8
0
370
     0
100
AcDbVertex
100
AcDb2dVertex
 10
167.313828
 20
340.582703
 30
0.0
  0
SEQEND
  5
625
330
622
100
AcDbEntity
  8
0
 62
     7
370
    13
  0
POLYLINE
  5
626
330
1F
100
AcDbEntity
  8
0
 62
     7
370
    13
100
AcDb2dPolyline
 66
     1
 10
0.0
 20
0.0
 30
0.0
  0
VERTEX
  5
627
330
626
100
AcDbEntity
  8
0
370
     0
100
AcDbVertex
100
AcDb2dVertex
 10
168.668671
 20
346.453674
 30
0.0
  0
VERTEX
  5
628
330
626
100
AcDbEntity
  8
0
370
     0
100
AcDbVertex
100
AcDb2dVertex
 10
168.668671
 20
356.840759
 30
0.0
  0
SEQEND
  5
629
330
626
100
AcDbEntity
  8
0
 62
     7
370
    13
  0
POLYLINE
  5
62A
330
1F
100
AcDbEntity
  8
0
 62
     7
370
    13
100
AcDb2dPolyline
 66
     1
 10
0.0
 20
0.0
 30
0.0
  0
VERTEX
  5
62B
330
62A
100
AcDbEntity
  8
0
370
     0
100
AcDbVertex
100
AcDb2dVertex
 10
162.12027
 20
362.711731
 30
0.0
  0
VERTEX
  5
62C
330
62A
100
AcDbEntity
  8
0
370
     0
100
AcDbVertex
100
AcDb2dVertex
 10
160.313828
 20
365.195587
 30
0.0
  0
VERTEX
  5
62D
330
62A
100
AcDbEntity
  8
0
370
     0
100
AcDbVertex
100
AcDb2dVertex
 10
174.313828
 20
365.195587
 30
0.0
  0
SEQEND
  5
62E
330
62A
100
AcDbEntity
  8
0
 62
     7
370
    13
  0
POLYLINE
  5
62F
330
1F
100
AcDbEntity
  8
0
 62
     7
370
    13
100
AcDb2dPolyline
 66
     1
 10
0.0
 20
0.0
 30
0.0
  0
VERTEX
  5
630
330
62F
100
AcDbEntity
  8
0
370
     0
100
AcDbVertex
100
AcDb2dVertex
 10
162.797699
 20
361.356873
 30
0.0
  0
VERTEX
  5
631
330
62F
100
AcDbEntity
  8
0
370
     0
100
AcDbVertex
100
AcDb2dVertex
 10
162.12027
 20
362.711731
 30
0.0
  0
SEQEND
  5
632
330
62F
100
AcDbEntity
  8
0
 62
     7
370
    13
  0
POLYLINE
  5
633
330
1F
100
AcDbEntity
  8
0
 62
     7
370
    13
100
AcDb2dPolyline
 66
     1
 10
0.0
 20
0.0
 30
0.0
  0
VERTEX
  5
634
330
633
100
AcDbEntity
  8
0
370
     0
100
AcDbVertex
100
AcDb2dVertex
 10
178.829956
 20
372.195618
 30
0.0
  0
VERTEX
  5
635
330
633
100
AcDbEntity
  8
0
370
     0
100
AcDbVertex
100
AcDb2dVertex
 10
169.12027
 20
378.518188
 30
0.0
  0
VERTEX
  5
636
330
633
100
AcDbEntity
  8
0
370
     0
100
AcDbVertex
100
AcDb2dVertex
 10
159.184784
 20
384.840759
 30
0.0
  0
SEQEND
  5
637
330
633
100
AcDbEntity
  8
0
 62
     7
370
    13
  0
POLYLINE
  5
638
330
1F
100
AcDbEntity
  8
0
 62
     7
370
    13
100
AcDb2dPolyline
 66
     1
 10
0.0
 20
0.0
 30
0.0
  0
VERTEX
  5
639
330
638
100
AcDbEntity
  8
0
370
     0
100
AcDbVertex
100
AcDb2dVertex
 10
174.313828
 20
397.260132
 30
0.0
  0
VERTEX
  5
63A
330
638
100
AcDbEntity
  8
0
370
     0
100
AcDbVertex
100
AcDb2dVertex
 10
174.313828
 20
386.421387
 30
0.0
  0
VERTEX
  5
63B
330
638
100
AcDbEntity
  8
0
370
     0
100
AcDbVertex
100
AcDb2dVertex
 10
167.991241
 20
394.098816
 30
0.0
  0
VERTEX
  5
63C
330
638
100
AcDbEntity
  8
0
370
     0
100
AcDbVertex
100
AcDb2dVertex
 10
166.184784
 20
395.679474
 30
0.0
  0
VERTEX
  5
63D
330
638
100
AcDbEntity
  8
0
370
     0
100
AcDbVertex
100
AcDb2dVertex
 10
164.829956
 20
396.356873
 30
0.0
  0
VERTEX
  5
63E
330
638
100
AcDbEntity
  8
0
370
     0
100
AcDbVertex
100
AcDb2dVertex
 10
163.475113
 20
396.356873
 30
0.0
  0
VERTEX
  5
63F
330
638
100
AcDbEntity
  8
0
370
     0
100
AcDbVertex
100
AcDb2dVertex
 10
161.89447
 20
395.679474
 30
0.0
  0
VERTEX
  5
640
330
638
100
AcDbEntity
  8
0
370
     0
100
AcDbVertex
100
AcDb2dVertex
 10
160.991241
 20
395.002045
 30
0.0
  0
VERTEX
  5
641
330
638
100
AcDbEntity
  8
0
370
     0
100
AcDbVertex
100
AcDb2dVertex
 10
160.313828
 20
393.421387
 30
0.0
  0
VERTEX
  5
642
330
638
100
AcDbEntity
  8
0
370
     0
100
AcDbVertex
100
AcDb2dVertex
 10
160.313828
 20
390.711731
 30
0.0
  0
VERTEX
  5
643
330
638
100
AcDbEntity
  8
0
370
     0
100
AcDbVertex
100
AcDb2dVertex
 10
160.991241
 20
389.131073
 30
0.0
  0
VERTEX
  5
644
330
638
100
AcDbEntity
  8
0
370
     0
100
AcDbVertex
100
AcDb2dVertex
 10
161.668671
 20
388.453674
 30
0.0
  0
VERTEX
  5
645
330
638
100
AcDbEntity
  8
0
370
     0
100
AcDbVertex
100
AcDb2dVertex
 10
163.023499
 20
387.550446
 30
0.0
  0
VERTEX
  5
646
330
638
100
AcDbEntity
  8
0
370
     0
100
AcDbVertex
100
AcDb2dVertex
 10
163.700928
 20
387.550446
 30
0.0
  0
SEQEND
  5
647
330
638
100
AcDbEntity
  8
0
 62
     7
370
    13
  0
POLYLINE
  5
648
330
1F
100
AcDbEntity
  8
0
 62
     7
370
    13
100
AcDb2dPolyline
 66
     1
 10
0.0
 20
0.0
 30
0.0
  0
VERTEX
  5
649
330
648
100
AcDbEntity
  8
0
370
     0
100
AcDbVertex
100
AcDb2dVertex
 10
160.313828
 20
403.582703
 30
0.0
  0
VERTEX
  5
64A
330
648
100
AcDbEntity
  8
0
370
     0
100
AcDbVertex
100
AcDb2dVertex
 10
164.604141
 20
403.582703
 30
0.0
  0
SEQEND
  5
64B
330
648
100
AcDbEntity
  8
0
 62
     7
370
    13
  0
POLYLINE
  5
64C
330
1F
100
AcDbEntity
  8
0
 62
     7
370
    13
100
AcDb2dPolyline
 66
     1
 10
0.0
 20
0.0
 30
0.0
  0
VERTEX
  5
64D
330
64C
100
AcDbEntity
  8
0
370
     0
100
AcDbVertex
100
AcDb2dVertex
 10
160.313828
 20
408.098816
 30
0.0
  0
VERTEX
  5
64E
330
64C
100
AcDbEntity
  8
0
370
     0
100
AcDbVertex
100
AcDb2dVertex
 10
164.604141
 20
408.098816
 30
0.0
  0
SEQEND
  5
64F
330
64C
100
AcDbEntity
  8
0
 62
     7
370
    13
  0
POLYLINE
  5
650
330
1F
100
AcDbEntity
  8
0
 62
     7
370
    13
100
AcDb2dPolyline
 66
     1
 10
0.0
 20
0.0
 30
0.0
  0
VERTEX
  5
651
330
650
100
AcDbEntity
  8
0
370
     0
100
AcDbVertex
100
AcDb2dVertex
 10
164.378342
 20
420.518188
 30
0.0
  0
VERTEX
  5
652
330
650
100
AcDbEntity
  8
0
370
     0
100
AcDbVertex
100
AcDb2dVertex
 10
166.410599
 20
421.195587
 30
0.0
  0
VERTEX
  5
653
330
650
100
AcDbEntity
  8
0
370
     0
100
AcDbVertex
100
AcDb2dVertex
 10
169.12027
 20
421.195587
 30
0.0
  0
VERTEX
  5
654
330
650
100
AcDbEntity
  8
0
370
     0
100
AcDbVertex
100
AcDb2dVertex
 10
172.055756
 20
420.518188
 30
0.0
  0
VERTEX
  5
655
330
650
100
AcDbEntity
  8
0
370
     0
100
AcDbVertex
100
AcDb2dVertex
 10
173.862213
 20
419.61496
 30
0.0
  0
SEQEND
  5
656
330
650
100
AcDbEntity
  8
0
 62
     7
370
    13
  0
POLYLINE
  5
657
330
1F
100
AcDbEntity
  8
0
 62
     7
370
    13
100
AcDb2dPolyline
 66
     1
 10
0.0
 20
0.0
 30
0.0
  0
VERTEX
  5
658
330
657
100
AcDbEntity
  8
0
370
     0
100
AcDbVertex
100
AcDb2dVertex
 10
164.378342
 20
420.518188
 30
0.0
  0
VERTEX
  5
659
330
657
100
AcDbEntity
  8
0
370
     0
100
AcDbVertex
100
AcDb2dVertex
 10
162.346085
 20
419.61496
 30
0.0
  0
SEQEND
  5
65A
330
657
100
AcDbEntity
  8
0
 62
     7
370
    13
  0
POLYLINE
  5
65B
330
1F
100
AcDbEntity
  8
0
 62
     7
370
    13
100
AcDb2dPolyline
 66
     1
 10
0.0
 20
0.0
 30
0.0
  0
VERTEX
  5
65C
330
65B
100
AcDbEntity
  8
0
370
     0
100
AcDbVertex
100
AcDb2dVertex
 10
160.765442
 20
418.711731
 30
0.0
  0
VERTEX
  5
65D
330
65B
100
AcDbEntity
  8
0
370
     0
100
AcDbVertex
100
AcDb2dVertex
 10
162.346085
 20
419.61496
 30
0.0
  0
SEQEND
  5
65E
330
65B
100
AcDbEntity
  8
0
 62
     7
370
    13
  0
POLYLINE
  5
65F
330
1F
100
AcDbEntity
  8
0
 62
     7
370
    13
100
AcDb2dPolyline
 66
     1
 10
0.0
 20
0.0
 30
0.0
  0
VERTEX
  5
660
330
65F
100
AcDbEntity
  8
0
370
     0
100
AcDbVertex
100
AcDb2dVertex
 10
159.184784
 20
417.582703
 30
0.0
  0
VERTEX
  5
661
330
65F
100
AcDbEntity
  8
0
370
     0
100
AcDbVertex
100
AcDb2dVertex
 10
160.765442
 20
418.711731
 30
0.0
  0
SEQEND
  5
662
330
65F
100
AcDbEntity
  8
0
 62
     7
370
    13
  0
POLYLINE
  5
663
330
1F
100
AcDbEntity
  8
0
 62
     7
370
    13
100
AcDb2dPolyline
 66
     1
 10
0.0
 20
0.0
 30
0.0
  0
VERTEX
  5
664
330
663
100
AcDbEntity
  8
0
370
     0
100
AcDbVertex
100
AcDb2dVertex
 10
177.249313
 20
417.582703
 30
0.0
  0
VERTEX
  5
665
330
663
100
AcDbEntity
  8
0
370
     0
100
AcDbVertex
100
AcDb2dVertex
 10
175.442856
 20
418.711731
 30
0.0
  0
VERTEX
  5
666
330
663
100
AcDbEntity
  8
0
370
     0
100
AcDbVertex
100
AcDb2dVertex
 10
173.862213
 20
419.61496
 30
0.0
  0
SEQEND
  5
667
330
663
100
AcDbEntity
  8
0
 62
     7
370
    13
  0
POLYLINE
  5
668
330
1F
100
AcDbEntity
  8
0
 62
     7
370
    13
100
AcDb2dPolyline
 66
     1
 10
0.0
 20
0.0
 30
0.0
  0
VERTEX
  5
669
330
668
100
AcDbEntity
  8
0
370
     0
100
AcDbVertex
100
AcDb2dVertex
 10
116.103653
 20
311.934052
 30
0.0
  0
VERTEX
  5
66A
330
668
100
AcDbEntity
  8
0
370
     0
100
AcDbVertex
100
AcDb2dVertex
 10
118.813332
 20
311.934052
 30
0.0
  0
SEQEND
  5
66B
330
668
100
AcDbEntity
  8
0
 62
     7
370
    13
  0
POLYLINE
  5
66C
330
1F
100
AcDbEntity
  8
0
 62
     7
370
    13
100
AcDb2dPolyline
 66
     1
 10
0.0
 20
0.0
 30
0.0
  0
VERTEX
  5
66D
330
66C
100
AcDbEntity
  8
0
370
     0
100
AcDbVertex
100
AcDb2dVertex
 10
116.103653
 20
311.934052
 30
0.0
  0
VERTEX
  5
66E
330
66C
100
AcDbEntity
  8
0
370
     0
100
AcDbVertex
100
AcDb2dVertex
 10
113.168175
 20
312.61145
 30
0.0
  0
VERTEX
  5
66F
330
66C
100
AcDbEntity
  8
0
370
     0
100
AcDbVertex
100
AcDb2dVertex
 10
111.361725
 20
313.514679
 30
0.0
  0
VERTEX
  5
670
330
66C
100
AcDbEntity
  8
0
370
     0
100
AcDbVertex
100
AcDb2dVertex
 10
110.006882
 20
314.417908
 30
0.0
  0
VERTEX
  5
671
330
66C
100
AcDbEntity
  8
0
370
     0
100
AcDbVertex
100
AcDb2dVertex
 10
108.877853
 20
315.546936
 30
0.0
  0
SEQEND
  5
672
330
66C
100
AcDbEntity
  8
0
 62
     7
370
    13
  0
POLYLINE
  5
673
330
1F
100
AcDbEntity
  8
0
 62
     7
370
    13
100
AcDb2dPolyline
 66
     1
 10
0.0
 20
0.0
 30
0.0
  0
VERTEX
  5
674
330
673
100
AcDbEntity
  8
0
370
     0
100
AcDbVertex
100
AcDb2dVertex
 10
118.813332
 20
311.934052
 30
0.0
  0
VERTEX
  5
675
330
673
100
AcDbEntity
  8
0
370
     0
100
AcDbVertex
100
AcDb2dVertex
 10
121.748817
 20
312.61145
 30
0.0
  0
VERTEX
  5
676
330
673
100
AcDbEntity
  8
0
370
     0
100
AcDbVertex
100
AcDb2dVertex
 10
123.781075
 20
313.514679
 30
0.0
  0
SEQEND
  5
677
330
673
100
AcDbEntity
  8
0
 62
     7
370
    13
  0
POLYLINE
  5
678
330
1F
100
AcDbEntity
  8
0
 62
     7
370
    13
100
AcDb2dPolyline
 66
     1
 10
0.0
 20
0.0
 30
0.0
  0
VERTEX
  5
679
330
678
100
AcDbEntity
  8
0
370
     0
100
AcDbVertex
100
AcDb2dVertex
 10
125.813332
 20
314.417908
 30
0.0
  0
VERTEX
  5
67A
330
678
100
AcDbEntity
  8
0
370
     0
100
AcDbVertex
100
AcDb2dVertex
 10
127.168175
 20
315.546936
 30
0.0
  0
SEQEND
  5
67B
330
678
100
AcDbEntity
  8
0
 62
     7
370
    13
  0
POLYLINE
  5
67C
330
1F
100
AcDbEntity
  8
0
 62
     7
370
    13
100
AcDb2dPolyline
 66
     1
 10
0.0
 20
0.0
 30
0.0
  0
VERTEX
  5
67D
330
67C
100
AcDbEntity
  8
0
370
     0
100
AcDbVertex
100
AcDb2dVertex
 10
123.781075
 20
313.514679
 30
0.0
  0
VERTEX
  5
67E
330
67C
100
AcDbEntity
  8
0
370
     0
100
AcDbVertex
100
AcDb2dVertex
 10
125.813332
 20
314.417908
 30
0.0
  0
SEQEND
  5
67F
330
67C
100
AcDbEntity
  8
0
 62
     7
370
    13
  0
POLYLINE
  5
680
330
1F
100
AcDbEntity
  8
0
 62
     7
370
    13
100
AcDb2dPolyline
 66
     1
 10
0.0
 20
0.0
 30
0.0
  0
VERTEX
  5
681
330
680
100
AcDbEntity
  8
0
370
     0
100
AcDbVertex
100
AcDb2dVertex
 10
124.006882
 20
332.030823
 30
0.0
  0
VERTEX
  5
682
330
680
100
AcDbEntity
  8
0
370
     0
100
AcDbVertex
100
AcDb2dVertex
 10
124.006882
 20
321.192108
 30
0.0
  0
VERTEX
  5
683
330
680
100
AcDbEntity
  8
0
370
     0
100
AcDbVertex
100
AcDb2dVertex
 10
117.684303
 20
328.869537
 30
0.0
  0
VERTEX
  5
684
330
680
100
AcDbEntity
  8
0
370
     0
100
AcDbVertex
100
AcDb2dVertex
 10
115.877846
 20
330.450165
 30
0.0
  0
VERTEX
  5
685
330
680
100
AcDbEntity
  8
0
370
     0
100
AcDbVertex
100
AcDb2dVertex
 10
114.52301
 20
331.127594
 30
0.0
  0
VERTEX
  5
686
330
680
100
AcDbEntity
  8
0
370
     0
100
AcDbVertex
100
AcDb2dVertex
 10
113.168175
 20
331.127594
 30
0.0
  0
VERTEX
  5
687
330
680
100
AcDbEntity
  8
0
370
     0
100
AcDbVertex
100
AcDb2dVertex
 10
111.587524
 20
330.450165
 30
0.0
  0
VERTEX
  5
688
330
680
100
AcDbEntity
  8
0
370
     0
100
AcDbVertex
100
AcDb2dVertex
 10
110.684303
 20
329.772766
 30
0.0
  0
VERTEX
  5
689
330
680
100
AcDbEntity
  8
0
370
     0
100
AcDbVertex
100
AcDb2dVertex
 10
110.006882
 20
328.192108
 30
0.0
  0
VERTEX
  5
68A
330
680
100
AcDbEntity
  8
0
370
     0
100
AcDbVertex
100
AcDb2dVertex
 10
110.006882
 20
325.482422
 30
0.0
  0
VERTEX
  5
68B
330
680
100
AcDbEntity
  8
0
370
     0
100
AcDbVertex
100
AcDb2dVertex
 10
110.684303
 20
323.901794
 30
0.0
  0
VERTEX
  5
68C
330
680
100
AcDbEntity
  8
0
370
     0
100
AcDbVertex
100
AcDb2dVertex
 10
111.361717
 20
323.224365
 30
0.0
  0
VERTEX
  5
68D
330
680
100
AcDbEntity
  8
0
370
     0
100
AcDbVertex
100
AcDb2dVertex
 10
112.71656
 20
322.321136
 30
0.0
  0
VERTEX
  5
68E
330
680
100
AcDbEntity
  8
0
370
     0
100
AcDbVertex
100
AcDb2dVertex
 10
113.393982
 20
322.321136
 30
0.0
  0
SEQEND
  5
68F
330
680
100
AcDbEntity
  8
0
 62
     7
370
    13
  0
POLYLINE
  5
690
330
1F
100
AcDbEntity
  8
0
 62
     7
370
    13
100
AcDb2dPolyline
 66
     1
 10
0.0
 20
0.0
 30
0.0
 70
     1
  0
VERTEX
  5
691
330
690
100
AcDbEntity
  8
0
370
     0
100
AcDbVertex
100
AcDb2dVertex
 10
110.006882
 20
339.256622
 30
0.0
  0
VERTEX
  5
692
330
690
100
AcDbEntity
  8
0
370
     0
100
AcDbVertex
100
AcDb2dVertex
 10
110.684303
 20
336.772766
 30
0.0
  0
VERTEX
  5
693
330
690
100
AcDbEntity
  8
0
370
     0
100
AcDbVertex
100
AcDb2dVertex
 10
112.942368
 20
335.192108
 30
0.0
  0
VERTEX
  5
694
330
690
100
AcDbEntity
  8
0
370
     0
100
AcDbVertex
100
AcDb2dVertex
 10
115.200432
 20
334.514679
 30
0.0
  0
VERTEX
  5
695
330
690
100
AcDbEntity
  8
0
370
     0
100
AcDbVertex
100
AcDb2dVertex
 10
118.13591
 20
334.514679
 30
0.0
  0
VERTEX
  5
696
330
690
100
AcDbEntity
  8
0
370
     0
100
AcDbVertex
100
AcDb2dVertex
 10
121.071396
 20
335.192108
 30
0.0
  0
VERTEX
  5
697
330
690
100
AcDbEntity
  8
0
370
     0
100
AcDbVertex
100
AcDb2dVertex
 10
123.32946
 20
336.772766
 30
0.0
  0
VERTEX
  5
698
330
690
100
AcDbEntity
  8
0
370
     0
100
AcDbVertex
100
AcDb2dVertex
 10
124.006882
 20
339.256622
 30
0.0
  0
VERTEX
  5
699
330
690
100
AcDbEntity
  8
0
370
     0
100
AcDbVertex
100
AcDb2dVertex
 10
124.006882
 20
341.06308
 30
0.0
  0
VERTEX
  5
69A
330
690
100
AcDbEntity
  8
0
370
     0
100
AcDbVertex
100
AcDb2dVertex
 10
123.32946
 20
343.546936
 30
0.0
  0
VERTEX
  5
69B
330
690
100
AcDbEntity
  8
0
370
     0
100
AcDbVertex
100
AcDb2dVertex
 10
121.071396
 20
345.127594
 30
0.0
  0
VERTEX
  5
69C
330
690
100
AcDbEntity
  8
0
370
     0
100
AcDbVertex
100
AcDb2dVertex
 10
118.361717
 20
345.804993
 30
0.0
  0
VERTEX
  5
69D
330
690
100
AcDbEntity
  8
0
370
     0
100
AcDbVertex
100
AcDb2dVertex
 10
115.200424
 20
345.804993
 30
0.0
  0
VERTEX
  5
69E
330
690
100
AcDbEntity
  8
0
370
     0
100
AcDbVertex
100
AcDb2dVertex
 10
112.942368
 20
345.127594
 30
0.0
  0
VERTEX
  5
69F
330
690
100
AcDbEntity
  8
0
370
     0
100
AcDbVertex
100
AcDb2dVertex
 10
110.684296
 20
343.546936
 30
0.0
  0
VERTEX
  5
6A0
330
690
100
AcDbEntity
  8
0
370
     0
100
AcDbVertex
100
AcDb2dVertex
 10
110.006882
 20
341.06308
 30
0.0
  0
SEQEND
  5
6A1
330
690
100
AcDbEntity
  8
0
 62
     7
370
    13
  0
POLYLINE
  5
6A2
330
1F
100
AcDbEntity
  8
0
 62
     7
370
    13
100
AcDb2dPolyline
 66
     1
 10
0.0
 20
0.0
 30
0.0
  0
VERTEX
  5
6A3
330
6A2
100
AcDbEntity
  8
0
370
     0
100
AcDbVertex
100
AcDb2dVertex
 10
118.361717
 20
348.966309
 30
0.0
  0
VERTEX
  5
6A4
330
6A2
100
AcDbEntity
  8
0
370
     0
100
AcDbVertex
100
AcDb2dVertex
 10
118.361717
 20
359.353394
 30
0.0
  0
SEQEND
  5
6A5
330
6A2
100
AcDbEntity
  8
0
 62
     7
370
    13
  0
POLYLINE
  5
6A6
330
1F
100
AcDbEntity
  8
0
 62
     7
370
    13
100
AcDb2dPolyline
 66
     1
 10
0.0
 20
0.0
 30
0.0
  0
VERTEX
  5
6A7
330
6A6
100
AcDbEntity
  8
0
370
     0
100
AcDbVertex
100
AcDb2dVertex
 10
111.813332
 20
365.224365
 30
0.0
  0
VERTEX
  5
6A8
330
6A6
100
AcDbEntity
  8
0
370
     0
100
AcDbVertex
100
AcDb2dVertex
 10
110.006882
 20
367.708221
 30
0.0
  0
VERTEX
  5
6A9
330
6A6
100
AcDbEntity
  8
0
370
     0
100
AcDbVertex
100
AcDb2dVertex
 10
124.006882
 20
367.708221
 30
0.0
  0
SEQEND
  5
6AA
330
6A6
100
AcDbEntity
  8
0
 62
     7
370
    13
  0
POLYLINE
  5
6AB
330
1F
100
AcDbEntity
  8
0
 62
     7
370
    13
100
AcDb2dPolyline
 66
     1
 10
0.0
 20
0.0
 30
0.0
  0
VERTEX
  5
6AC
330
6AB
100
AcDbEntity
  8
0
370
     0
100
AcDbVertex
100
AcDb2dVertex
 10
112.490753
 20
363.869507
 30
0.0
  0
VERTEX
  5
6AD
330
6AB
100
AcDbEntity
  8
0
370
     0
100
AcDbVertex
100
AcDb2dVertex
 10
111.813332
 20
365.224365
 30
0.0
  0
SEQEND
  5
6AE
330
6AB
100
AcDbEntity
  8
0
 62
     7
370
    13
  0
POLYLINE
  5
6AF
330
1F
100
AcDbEntity
  8
0
 62
     7
370
    13
100
AcDb2dPolyline
 66
     1
 10
0.0
 20
0.0
 30
0.0
  0
VERTEX
  5
6B0
330
6AF
100
AcDbEntity
  8
0
370
     0
100
AcDbVertex
100
AcDb2dVertex
 10
128.52301
 20
374.708252
 30
0.0
  0
VERTEX
  5
6B1
330
6AF
100
AcDbEntity
  8
0
370
     0
100
AcDbVertex
100
AcDb2dVertex
 10
118.813332
 20
381.030823
 30
0.0
  0
VERTEX
  5
6B2
330
6AF
100
AcDbEntity
  8
0
370
     0
100
AcDbVertex
100
AcDb2dVertex
 10
108.877846
 20
387.353394
 30
0.0
  0
SEQEND
  5
6B3
330
6AF
100
AcDbEntity
  8
0
 62
     7
370
    13
  0
POLYLINE
  5
6B4
330
1F
100
AcDbEntity
  8
0
 62
     7
370
    13
100
AcDb2dPolyline
 66
     1
 10
0.0
 20
0.0
 30
0.0
  0
VERTEX
  5
6B5
330
6B4
100
AcDbEntity
  8
0
370
     0
100
AcDbVertex
100
AcDb2dVertex
 10
124.006874
 20
399.772766
 30
0.0
  0
VERTEX
  5
6B6
330
6B4
100
AcDbEntity
  8
0
370
     0
100
AcDbVertex
100
AcDb2dVertex
 10
124.006882
 20
388.934021
 30
0.0
  0
VERTEX
  5
6B7
330
6B4
100
AcDbEntity
  8
0
370
     0
100
AcDbVertex
100
AcDb2dVertex
 10
117.684296
 20
396.61145
 30
0.0
  0
VERTEX
  5
6B8
330
6B4
100
AcDbEntity
  8
0
370
     0
100
AcDbVertex
100
AcDb2dVertex
 10
115.877846
 20
398.192108
 30
0.0
  0
VERTEX
  5
6B9
330
6B4
100
AcDbEntity
  8
0
370
     0
100
AcDbVertex
100
AcDb2dVertex
 10
114.52301
 20
398.869507
 30
0.0
  0
VERTEX
  5
6BA
330
6B4
100
AcDbEntity
  8
0
370
     0
100
AcDbVertex
100
AcDb2dVertex
 10
113.168167
 20
398.869507
 30
0.0
  0
VERTEX
  5
6BB
330
6B4
100
AcDbEntity
  8
0
370
     0
100
AcDbVertex
100
AcDb2dVertex
 10
111.587524
 20
398.192108
 30
0.0
  0
VERTEX
  5
6BC
330
6B4
100
AcDbEntity
  8
0
370
     0
100
AcDbVertex
100
AcDb2dVertex
 10
110.684296
 20
397.514679
 30
0.0
  0
VERTEX
  5
6BD
330
6B4
100
AcDbEntity
  8
0
370
     0
100
AcDbVertex
100
AcDb2dVertex
 10
110.006882
 20
395.934021
 30
0.0
  0
VERTEX
  5
6BE
330
6B4
100
AcDbEntity
  8
0
370
     0
100
AcDbVertex
100
AcDb2dVertex
 10
110.006882
 20
393.224365
 30
0.0
  0
VERTEX
  5
6BF
330
6B4
100
AcDbEntity
  8
0
370
     0
100
AcDbVertex
100
AcDb2dVertex
 10
110.684296
 20
391.643707
 30
0.0
  0
VERTEX
  5
6C0
330
6B4
100
AcDbEntity
  8
0
370
     0
100
AcDbVertex
100
AcDb2dVertex
 10
111.361717
 20
390.966309
 30
0.0
  0
VERTEX
  5
6C1
330
6B4
100
AcDbEntity
  8
0
370
     0
100
AcDbVertex
100
AcDb2dVertex
 10
112.716553
 20
390.06308
 30
0.0
  0
VERTEX
  5
6C2
330
6B4
100
AcDbEntity
  8
0
370
     0
100
AcDbVertex
100
AcDb2dVertex
 10
113.393974
 20
390.06308
 30
0.0
  0
SEQEND
  5
6C3
330
6B4
100
AcDbEntity
  8
0
 62
     7
370
    13
  0
POLYLINE
  5
6C4
330
1F
100
AcDbEntity
  8
0
 62
     7
370
    13
100
AcDb2dPolyline
 66
     1
 10
0.0
 20
0.0
 30
0.0
  0
VERTEX
  5
6C5
330
6C4
100
AcDbEntity
  8
0
370
     0
100
AcDbVertex
100
AcDb2dVertex
 10
110.006874
 20
406.095337
 30
0.0
  0
VERTEX
  5
6C6
330
6C4
100
AcDbEntity
  8
0
370
     0
100
AcDbVertex
100
AcDb2dVertex
 10
114.297203
 20
406.095337
 30
0.0
  0
SEQEND
  5
6C7
330
6C4
100
AcDbEntity
  8
0
 62
     7
370
    13
  0
POLYLINE
  5
6C8
330
1F
100
AcDbEntity
  8
0
 62
     7
370
    13
100
AcDb2dPolyline
 66
     1
 10
0.0
 20
0.0
 30
0.0
  0
VERTEX
  5
6C9
330
6C8
100
AcDbEntity
  8
0
370
     0
100
AcDbVertex
100
AcDb2dVertex
 10
110.006874
 20
410.61145
 30
0.0
  0
VERTEX
  5
6CA
330
6C8
100
AcDbEntity
  8
0
370
     0
100
AcDbVertex
100
AcDb2dVertex
 10
114.297203
 20
410.61145
 30
0.0
  0
SEQEND
  5
6CB
330
6C8
100
AcDbEntity
  8
0
 62
     7
370
    13
  0
POLYLINE
  5
6CC
330
1F
100
AcDbEntity
  8
0
 62
     7
370
    13
100
AcDb2dPolyline
 66
     1
 10
0.0
 20
0.0
 30
0.0
  0
VERTEX
  5
6CD
330
6CC
100
AcDbEntity
  8
0
370
     0
100
AcDbVertex
100
AcDb2dVertex
 10
114.071396
 20
423.030823
 30
0.0
  0
VERTEX
  5
6CE
330
6CC
100
AcDbEntity
  8
0
370
     0
100
AcDbVertex
100
AcDb2dVertex
 10
116.103653
 20
423.708221
 30
0.0
  0
VERTEX
  5
6CF
330
6CC
100
AcDbEntity
  8
0
370
     0
100
AcDbVertex
100
AcDb2dVertex
 10
118.813332
 20
423.708221
 30
0.0
  0
VERTEX
  5
6D0
330
6CC
100
AcDbEntity
  8
0
370
     0
100
AcDbVertex
100
AcDb2dVertex
 10
121.74881
 20
423.030823
 30
0.0
  0
VERTEX
  5
6D1
330
6CC
100
AcDbEntity
  8
0
370
     0
100
AcDbVertex
100
AcDb2dVertex
 10
123.555267
 20
422.127594
 30
0.0
  0
SEQEND
  5
6D2
330
6CC
100
AcDbEntity
  8
0
 62
     7
370
    13
  0
POLYLINE
  5
6D3
330
1F
100
AcDbEntity
  8
0
 62
     7
370
    13
100
AcDb2dPolyline
 66
     1
 10
0.0
 20
0.0
 30
0.0
  0
VERTEX
  5
6D4
330
6D3
100
AcDbEntity
  8
0
370
     0
100
AcDbVertex
100
AcDb2dVertex
 10
114.071396
 20
423.030823
 30
0.0
  0
VERTEX
  5
6D5
330
6D3
100
AcDbEntity
  8
0
370
     0
100
AcDbVertex
100
AcDb2dVertex
 10
112.039139
 20
422.127594
 30
0.0
  0
SEQEND
  5
6D6
330
6D3
100
AcDbEntity
  8
0
 62
     7
370
    13
  0
POLYLINE
  5
6D7
330
1F
100
AcDbEntity
  8
0
 62
     7
370
    13
100
AcDb2dPolyline
 66
     1
 10
0.0
 20
0.0
 30
0.0
  0
VERTEX
  5
6D8
330
6D7
100
AcDbEntity
  8
0
370
     0
100
AcDbVertex
100
AcDb2dVertex
 10
110.458488
 20
421.224365
 30
0.0
  0
VERTEX
  5
6D9
330
6D7
100
AcDbEntity
  8
0
370
     0
100
AcDbVertex
100
AcDb2dVertex
 10
112.039139
 20
422.127594
 30
0.0
  0
SEQEND
  5
6DA
330
6D7
100
AcDbEntity
  8
0
 62
     7
370
    13
  0
POLYLINE
  5
6DB
330
1F
100
AcDbEntity
  8
0
 62
     7
370
    13
100
AcDb2dPolyline
 66
     1
 10
0.0
 20
0.0
 30
0.0
  0
VERTEX
  5
6DC
330
6DB
100
AcDbEntity
  8
0
370
     0
100
AcDbVertex
100
AcDb2dVertex
 10
108.877846
 20
420.095337
 30
0.0
  0
VERTEX
  5
6DD
330
6DB
100
AcDbEntity
  8
0
370
     0
100
AcDbVertex
100
AcDb2dVertex
 10
110.458488
 20
421.224365
 30
0.0
  0
SEQEND
  5
6DE
330
6DB
100
AcDbEntity
  8
0
 62
     7
370
    13
  0
POLYLINE
  5
6DF
330
1F
100
AcDbEntity
  8
0
 62
     7
370
    13
100
AcDb2dPolyline
 66
     1
 10
0.0
 20
0.0
 30
0.0
  0
VERTEX
  5
6E0
330
6DF
100
AcDbEntity
  8
0
370
     0
100
AcDbVertex
100
AcDb2dVertex
 10
126.94236
 20
420.095337
 30
0.0
  0
VERTEX
  5
6E1
330
6DF
100
AcDbEntity
  8
0
370
     0
100
AcDbVertex
100
AcDb2dVertex
 10
125.13591
 20
421.224365
 30
0.0
  0
VERTEX
  5
6E2
330
6DF
100
AcDbEntity
  8
0
370
     0
100
AcDbVertex
100
AcDb2dVertex
 10
123.555267
 20
422.127594
 30
0.0
  0
SEQEND
  5
6E3
330
6DF
100
AcDbEntity
  8
0
 62
     7
370
    13
  0
POLYLINE
  5
6E4
330
1F
100
AcDbEntity
  8
0
 62
     7
370
    13
100
AcDb2dPolyline
 66
     1
 10
0.0
 20
0.0
 30
0.0
  0
VERTEX
  5
6E5
330
6E4
100
AcDbEntity
  8
0
370
     0
100
AcDbVertex
100
AcDb2dVertex
 10
357.596344
 20
525.087402
 30
0.0
  0
VERTEX
  5
6E6
330
6E4
100
AcDbEntity
  8
0
370
     0
100
AcDbVertex
100
AcDb2dVertex
 10
357.596344
 20
522.377747
 30
0.0
  0
SEQEND
  5
6E7
330
6E4
100
AcDbEntity
  8
0
 62
     7
370
    13
  0
POLYLINE
  5
6E8
330
1F
100
AcDbEntity
  8
0
 62
     7
370
    13
100
AcDb2dPolyline
 66
     1
 10
0.0
 20
0.0
 30
0.0
  0
VERTEX
  5
6E9
330
6E8
100
AcDbEntity
  8
0
370
     0
100
AcDbVertex
100
AcDb2dVertex
 10
357.596344
 20
525.087402
 30
0.0
  0
VERTEX
  5
6EA
330
6E8
100
AcDbEntity
  8
0
370
     0
100
AcDbVertex
100
AcDb2dVertex
 10
358.273743
 20
528.022888
 30
0.0
  0
VERTEX
  5
6EB
330
6E8
100
AcDbEntity
  8
0
370
     0
100
AcDbVertex
100
AcDb2dVertex
 10
359.176971
 20
529.829346
 30
0.0
  0
VERTEX
  5
6EC
330
6E8
100
AcDbEntity
  8
0
370
     0
100
AcDbVertex
100
AcDb2dVertex
 10
360.0802
 20
531.184204
 30
0.0
  0
VERTEX
  5
6ED
330
6E8
100
AcDbEntity
  8
0
370
     0
100
AcDbVertex
100
AcDb2dVertex
 10
361.209229
 20
532.313232
 30
0.0
  0
SEQEND
  5
6EE
330
6E8
100
AcDbEntity
  8
0
 62
     7
370
    13
  0
POLYLINE
  5
6EF
330
1F
100
AcDbEntity
  8
0
 62
     7
370
    13
100
AcDb2dPolyline
 66
     1
 10
0.0
 20
0.0
 30
0.0
  0
VERTEX
  5
6F0
330
6EF
100
AcDbEntity
  8
0
370
     0
100
AcDbVertex
100
AcDb2dVertex
 10
357.596344
 20
522.377747
 30
0.0
  0
VERTEX
  5
6F1
330
6EF
100
AcDbEntity
  8
0
370
     0
100
AcDbVertex
100
AcDb2dVertex
 10
358.273743
 20
519.442261
 30
0.0
  0
VERTEX
  5
6F2
330
6EF
100
AcDbEntity
  8
0
370
     0
100
AcDbVertex
100
AcDb2dVertex
 10
359.176971
 20
517.410034
 30
0.0
  0
SEQEND
  5
6F3
330
6EF
100
AcDbEntity
  8
0
 62
     7
370
    13
  0
POLYLINE
  5
6F4
330
1F
100
AcDbEntity
  8
0
 62
     7
370
    13
100
AcDb2dPolyline
 66
     1
 10
0.0
 20
0.0
 30
0.0
  0
VERTEX
  5
6F5
330
6F4
100
AcDbEntity
  8
0
370
     0
100
AcDbVertex
100
AcDb2dVertex
 10
360.0802
 20
515.377747
 30
0.0
  0
VERTEX
  5
6F6
330
6F4
100
AcDbEntity
  8
0
370
     0
100
AcDbVertex
100
AcDb2dVertex
 10
361.209229
 20
514.022888
 30
0.0
  0
SEQEND
  5
6F7
330
6F4
100
AcDbEntity
  8
0
 62
     7
370
    13
  0
POLYLINE
  5
6F8
330
1F
100
AcDbEntity
  8
0
 62
     7
370
    13
100
AcDb2dPolyline
 66
     1
 10
0.0
 20
0.0
 30
0.0
  0
VERTEX
  5
6F9
330
6F8
100
AcDbEntity
  8
0
370
     0
100
AcDbVertex
100
AcDb2dVertex
 10
359.176971
 20
517.410034
 30
0.0
  0
VERTEX
  5
6FA
330
6F8
100
AcDbEntity
  8
0
370
     0
100
AcDbVertex
100
AcDb2dVertex
 10
360.0802
 20
515.377747
 30
0.0
  0
SEQEND
  5
6FB
330
6F8
100
AcDbEntity
  8
0
 62
     7
370
    13
  0
POLYLINE
  5
6FC
330
1F
100
AcDbEntity
  8
0
 62
     7
370
    13
100
AcDb2dPolyline
 66
     1
 10
0.0
 20
0.0
 30
0.0
  0
VERTEX
  5
6FD
330
6FC
100
AcDbEntity
  8
0
370
     0
100
AcDbVertex
100
AcDb2dVertex
 10
366.854401
 20
519.668091
 30
0.0
  0
VERTEX
  5
6FE
330
6FC
100
AcDbEntity
  8
0
370
     0
100
AcDbVertex
100
AcDb2dVertex
 10
367.53183
 20
518.539062
 30
0.0
  0
VERTEX
  5
6FF
330
6FC
100
AcDbEntity
  8
0
370
     0
100
AcDbVertex
100
AcDb2dVertex
 10
368.209229
 20
517.861633
 30
0.0
  0
VERTEX
  5
700
330
6FC
100
AcDbEntity
  8
0
370
     0
100
AcDbVertex
100
AcDb2dVertex
 10
370.693115
 20
517.184204
 30
0.0
  0
VERTEX
  5
701
330
6FC
100
AcDbEntity
  8
0
370
     0
100
AcDbVertex
100
AcDb2dVertex
 10
373.176971
 20
517.184204
 30
0.0
  0
VERTEX
  5
702
330
6FC
100
AcDbEntity
  8
0
370
     0
100
AcDbVertex
100
AcDb2dVertex
 10
375.886658
 20
517.861633
 30
0.0
  0
VERTEX
  5
703
330
6FC
100
AcDbEntity
  8
0
370
     0
100
AcDbVertex
100
AcDb2dVertex
 10
377.241486
 20
519.216492
 30
0.0
  0
VERTEX
  5
704
330
6FC
100
AcDbEntity
  8
0
370
     0
100
AcDbVertex
100
AcDb2dVertex
 10
377.918915
 20
521.248718
 30
0.0
  0
VERTEX
  5
705
330
6FC
100
AcDbEntity
  8
0
370
     0
100
AcDbVertex
100
AcDb2dVertex
 10
377.918915
 20
522.603577
 30
0.0
  0
VERTEX
  5
706
330
6FC
100
AcDbEntity
  8
0
370
     0
100
AcDbVertex
100
AcDb2dVertex
 10
377.241486
 20
524.635803
 30
0.0
  0
VERTEX
  5
707
330
6FC
100
AcDbEntity
  8
0
370
     0
100
AcDbVertex
100
AcDb2dVertex
 10
376.564087
 20
525.313232
 30
0.0
  0
VERTEX
  5
708
330
6FC
100
AcDbEntity
  8
0
370
     0
100
AcDbVertex
100
AcDb2dVertex
 10
375.209229
 20
525.990662
 30
0.0
  0
VERTEX
  5
709
330
6FC
100
AcDbEntity
  8
0
370
     0
100
AcDbVertex
100
AcDb2dVertex
 10
372.047943
 20
525.990662
 30
0.0
  0
VERTEX
  5
70A
330
6FC
100
AcDbEntity
  8
0
370
     0
100
AcDbVertex
100
AcDb2dVertex
 10
376.789886
 20
531.184204
 30
0.0
  0
VERTEX
  5
70B
330
6FC
100
AcDbEntity
  8
0
370
     0
100
AcDbVertex
100
AcDb2dVertex
 10
368.435059
 20
531.184204
 30
0.0
  0
SEQEND
  5
70C
330
6FC
100
AcDbEntity
  8
0
 62
     7
370
    13
  0
POLYLINE
  5
70D
330
1F
100
AcDbEntity
  8
0
 62
     7
370
    13
100
AcDb2dPolyline
 66
     1
 10
0.0
 20
0.0
 30
0.0
  0
VERTEX
  5
70E
330
70D
100
AcDbEntity
  8
0
370
     0
100
AcDbVertex
100
AcDb2dVertex
 10
391.241486
 20
517.184204
 30
0.0
  0
VERTEX
  5
70F
330
70D
100
AcDbEntity
  8
0
370
     0
100
AcDbVertex
100
AcDb2dVertex
 10
380.402771
 20
517.184204
 30
0.0
  0
VERTEX
  5
710
330
70D
100
AcDbEntity
  8
0
370
     0
100
AcDbVertex
100
AcDb2dVertex
 10
388.0802
 20
523.506775
 30
0.0
  0
VERTEX
  5
711
330
70D
100
AcDbEntity
  8
0
370
     0
100
AcDbVertex
100
AcDb2dVertex
 10
389.660858
 20
525.313232
 30
0.0
  0
VERTEX
  5
712
330
70D
100
AcDbEntity
  8
0
370
     0
100
AcDbVertex
100
AcDb2dVertex
 10
390.338257
 20
526.668091
 30
0.0
  0
VERTEX
  5
713
330
70D
100
AcDbEntity
  8
0
370
     0
100
AcDbVertex
100
AcDb2dVertex
 10
390.338257
 20
528.022888
 30
0.0
  0
VERTEX
  5
714
330
70D
100
AcDbEntity
  8
0
370
     0
100
AcDbVertex
100
AcDb2dVertex
 10
389.660858
 20
529.603577
 30
0.0
  0
VERTEX
  5
715
330
70D
100
AcDbEntity
  8
0
370
     0
100
AcDbVertex
100
AcDb2dVertex
 10
388.983429
 20
530.506775
 30
0.0
  0
VERTEX
  5
716
330
70D
100
AcDbEntity
  8
0
370
     0
100
AcDbVertex
100
AcDb2dVertex
 10
387.402771
 20
531.184204
 30
0.0
  0
VERTEX
  5
717
330
70D
100
AcDbEntity
  8
0
370
     0
100
AcDbVertex
100
AcDb2dVertex
 10
384.693115
 20
531.184204
 30
0.0
  0
VERTEX
  5
718
330
70D
100
AcDbEntity
  8
0
370
     0
100
AcDbVertex
100
AcDb2dVertex
 10
383.112457
 20
530.506775
 30
0.0
  0
VERTEX
  5
719
330
70D
100
AcDbEntity
  8
0
370
     0
100
AcDbVertex
100
AcDb2dVertex
 10
382.435059
 20
529.829346
 30
0.0
  0
VERTEX
  5
71A
330
70D
100
AcDbEntity
  8
0
370
     0
100
AcDbVertex
100
AcDb2dVertex
 10
381.53183
 20
528.474548
 30
0.0
  0
VERTEX
  5
71B
330
70D
100
AcDbEntity
  8
0
370
     0
100
AcDbVertex
100
AcDb2dVertex
 10
381.53183
 20
527.797119
 30
0.0
  0
SEQEND
  5
71C
330
70D
100
AcDbEntity
  8
0
 62
     7
370
    13
  0
POLYLINE
  5
71D
330
1F
100
AcDbEntity
  8
0
 62
     7
370
    13
100
AcDb2dPolyline
 66
     1
 10
0.0
 20
0.0
 30
0.0
  0
VERTEX
  5
71E
330
71D
100
AcDbEntity
  8
0
370
     0
100
AcDbVertex
100
AcDb2dVertex
 10
394.628601
 20
522.829346
 30
0.0
  0
VERTEX
  5
71F
330
71D
100
AcDbEntity
  8
0
370
     0
100
AcDbVertex
100
AcDb2dVertex
 10
405.015686
 20
522.829346
 30
0.0
  0
SEQEND
  5
720
330
71D
100
AcDbEntity
  8
0
 62
     7
370
    13
  0
POLYLINE
  5
721
330
1F
100
AcDbEntity
  8
0
 62
     7
370
    13
100
AcDb2dPolyline
 66
     1
 10
0.0
 20
0.0
 30
0.0
  0
VERTEX
  5
722
330
721
100
AcDbEntity
  8
0
370
     0
100
AcDbVertex
100
AcDb2dVertex
 10
410.886658
 20
529.377747
 30
0.0
  0
VERTEX
  5
723
330
721
100
AcDbEntity
  8
0
370
     0
100
AcDbVertex
100
AcDb2dVertex
 10
413.370514
 20
531.184204
 30
0.0
  0
VERTEX
  5
724
330
721
100
AcDbEntity
  8
0
370
     0
100
AcDbVertex
100
AcDb2dVertex
 10
413.370514
 20
517.184204
 30
0.0
  0
SEQEND
  5
725
330
721
100
AcDbEntity
  8
0
 62
     7
370
    13
  0
POLYLINE
  5
726
330
1F
100
AcDbEntity
  8
0
 62
     7
370
    13
100
AcDb2dPolyline
 66
     1
 10
0.0
 20
0.0
 30
0.0
  0
VERTEX
  5
727
330
726
100
AcDbEntity
  8
0
370
     0
100
AcDbVertex
100
AcDb2dVertex
 10
409.531799
 20
528.700317
 30
0.0
  0
VERTEX
  5
728
330
726
100
AcDbEntity
  8
0
370
     0
100
AcDbVertex
100
AcDb2dVertex
 10
410.886658
 20
529.377747
 30
0.0
  0
SEQEND
  5
729
330
726
100
AcDbEntity
  8
0
 62
     7
370
    13
  0
POLYLINE
  5
72A
330
1F
100
AcDbEntity
  8
0
 62
     7
370
    13
100
AcDb2dPolyline
 66
     1
 10
0.0
 20
0.0
 30
0.0
  0
VERTEX
  5
72B
330
72A
100
AcDbEntity
  8
0
370
     0
100
AcDbVertex
100
AcDb2dVertex
 10
420.370544
 20
512.668091
 30
0.0
  0
VERTEX
  5
72C
330
72A
100
AcDbEntity
  8
0
370
     0
100
AcDbVertex
100
AcDb2dVertex
 10
426.693115
 20
522.377747
 30
0.0
  0
VERTEX
  5
72D
330
72A
100
AcDbEntity
  8
0
370
     0
100
AcDbVertex
100
AcDb2dVertex
 10
433.015686
 20
532.313232
 30
0.0
  0
SEQEND
  5
72E
330
72A
100
AcDbEntity
  8
0
 62
     7
370
    13
  0
POLYLINE
  5
72F
330
1F
100
AcDbEntity
  8
0
 62
     7
370
    13
100
AcDb2dPolyline
 66
     1
 10
0.0
 20
0.0
 30
0.0
  0
VERTEX
  5
730
330
72F
100
AcDbEntity
  8
0
370
     0
100
AcDbVertex
100
AcDb2dVertex
 10
444.983429
 20
522.151917
 30
0.0
  0
VERTEX
  5
731
330
72F
100
AcDbEntity
  8
0
370
     0
100
AcDbVertex
100
AcDb2dVertex
 10
434.596313
 20
522.151917
 30
0.0
  0
VERTEX
  5
732
330
72F
100
AcDbEntity
  8
0
370
     0
100
AcDbVertex
100
AcDb2dVertex
 10
442.273743
 20
531.184204
 30
0.0
  0
VERTEX
  5
733
330
72F
100
AcDbEntity
  8
0
370
     0
100
AcDbVertex
100
AcDb2dVertex
 10
442.273743
 20
524.410034
 30
0.0
  0
VERTEX
  5
734
330
72F
100
AcDbEntity
  8
0
370
     0
100
AcDbVertex
100
AcDb2dVertex
 10
442.273743
 20
517.184204
 30
0.0
  0
SEQEND
  5
735
330
72F
100
AcDbEntity
  8
0
 62
     7
370
    13
  0
POLYLINE
  5
736
330
1F
100
AcDbEntity
  8
0
 62
     7
370
    13
100
AcDb2dPolyline
 66
     1
 10
0.0
 20
0.0
 30
0.0
  0
VERTEX
  5
737
330
736
100
AcDbEntity
  8
0
370
     0
100
AcDbVertex
100
AcDb2dVertex
 10
451.757629
 20
531.184204
 30
0.0
  0
VERTEX
  5
738
330
736
100
AcDbEntity
  8
0
370
     0
100
AcDbVertex
100
AcDb2dVertex
 10
451.757629
 20
526.89386
 30
0.0
  0
SEQEND
  5
739
330
736
100
AcDbEntity
  8
0
 62
     7
370
    13
  0
POLYLINE
  5
73A
330
1F
100
AcDbEntity
  8
0
 62
     7
370
    13
100
AcDb2dPolyline
 66
     1
 10
0.0
 20
0.0
 30
0.0
  0
VERTEX
  5
73B
330
73A
100
AcDbEntity
  8
0
370
     0
100
AcDbVertex
100
AcDb2dVertex
 10
456.273743
 20
531.184204
 30
0.0
  0
VERTEX
  5
73C
330
73A
100
AcDbEntity
  8
0
370
     0
100
AcDbVertex
100
AcDb2dVertex
 10
456.273743
 20
526.89386
 30
0.0
  0
SEQEND
  5
73D
330
73A
100
AcDbEntity
  8
0
 62
     7
370
    13
  0
POLYLINE
  5
73E
330
1F
100
AcDbEntity
  8
0
 62
     7
370
    13
100
AcDb2dPolyline
 66
     1
 10
0.0
 20
0.0
 30
0.0
  0
VERTEX
  5
73F
330
73E
100
AcDbEntity
  8
0
370
     0
100
AcDbVertex
100
AcDb2dVertex
 10
468.693115
 20
527.11969
 30
0.0
  0
VERTEX
  5
740
330
73E
100
AcDbEntity
  8
0
370
     0
100
AcDbVertex
100
AcDb2dVertex
 10
469.370514
 20
525.087402
 30
0.0
  0
VERTEX
  5
741
330
73E
100
AcDbEntity
  8
0
370
     0
100
AcDbVertex
100
AcDb2dVertex
 10
469.370514
 20
522.377747
 30
0.0
  0
VERTEX
  5
742
330
73E
100
AcDbEntity
  8
0
370
     0
100
AcDbVertex
100
AcDb2dVertex
 10
468.693115
 20
519.442261
 30
0.0
  0
VERTEX
  5
743
330
73E
100
AcDbEntity
  8
0
370
     0
100
AcDbVertex
100
AcDb2dVertex
 10
467.789886
 20
517.635803
 30
0.0
  0
SEQEND
  5
744
330
73E
100
AcDbEntity
  8
0
 62
     7
370
    13
  0
POLYLINE
  5
745
330
1F
100
AcDbEntity
  8
0
 62
     7
370
    13
100
AcDb2dPolyline
 66
     1
 10
0.0
 20
0.0
 30
0.0
  0
VERTEX
  5
746
330
745
100
AcDbEntity
  8
0
370
     0
100
AcDbVertex
100
AcDb2dVertex
 10
468.693115
 20
527.11969
 30
0.0
  0
VERTEX
  5
747
330
745
100
AcDbEntity
  8
0
370
     0
100
AcDbVertex
100
AcDb2dVertex
 10
467.789886
 20
529.151917
 30
0.0
  0
SEQEND
  5
748
330
745
100
AcDbEntity
  8
0
 62
     7
370
    13
  0
POLYLINE
  5
749
330
1F
100
AcDbEntity
  8
0
 62
     7
370
    13
100
AcDb2dPolyline
 66
     1
 10
0.0
 20
0.0
 30
0.0
  0
VERTEX
  5
74A
330
749
100
AcDbEntity
  8
0
370
     0
100
AcDbVertex
100
AcDb2dVertex
 10
466.886658
 20
530.732605
 30
0.0
  0
VERTEX
  5
74B
330
749
100
AcDbEntity
  8
0
370
     0
100
AcDbVertex
100
AcDb2dVertex
 10
467.789886
 20
529.151917
 30
0.0
  0
SEQEND
  5
74C
330
749
100
AcDbEntity
  8
0
 62
     7
370
    13
  0
POLYLINE
  5
74D
330
1F
100
AcDbEntity
  8
0
 62
     7
370
    13
100
AcDb2dPolyline
 66
     1
 10
0.0
 20
0.0
 30
0.0
  0
VERTEX
  5
74E
330
74D
100
AcDbEntity
  8
0
370
     0
100
AcDbVertex
100
AcDb2dVertex
 10
465.757629
 20
532.313232
 30
0.0
  0
VERTEX
  5
74F
330
74D
100
AcDbEntity
  8
0
370
     0
100
AcDbVertex
100
AcDb2dVertex
 10
466.886658
 20
530.732605
 30
0.0
  0
SEQEND
  5
750
330
74D
100
AcDbEntity
  8
0
 62
     7
370
    13
  0
POLYLINE
  5
751
330
1F
100
AcDbEntity
  8
0
 62
     7
370
    13
100
AcDb2dPolyline
 66
     1
 10
0.0
 20
0.0
 30
0.0
  0
VERTEX
  5
752
330
751
100
AcDbEntity
  8
0
370
     0
100
AcDbVertex
100
AcDb2dVertex
 10
465.757629
 20
514.248718
 30
0.0
  0
VERTEX
  5
753
330
751
100
AcDbEntity
  8
0
370
     0
100
AcDbVertex
100
AcDb2dVertex
 10
466.886658
 20
516.055176
 30
0.0
  0
VERTEX
  5
754
330
751
100
AcDbEntity
  8
0
370
     0
100
AcDbVertex
100
AcDb2dVertex
 10
467.789886
 20
517.635803
 30
0.0
  0
SEQEND
  5
755
330
751
100
AcDbEntity
  8
0
 62
     7
370
    13
  0
ARC
  5
756
330
1F
100
AcDbEntity
  8
0
 62
     7
370
    35
100
AcDbCircle
 10
549.209717
 20
240.47522
 30
0.0
 40
50.0
100
AcDbArc
 50
314.999999
 51
360.0
  0
ARC
  5
757
330
1F
100
AcDbEntity
  8
0
 62
     7
370
    35
100
AcDbCircle
 10
549.209717
 20
240.47522
 30
0.0
 40
50.0
100
AcDbArc
 50
269.999997
 51
314.999999
  0
LINE
  5
758
330
1F
100
AcDbEntity
  8
0
 62
     7
370
    35
100
AcDbLine
 10
549.209717
 20
190.47522
 30
0.0
 11
239.209747
 21
190.47522
 31
0.0
  0
ARC
  5
759
330
1F
100
AcDbEntity
  8
0
 62
     7
370
    35
100
AcDbCircle
 10
239.209747
 20
240.47522
 30
0.0
 40
50.0
100
AcDbArc
 50
225.0
 51
269.999997
  0
ARC
  5
75A
330
1F
100
AcDbEntity
  8
0
 62
     7
370
    35
100
AcDbCircle
 10
239.209747
 20
240.47522
 30
0.0
 40
50.0
100
AcDbArc
 50
180.000005
 51
225.0
  0
LINE
  5
75B
330
1F
100
AcDbEntity
  8
0
 62
     7
370
    35
100
AcDbLine
 10
189.209747
 20
240.47522
 30
0.0
 11
189.209747
 21
400.47522
 31
0.0
  0
ARC
  5
75C
330
1F
100
AcDbEntity
  8
0
 62
     7
370
    35
100
AcDbCircle
 10
239.209747
 20
400.47522
 30
0.0
 40
49.99999999904805
100
AcDbArc
 50
135.0
 51
179.999995
  0
ARC
  5
75D
330
1F
100
AcDbEntity
  8
0
 62
     7
370
    35
100
AcDbCircle
 10
239.209747
 20
400.47522
 30
0.0
 40
49.99999999904805
100
AcDbArc
 50
90.000003
 51
135.0
  0
LINE
  5
75E
330
1F
100
AcDbEntity
  8
0
 62
     7
370
    35
100
AcDbLine
 10
239.209747
 20
450.47522
 30
0.0
 11
361.709747
 21
450.47522
 31
0.0
  0
ARC
  5
75F
330
1F
100
AcDbEntity
  8
0
 62
     7
370
    35
100
AcDbCircle
 10
361.709747
 20
400.47522
 30
0.0
 40
50.0
100
AcDbArc
 50
60.66613
 51
90.000003
  0
ARC
  5
760
330
1F
100
AcDbEntity
  8
0
 62
     7
370
    35
100
AcDbCircle
 10
361.709747
 20
400.47522
 30
0.0
 40
50.0
100
AcDbArc
 50
31.33225
 51
60.66613
  0
ARC
  5
761
330
1F
100
AcDbEntity
  8
0
 62
     7
370
    35
100
AcDbCircle
 10
415.095154
 20
432.97522
 30
0.0
 40
12.5
100
AcDbArc
 50
211.332245
 51
240.666131
  0
ARC
  5
762
330
1F
100
AcDbEntity
  8
0
 62
     7
370
    35
100
AcDbCircle
 10
415.095154
 20
432.97522
 30
0.0
 40
12.5
100
AcDbArc
 50
240.666131
 51
269.999997
  0
LINE
  5
763
330
1F
100
AcDbEntity
  8
0
 62
     7
370
    35
100
AcDbLine
 10
415.095154
 20
420.47522
 30
0.0
 11
549.209717
 21
420.47522
 31
0.0
  0
ARC
  5
764
330
1F
100
AcDbEntity
  8
0
 62
     7
370
    35
100
AcDbCircle
 10
549.209717
 20
370.47522
 30
0.0
 40
50.0
100
AcDbArc
 50
45.000001
 51
90.000003
  0
ARC
  5
765
330
1F
100
AcDbEntity
  8
0
 62
     7
370
    35
100
AcDbCircle
 10
549.209717
 20
370.47522
 30
0.0
 40
50.0
100
AcDbArc
 50
0.0
 51
45.000001
  0
LINE
  5
766
330
1F
100
AcDbEntity
  8
0
 62
     7
370
    35
100
AcDbLine
 10
599.209717
 20
370.47522
 30
0.0
 11
599.209717
 21
240.47522
 31
0.0
  0
ARC
  5
767
330
1F
100
AcDbEntity
  8
0
 62
     7
370
    35
100
AcDbCircle
 10
544.209717
 20
242.97522
 30
0.0
 40
40.0
100
AcDbArc
 50
269.999997
 51
360.0
  0
LINE
  5
768
330
1F
100
AcDbEntity
  8
0
 62
     7
370
    35
100
AcDbLine
 10
544.209717
 20
202.97522
 30
0.0
 11
454.209747
 21
202.97522
 31
0.0
  0
ARC
  5
769
330
1F
100
AcDbEntity
  8
0
 62
     7
370
    35
100
AcDbCircle
 10
454.209747
 20
242.97522
 30
0.0
 40
40.0
100
AcDbArc
 50
180.000005
 51
269.999997
  0
LINE
  5
76A
330
1F
100
AcDbEntity
  8
0
 62
     7
370
    35
100
AcDbLine
 10
414.209747
 20
242.97522
 30
0.0
 11
414.209747
 21
367.97522
 31
0.0
  0
ARC
  5
76B
330
1F
100
AcDbEntity
  8
0
 62
     7
370
    35
100
AcDbCircle
 10
454.209747
 20
367.97522
 30
0.0
 40
40.0
100
AcDbArc
 50
90.000003
 51
180.000005
  0
LINE
  5
76C
330
1F
100
AcDbEntity
  8
0
 62
     7
370
    35
100
AcDbLine
 10
454.209747
 20
407.97522
 30
0.0
 11
544.209717
 21
407.97522
 31
0.0
  0
ARC
  5
76D
330
1F
100
AcDbEntity
  8
0
 62
     7
370
    35
100
AcDbCircle
 10
544.209717
 20
367.97522
 30
0.0
 40
40.0
100
AcDbArc
 50
0.0
 51
90.000003
  0
LINE
  5
76E
330
1F
100
AcDbEntity
  8
0
 62
     7
370
    35
100
AcDbLine
 10
584.209717
 20
367.97522
 30
0.0
 11
584.209717
 21
242.97522
 31
0.0
  0
ARC
  5
76F
330
1F
100
AcDbEntity
  8
0
 62
     7
370
    35
100
AcDbCircle
 10
359.209747
 20
397.97522
 30
0.0
 40
40.0
100
AcDbArc
 50
0.0
 51
90.000003
  0
LINE
  5
770
330
1F
100
AcDbEntity
  8
0
 62
     7
370
    35
100
AcDbLine
 10
359.209747
 20
437.97522
 30
0.0
 11
244.209747
 21
437.97522
 31
0.0
  0
ARC
  5
771
330
1F
100
AcDbEntity
  8
0
 62
     7
370
    35
100
AcDbCircle
 10
244.209747
 20
397.97522
 30
0.0
 40
40.0
100
AcDbArc
 50
90.000003
 51
180.000005
  0
LINE
  5
772
330
1F
100
AcDbEntity
  8
0
 62
     7
370
    35
100
AcDbLine
 10
204.209747
 20
397.97522
 30
0.0
 11
204.209747
 21
242.97522
 31
0.0
  0
ARC
  5
773
330
1F
100
AcDbEntity
  8
0
 62
     7
370
    35
100
AcDbCircle
 10
244.209747
 20
242.97522
 30
0.0
 40
40.0
100
AcDbArc
 50
180.000005
 51
269.999997
  0
LINE
  5
774
330
1F
100
AcDbEntity
  8
0
 62
     7
370
    35
100
AcDbLine
 10
244.209747
 20
202.97522
 30
0.0
 11
359.209747
 21
202.97522
 31
0.0
  0
ARC
  5
775
330
1F
100
AcDbEntity
  8
0
 62
     7
370
    35
100
AcDbCircle
 10
359.209747
 20
242.97522
 30
0.0
 40
40.0
100
AcDbArc
 50
269.999997
 51
360.0
  0
LINE
  5
776
330
1F
100
AcDbEntity
  8
0
 62
     7
370
    35
100
AcDbLine
 10
399.209747
 20
242.97522
 30
0.0
 11
399.209747
 21
397.97522
 31
0.0
  0
POLYLINE
  5
777
330
1F
100
AcDbEntity
  8
0
 62
     7
370
    13
100
AcDb2dPolyline
 66
     1
 10
0.0
 20
0.0
 30
0.0
  0
VERTEX
  5
778
330
777
100
AcDbEntity
  8
0
370
     0
100
AcDbVertex
100
AcDb2dVertex
 10
730.331238
 20
222.417953
 30
0.0
  0
VERTEX
  5
779
330
777
100
AcDbEntity
  8
0
370
     0
100
AcDbVertex
100
AcDb2dVertex
 10
730.331238
 20
211.579239
 30
0.0
  0
VERTEX
  5
77A
330
777
100
AcDbEntity
  8
0
370
     0
100
AcDbVertex
100
AcDb2dVertex
 10
724.008667
 20
219.256653
 30
0.0
  0
VERTEX
  5
77B
330
777
100
AcDbEntity
  8
0
370
     0
100
AcDbVertex
100
AcDb2dVertex
 10
722.202209
 20
220.837311
 30
0.0
  0
VERTEX
  5
77C
330
777
100
AcDbEntity
  8
0
370
     0
100
AcDbVertex
100
AcDb2dVertex
 10
720.847351
 20
221.514725
 30
0.0
  0
VERTEX
  5
77D
330
777
100
AcDbEntity
  8
0
370
     0
100
AcDbVertex
100
AcDb2dVertex
 10
719.492554
 20
221.514725
 30
0.0
  0
VERTEX
  5
77E
330
777
100
AcDbEntity
  8
0
370
     0
100
AcDbVertex
100
AcDb2dVertex
 10
717.911865
 20
220.837311
 30
0.0
  0
VERTEX
  5
77F
330
777
100
AcDbEntity
  8
0
370
     0
100
AcDbVertex
100
AcDb2dVertex
 10
717.008667
 20
220.159882
 30
0.0
  0
VERTEX
  5
780
330
777
100
AcDbEntity
  8
0
370
     0
100
AcDbVertex
100
AcDb2dVertex
 10
716.331238
 20
218.579239
 30
0.0
  0
VERTEX
  5
781
330
777
100
AcDbEntity
  8
0
370
     0
100
AcDbVertex
100
AcDb2dVertex
 10
716.331238
 20
215.869568
 30
0.0
  0
VERTEX
  5
782
330
777
100
AcDbEntity
  8
0
370
     0
100
AcDbVertex
100
AcDb2dVertex
 10
717.008667
 20
214.28891
 30
0.0
  0
VERTEX
  5
783
330
777
100
AcDbEntity
  8
0
370
     0
100
AcDbVertex
100
AcDb2dVertex
 10
717.686096
 20
213.611496
 30
0.0
  0
VERTEX
  5
784
330
777
100
AcDbEntity
  8
0
370
     0
100
AcDbVertex
100
AcDb2dVertex
 10
719.040894
 20
212.708282
 30
0.0
  0
VERTEX
  5
785
330
777
100
AcDbEntity
  8
0
370
     0
100
AcDbVertex
100
AcDb2dVertex
 10
719.718323
 20
212.708282
 30
0.0
  0
SEQEND
  5
786
330
777
100
AcDbEntity
  8
0
 62
     7
370
    13
  0
POLYLINE
  5
787
330
1F
100
AcDbEntity
  8
0
 62
     7
370
    13
100
AcDb2dPolyline
 66
     1
 10
0.0
 20
0.0
 30
0.0
  0
VERTEX
  5
788
330
787
100
AcDbEntity
  8
0
370
     0
100
AcDbVertex
100
AcDb2dVertex
 10
727.847351
 20
227.927628
 30
0.0
  0
VERTEX
  5
789
330
787
100
AcDbEntity
  8
0
370
     0
100
AcDbVertex
100
AcDb2dVertex
 10
728.976379
 20
228.605042
 30
0.0
  0
VERTEX
  5
78A
330
787
100
AcDbEntity
  8
0
370
     0
100
AcDbVertex
100
AcDb2dVertex
 10
729.653809
 20
229.282471
 30
0.0
  0
VERTEX
  5
78B
330
787
100
AcDbEntity
  8
0
370
     0
100
AcDbVertex
100
AcDb2dVertex
 10
730.331238
 20
231.766342
 30
0.0
  0
VERTEX
  5
78C
330
787
100
AcDbEntity
  8
0
370
     0
100
AcDbVertex
100
AcDb2dVertex
 10
730.331238
 20
234.250214
 30
0.0
  0
VERTEX
  5
78D
330
787
100
AcDbEntity
  8
0
370
     0
100
AcDbVertex
100
AcDb2dVertex
 10
729.653809
 20
236.959885
 30
0.0
  0
VERTEX
  5
78E
330
787
100
AcDbEntity
  8
0
370
     0
100
AcDbVertex
100
AcDb2dVertex
 10
728.29895
 20
238.314728
 30
0.0
  0
VERTEX
  5
78F
330
787
100
AcDbEntity
  8
0
370
     0
100
AcDbVertex
100
AcDb2dVertex
 10
726.266724
 20
238.992157
 30
0.0
  0
VERTEX
  5
790
330
787
100
AcDbEntity
  8
0
370
     0
100
AcDbVertex
100
AcDb2dVertex
 10
724.911865
 20
238.992157
 30
0.0
  0
VERTEX
  5
791
330
787
100
AcDbEntity
  8
0
370
     0
100
AcDbVertex
100
AcDb2dVertex
 10
722.879639
 20
238.314728
 30
0.0
  0
VERTEX
  5
792
330
787
100
AcDbEntity
  8
0
370
     0
100
AcDbVertex
100
AcDb2dVertex
 10
722.202209
 20
237.637299
 30
0.0
  0
VERTEX
  5
793
330
787
100
AcDbEntity
  8
0
370
     0
100
AcDbVertex
100
AcDb2dVertex
 10
721.52478
 20
236.282471
 30
0.0
  0
VERTEX
  5
794
330
787
100
AcDbEntity
  8
0
370
     0
100
AcDbVertex
100
AcDb2dVertex
 10
721.52478
 20
233.121185
 30
0.0
  0
VERTEX
  5
795
330
787
100
AcDbEntity
  8
0
370
     0
100
AcDbVertex
100
AcDb2dVertex
 10
716.331238
 20
237.863113
 30
0.0
  0
VERTEX
  5
796
330
787
100
AcDbEntity
  8
0
370
     0
100
AcDbVertex
100
AcDb2dVertex
 10
716.331238
 20
229.50827
 30
0.0
  0
SEQEND
  5
797
330
787
100
AcDbEntity
  8
0
 62
     7
370
    13
  0
POLYLINE
  5
798
330
1F
100
AcDbEntity
  8
0
 62
     7
370
    13
100
AcDb2dPolyline
 66
     1
 10
0.0
 20
0.0
 30
0.0
  0
VERTEX
  5
799
330
798
100
AcDbEntity
  8
0
370
     0
100
AcDbVertex
100
AcDb2dVertex
 10
723.331238
 20
253.534088
 30
0.0
  0
VERTEX
  5
79A
330
798
100
AcDbEntity
  8
0
370
     0
100
AcDbVertex
100
AcDb2dVertex
 10
721.75061
 20
251.727631
 30
0.0
  0
VERTEX
  5
79B
330
798
100
AcDbEntity
  8
0
370
     0
100
AcDbVertex
100
AcDb2dVertex
 10
721.29895
 20
250.372787
 30
0.0
  0
VERTEX
  5
79C
330
798
100
AcDbEntity
  8
0
370
     0
100
AcDbVertex
100
AcDb2dVertex
 10
721.29895
 20
247.888916
 30
0.0
  0
VERTEX
  5
79D
330
798
100
AcDbEntity
  8
0
370
     0
100
AcDbVertex
100
AcDb2dVertex
 10
721.75061
 20
246.308273
 30
0.0
  0
VERTEX
  5
79E
330
798
100
AcDbEntity
  8
0
370
     0
100
AcDbVertex
100
AcDb2dVertex
 10
723.331238
 20
244.501831
 30
0.0
  0
VERTEX
  5
79F
330
798
100
AcDbEntity
  8
0
370
     0
100
AcDbVertex
100
AcDb2dVertex
 10
725.137695
 20
244.050201
 30
0.0
  0
SEQEND
  5
7A0
330
798
100
AcDbEntity
  8
0
 62
     7
370
    13
  0
POLYLINE
  5
7A1
330
1F
100
AcDbEntity
  8
0
 62
     7
370
    13
100
AcDb2dPolyline
 66
     1
 10
0.0
 20
0.0
 30
0.0
  0
VERTEX
  5
7A2
330
7A1
100
AcDbEntity
  8
0
370
     0
100
AcDbVertex
100
AcDb2dVertex
 10
730.331238
 20
250.372787
 30
0.0
  0
VERTEX
  5
7A3
330
7A1
100
AcDbEntity
  8
0
370
     0
100
AcDbVertex
100
AcDb2dVertex
 10
729.879639
 20
251.727631
 30
0.0
  0
VERTEX
  5
7A4
330
7A1
100
AcDbEntity
  8
0
370
     0
100
AcDbVertex
100
AcDb2dVertex
 10
728.29895
 20
253.534088
 30
0.0
  0
SEQEND
  5
7A5
330
7A1
100
AcDbEntity
  8
0
 62
     7
370
    13
  0
POLYLINE
  5
7A6
330
1F
100
AcDbEntity
  8
0
 62
     7
370
    13
100
AcDb2dPolyline
 66
     1
 10
0.0
 20
0.0
 30
0.0
  0
VERTEX
  5
7A7
330
7A6
100
AcDbEntity
  8
0
370
     0
100
AcDbVertex
100
AcDb2dVertex
 10
730.331238
 20
247.888916
 30
0.0
  0
VERTEX
  5
7A8
330
7A6
100
AcDbEntity
  8
0
370
     0
100
AcDbVertex
100
AcDb2dVertex
 10
730.331238
 20
250.372787
 30
0.0
  0
SEQEND
  5
7A9
330
7A6
100
AcDbEntity
  8
0
 62
     7
370
    13
  0
POLYLINE
  5
7AA
330
1F
100
AcDbEntity
  8
0
 62
     7
370
    13
100
AcDb2dPolyline
 66
     1
 10
0.0
 20
0.0
 30
0.0
  0
VERTEX
  5
7AB
330
7AA
100
AcDbEntity
  8
0
370
     0
100
AcDbVertex
100
AcDb2dVertex
 10
728.29895
 20
244.501831
 30
0.0
  0
VERTEX
  5
7AC
330
7AA
100
AcDbEntity
  8
0
370
     0
100
AcDbVertex
100
AcDb2dVertex
 10
726.492554
 20
244.050201
 30
0.0
  0
SEQEND
  5
7AD
330
7AA
100
AcDbEntity
  8
0
 62
     7
370
    13
  0
POLYLINE
  5
7AE
330
1F
100
AcDbEntity
  8
0
 62
     7
370
    13
100
AcDb2dPolyline
 66
     1
 10
0.0
 20
0.0
 30
0.0
  0
VERTEX
  5
7AF
330
7AE
100
AcDbEntity
  8
0
370
     0
100
AcDbVertex
100
AcDb2dVertex
 10
725.137695
 20
244.050201
 30
0.0
  0
VERTEX
  5
7B0
330
7AE
100
AcDbEntity
  8
0
370
     0
100
AcDbVertex
100
AcDb2dVertex
 10
726.492554
 20
244.050201
 30
0.0
  0
SEQEND
  5
7B1
330
7AE
100
AcDbEntity
  8
0
 62
     7
370
    13
  0
POLYLINE
  5
7B2
330
1F
100
AcDbEntity
  8
0
 62
     7
370
    13
100
AcDb2dPolyline
 66
     1
 10
0.0
 20
0.0
 30
0.0
  0
VERTEX
  5
7B3
330
7B2
100
AcDbEntity
  8
0
370
     0
100
AcDbVertex
100
AcDb2dVertex
 10
730.331238
 20
247.888916
 30
0.0
  0
VERTEX
  5
7B4
330
7B2
100
AcDbEntity
  8
0
370
     0
100
AcDbVertex
100
AcDb2dVertex
 10
729.879639
 20
246.308273
 30
0.0
  0
VERTEX
  5
7B5
330
7B2
100
AcDbEntity
  8
0
370
     0
100
AcDbVertex
100
AcDb2dVertex
 10
728.29895
 20
244.501831
 30
0.0
  0
SEQEND
  5
7B6
330
7B2
100
AcDbEntity
  8
0
 62
     7
370
    13
  0
POLYLINE
  5
7B7
330
1F
100
AcDbEntity
  8
0
 62
     7
370
    13
100
AcDb2dPolyline
 66
     1
 10
0.0
 20
0.0
 30
0.0
  0
VERTEX
  5
7B8
330
7B7
100
AcDbEntity
  8
0
370
     0
100
AcDbVertex
100
AcDb2dVertex
 10
730.331238
 20
259.946991
 30
0.0
  0
VERTEX
  5
7B9
330
7B7
100
AcDbEntity
  8
0
370
     0
100
AcDbVertex
100
AcDb2dVertex
 10
721.29895
 20
259.946991
 30
0.0
  0
SEQEND
  5
7BA
330
7B7
100
AcDbEntity
  8
0
 62
     7
370
    13
  0
POLYLINE
  5
7BB
330
1F
100
AcDbEntity
  8
0
 62
     7
370
    13
100
AcDb2dPolyline
 66
     1
 10
0.0
 20
0.0
 30
0.0
  0
VERTEX
  5
7BC
330
7BB
100
AcDbEntity
  8
0
370
     0
100
AcDbVertex
100
AcDb2dVertex
 10
723.782837
 20
266.043762
 30
0.0
  0
VERTEX
  5
7BD
330
7BB
100
AcDbEntity
  8
0
370
     0
100
AcDbVertex
100
AcDb2dVertex
 10
730.331238
 20
266.043762
 30
0.0
  0
SEQEND
  5
7BE
330
7BB
100
AcDbEntity
  8
0
 62
     7
370
    13
  0
POLYLINE
  5
7BF
330
1F
100
AcDbEntity
  8
0
 62
     7
370
    13
100
AcDb2dPolyline
 66
     1
 10
0.0
 20
0.0
 30
0.0
  0
VERTEX
  5
7C0
330
7BF
100
AcDbEntity
  8
0
370
     0
100
AcDbVertex
100
AcDb2dVertex
 10
723.782837
 20
272.140533
 30
0.0
  0
VERTEX
  5
7C1
330
7BF
100
AcDbEntity
  8
0
370
     0
100
AcDbVertex
100
AcDb2dVertex
 10
730.331238
 20
272.140533
 30
0.0
  0
SEQEND
  5
7C2
330
7BF
100
AcDbEntity
  8
0
 62
     7
370
    13
  0
POLYLINE
  5
7C3
330
1F
100
AcDbEntity
  8
0
 62
     7
370
    13
100
AcDb2dPolyline
 66
     1
 10
0.0
 20
0.0
 30
0.0
  0
VERTEX
  5
7C4
330
7C3
100
AcDbEntity
  8
0
370
     0
100
AcDbVertex
100
AcDb2dVertex
 10
723.782837
 20
259.946991
 30
0.0
  0
VERTEX
  5
7C5
330
7C3
100
AcDbEntity
  8
0
370
     0
100
AcDbVertex
100
AcDb2dVertex
 10
721.976379
 20
261.527649
 30
0.0
  0
VERTEX
  5
7C6
330
7C3
100
AcDbEntity
  8
0
370
     0
100
AcDbVertex
100
AcDb2dVertex
 10
721.29895
 20
263.108276
 30
0.0
  0
VERTEX
  5
7C7
330
7C3
100
AcDbEntity
  8
0
370
     0
100
AcDbVertex
100
AcDb2dVertex
 10
721.29895
 20
264.463104
 30
0.0
  0
VERTEX
  5
7C8
330
7C3
100
AcDbEntity
  8
0
370
     0
100
AcDbVertex
100
AcDb2dVertex
 10
721.976379
 20
265.366333
 30
0.0
  0
VERTEX
  5
7C9
330
7C3
100
AcDbEntity
  8
0
370
     0
100
AcDbVertex
100
AcDb2dVertex
 10
723.782837
 20
266.043762
 30
0.0
  0
VERTEX
  5
7CA
330
7C3
100
AcDbEntity
  8
0
370
     0
100
AcDbVertex
100
AcDb2dVertex
 10
721.976379
 20
267.62442
 30
0.0
  0
VERTEX
  5
7CB
330
7C3
100
AcDbEntity
  8
0
370
     0
100
AcDbVertex
100
AcDb2dVertex
 10
721.29895
 20
269.205048
 30
0.0
  0
VERTEX
  5
7CC
330
7C3
100
AcDbEntity
  8
0
370
     0
100
AcDbVertex
100
AcDb2dVertex
 10
721.29895
 20
270.559875
 30
0.0
  0
VERTEX
  5
7CD
330
7C3
100
AcDbEntity
  8
0
370
     0
100
AcDbVertex
100
AcDb2dVertex
 10
721.976379
 20
271.463104
 30
0.0
  0
VERTEX
  5
7CE
330
7C3
100
AcDbEntity
  8
0
370
     0
100
AcDbVertex
100
AcDb2dVertex
 10
723.782837
 20
272.140533
 30
0.0
  0
SEQEND
  5
7CF
330
7C3
100
AcDbEntity
  8
0
 62
     7
370
    13
  0
POLYLINE
  5
7D0
330
1F
100
AcDbEntity
  8
0
 62
     7
370
    13
100
AcDb2dPolyline
 66
     1
 10
0.0
 20
0.0
 30
0.0
  0
VERTEX
  5
7D1
330
7D0
100
AcDbEntity
  8
0
370
     0
100
AcDbVertex
100
AcDb2dVertex
 10
720.847351
 20
303.482483
 30
0.0
  0
VERTEX
  5
7D2
330
7D0
100
AcDbEntity
  8
0
370
     0
100
AcDbVertex
100
AcDb2dVertex
 10
718.363525
 20
302.805054
 30
0.0
  0
VERTEX
  5
7D3
330
7D0
100
AcDbEntity
  8
0
370
     0
100
AcDbVertex
100
AcDb2dVertex
 10
717.008667
 20
301.224396
 30
0.0
  0
VERTEX
  5
7D4
330
7D0
100
AcDbEntity
  8
0
370
     0
100
AcDbVertex
100
AcDb2dVertex
 10
716.331238
 20
298.74054
 30
0.0
  0
VERTEX
  5
7D5
330
7D0
100
AcDbEntity
  8
0
370
     0
100
AcDbVertex
100
AcDb2dVertex
 10
716.331238
 20
298.06311
 30
0.0
  0
VERTEX
  5
7D6
330
7D0
100
AcDbEntity
  8
0
370
     0
100
AcDbVertex
100
AcDb2dVertex
 10
717.008667
 20
295.579254
 30
0.0
  0
VERTEX
  5
7D7
330
7D0
100
AcDbEntity
  8
0
370
     0
100
AcDbVertex
100
AcDb2dVertex
 10
718.363525
 20
293.998596
 30
0.0
  0
VERTEX
  5
7D8
330
7D0
100
AcDbEntity
  8
0
370
     0
100
AcDbVertex
100
AcDb2dVertex
 10
720.169922
 20
293.321167
 30
0.0
  0
VERTEX
  5
7D9
330
7D0
100
AcDbEntity
  8
0
370
     0
100
AcDbVertex
100
AcDb2dVertex
 10
720.847351
 20
293.321167
 30
0.0
  0
VERTEX
  5
7DA
330
7D0
100
AcDbEntity
  8
0
370
     0
100
AcDbVertex
100
AcDb2dVertex
 10
722.653809
 20
293.998596
 30
0.0
  0
VERTEX
  5
7DB
330
7D0
100
AcDbEntity
  8
0
370
     0
100
AcDbVertex
100
AcDb2dVertex
 10
724.008667
 20
295.579254
 30
0.0
  0
VERTEX
  5
7DC
330
7D0
100
AcDbEntity
  8
0
370
     0
100
AcDbVertex
100
AcDb2dVertex
 10
724.911865
 20
298.06311
 30
0.0
  0
VERTEX
  5
7DD
330
7D0
100
AcDbEntity
  8
0
370
     0
100
AcDbVertex
100
AcDb2dVertex
 10
724.911865
 20
298.74054
 30
0.0
  0
VERTEX
  5
7DE
330
7D0
100
AcDbEntity
  8
0
370
     0
100
AcDbVertex
100
AcDb2dVertex
 10
724.234497
 20
301.224396
 30
0.0
  0
VERTEX
  5
7DF
330
7D0
100
AcDbEntity
  8
0
370
     0
100
AcDbVertex
100
AcDb2dVertex
 10
722.879639
 20
302.805054
 30
0.0
  0
VERTEX
  5
7E0
330
7D0
100
AcDbEntity
  8
0
370
     0
100
AcDbVertex
100
AcDb2dVertex
 10
720.847351
 20
303.482483
 30
0.0
  0
VERTEX
  5
7E1
330
7D0
100
AcDbEntity
  8
0
370
     0
100
AcDbVertex
100
AcDb2dVertex
 10
724.008667
 20
303.482483
 30
0.0
  0
VERTEX
  5
7E2
330
7D0
100
AcDbEntity
  8
0
370
     0
100
AcDbVertex
100
AcDb2dVertex
 10
727.169922
 20
302.805054
 30
0.0
  0
VERTEX
  5
7E3
330
7D0
100
AcDbEntity
  8
0
370
     0
100
AcDbVertex
100
AcDb2dVertex
 10
729.653809
 20
301.224396
 30
0.0
  0
VERTEX
  5
7E4
330
7D0
100
AcDbEntity
  8
0
370
     0
100
AcDbVertex
100
AcDb2dVertex
 10
730.331238
 20
298.74054
 30
0.0
  0
VERTEX
  5
7E5
330
7D0
100
AcDbEntity
  8
0
370
     0
100
AcDbVertex
100
AcDb2dVertex
 10
730.331238
 20
297.159882
 30
0.0
  0
VERTEX
  5
7E6
330
7D0
100
AcDbEntity
  8
0
370
     0
100
AcDbVertex
100
AcDb2dVertex
 10
729.653809
 20
294.901825
 30
0.0
  0
VERTEX
  5
7E7
330
7D0
100
AcDbEntity
  8
0
370
     0
100
AcDbVertex
100
AcDb2dVertex
 10
728.29895
 20
293.998596
 30
0.0
  0
SEQEND
  5
7E8
330
7D0
100
AcDbEntity
  8
0
 62
     7
370
    13
  0
POLYLINE
  5
7E9
330
1F
100
AcDbEntity
  8
0
 62
     7
370
    13
100
AcDb2dPolyline
 66
     1
 10
0.0
 20
0.0
 30
0.0
  0
VERTEX
  5
7EA
330
7E9
100
AcDbEntity
  8
0
370
     0
100
AcDbVertex
100
AcDb2dVertex
 10
716.331238
 20
313.282471
 30
0.0
  0
VERTEX
  5
7EB
330
7E9
100
AcDbEntity
  8
0
370
     0
100
AcDbVertex
100
AcDb2dVertex
 10
720.621582
 20
313.282471
 30
0.0
  0
SEQEND
  5
7EC
330
7E9
100
AcDbEntity
  8
0
 62
     7
370
    13
  0
POLYLINE
  5
7ED
330
1F
100
AcDbEntity
  8
0
 62
     7
370
    13
100
AcDb2dPolyline
 66
     1
 10
0.0
 20
0.0
 30
0.0
  0
VERTEX
  5
7EE
330
7ED
100
AcDbEntity
  8
0
370
     0
100
AcDbVertex
100
AcDb2dVertex
 10
716.331238
 20
317.798615
 30
0.0
  0
VERTEX
  5
7EF
330
7ED
100
AcDbEntity
  8
0
370
     0
100
AcDbVertex
100
AcDb2dVertex
 10
720.621582
 20
317.798584
 30
0.0
  0
SEQEND
  5
7F0
330
7ED
100
AcDbEntity
  8
0
 62
     7
370
    13
  0
LINE
  5
7F1
330
1F
100
AcDbEntity
  8
0
 62
     7
370
    13
100
AcDbLine
 10
802.141479
 20
207.777771
 30
0.0
 11
730.331238
 21
207.777771
 31
0.0
  0
LINE
  5
7F2
330
1F
100
AcDbEntity
  8
0
 62
     7
370
    13
100
AcDbLine
 10
761.786133
 20
308.277771
 30
0.0
 11
730.331238
 21
308.277771
 31
0.0
  0
POLYLINE
  5
7F3
330
1F
100
AcDbEntity
  8
0
 62
     7
370
    13
100
AcDb2dPolyline
 66
     1
 10
0.0
 20
0.0
 30
0.0
  0
VERTEX
  5
7F4
330
7F3
100
AcDbEntity
  8
0
370
     0
100
AcDbVertex
100
AcDb2dVertex
 10
732.848877
 20
205.845917
 30
0.0
  0
VERTEX
  5
7F5
330
7F3
100
AcDbEntity
  8
0
370
     0
100
AcDbVertex
100
AcDb2dVertex
 10
732.331238
 20
207.777771
 30
0.0
  0
VERTEX
  5
7F6
330
7F3
100
AcDbEntity
  8
0
370
     0
100
AcDbVertex
100
AcDb2dVertex
 10
731.813599
 20
205.845917
 30
0.0
  0
SEQEND
  5
7F7
330
7F3
100
AcDbEntity
  8
0
 62
     7
370
    13
  0
POLYLINE
  5
7F8
330
1F
100
AcDbEntity
  8
0
 62
     7
370
    13
100
AcDb2dPolyline
 66
     1
 10
0.0
 20
0.0
 30
0.0
  0
VERTEX
  5
7F9
330
7F8
100
AcDbEntity
  8
0
370
     0
100
AcDbVertex
100
AcDb2dVertex
 10
731.813599
 20
310.209625
 30
0.0
  0
VERTEX
  5
7FA
330
7F8
100
AcDbEntity
  8
0
370
     0
100
AcDbVertex
100
AcDb2dVertex
 10
732.331238
 20
308.277771
 30
0.0
  0
VERTEX
  5
7FB
330
7F8
100
AcDbEntity
  8
0
370
     0
100
AcDbVertex
100
AcDb2dVertex
 10
732.848877
 20
310.209625
 30
0.0
  0
SEQEND
  5
7FC
330
7F8
100
AcDbEntity
  8
0
 62
     7
370
    13
  0
LINE
  5
7FD
330
1F
100
AcDbEntity
  8
0
 62
     7
370
    13
100
AcDbLine
 10
732.331238
 20
202.777771
 30
0.0
 11
732.331238
 21
321.863129
 31
0.0
  0
POLYLINE
  5
7FE
330
1F
100
AcDbEntity
  8
0
 62
     7
370
    13
100
AcDb2dPolyline
 66
     1
 10
0.0
 20
0.0
 30
0.0
  0
VERTEX
  5
7FF
330
7FE
100
AcDbEntity
  8
0
370
     0
100
AcDbVertex
100
AcDb2dVertex
 10
895.163391
 20
273.831207
 30
0.0
  0
VERTEX
  5
800
330
7FE
100
AcDbEntity
  8
0
370
     0
100
AcDbVertex
100
AcDb2dVertex
 10
894.921204
 20
272.536987
 30
0.0
  0
VERTEX
  5
801
330
7FE
100
AcDbEntity
  8
0
370
     0
100
AcDbVertex
100
AcDb2dVertex
 10
894.978638
 20
271.580688
 30
0.0
  0
VERTEX
  5
802
330
7FE
100
AcDbEntity
  8
0
370
     0
100
AcDbVertex
100
AcDb2dVertex
 10
896.387756
 20
269.425934
 30
0.0
  0
VERTEX
  5
803
330
7FE
100
AcDbEntity
  8
0
370
     0
100
AcDbVertex
100
AcDb2dVertex
 10
898.246277
 20
267.778046
 30
0.0
  0
VERTEX
  5
804
330
7FE
100
AcDbEntity
  8
0
370
     0
100
AcDbVertex
100
AcDb2dVertex
 10
900.723145
 20
266.487213
 30
0.0
  0
VERTEX
  5
805
330
7FE
100
AcDbEntity
  8
0
370
     0
100
AcDbVertex
100
AcDb2dVertex
 10
902.635742
 20
266.602112
 30
0.0
  0
VERTEX
  5
806
330
7FE
100
AcDbEntity
  8
0
370
     0
100
AcDbVertex
100
AcDb2dVertex
 10
904.490906
 20
267.673279
 30
0.0
  0
VERTEX
  5
807
330
7FE
100
AcDbEntity
  8
0
370
     0
100
AcDbVertex
100
AcDb2dVertex
 10
905.389709
 20
268.687012
 30
0.0
  0
VERTEX
  5
808
330
7FE
100
AcDbEntity
  8
0
370
     0
100
AcDbVertex
100
AcDb2dVertex
 10
906.23114
 20
270.657043
 30
0.0
  0
VERTEX
  5
809
330
7FE
100
AcDbEntity
  8
0
370
     0
100
AcDbVertex
100
AcDb2dVertex
 10
905.966431
 20
272.400665
 30
0.0
  0
VERTEX
  5
80A
330
7FE
100
AcDbEntity
  8
0
370
     0
100
AcDbVertex
100
AcDb2dVertex
 10
904.388428
 20
274.705231
 30
0.0
  0
VERTEX
  5
80B
330
7FE
100
AcDbEntity
  8
0
370
     0
100
AcDbVertex
100
AcDb2dVertex
 10
902.529907
 20
276.353119
 30
0.0
  0
VERTEX
  5
80C
330
7FE
100
AcDbEntity
  8
0
370
     0
100
AcDbVertex
100
AcDb2dVertex
 10
900.559875
 20
277.194519
 30
0.0
  0
VERTEX
  5
80D
330
7FE
100
AcDbEntity
  8
0
370
     0
100
AcDbVertex
100
AcDb2dVertex
 10
899.603577
 20
277.137085
 30
0.0
  0
VERTEX
  5
80E
330
7FE
100
AcDbEntity
  8
0
370
     0
100
AcDbVertex
100
AcDb2dVertex
 10
904.155273
 20
281.249481
 30
0.0
  0
VERTEX
  5
80F
330
7FE
100
AcDbEntity
  8
0
370
     0
100
AcDbVertex
100
AcDb2dVertex
 10
910.406616
 20
275.706543
 30
0.0
  0
SEQEND
  5
810
330
7FE
100
AcDbEntity
  8
0
 62
     7
370
    13
  0
POLYLINE
  5
811
330
1F
100
AcDbEntity
  8
0
 62
     7
370
    13
100
AcDb2dPolyline
 66
     1
 10
0.0
 20
0.0
 30
0.0
 70
     1
  0
VERTEX
  5
812
330
811
100
AcDbEntity
  8
0
370
     0
100
AcDbVertex
100
AcDb2dVertex
 10
918.4151
 20
268.605652
 30
0.0
  0
VERTEX
  5
813
330
811
100
AcDbEntity
  8
0
370
     0
100
AcDbVertex
100
AcDb2dVertex
 10
916.107178
 20
269.746674
 30
0.0
  0
VERTEX
  5
814
330
811
100
AcDbEntity
  8
0
370
     0
100
AcDbVertex
100
AcDb2dVertex
 10
913.426392
 20
269.105774
 30
0.0
  0
VERTEX
  5
815
330
811
100
AcDbEntity
  8
0
370
     0
100
AcDbVertex
100
AcDb2dVertex
 10
911.421448
 20
267.865631
 30
0.0
  0
VERTEX
  5
816
330
811
100
AcDbEntity
  8
0
370
     0
100
AcDbVertex
100
AcDb2dVertex
 10
909.473938
 20
265.66922
 30
0.0
  0
VERTEX
  5
817
330
811
100
AcDbEntity
  8
0
370
     0
100
AcDbVertex
100
AcDb2dVertex
 10
908.033325
 20
263.023376
 30
0.0
  0
VERTEX
  5
818
330
811
100
AcDbEntity
  8
0
370
     0
100
AcDbVertex
100
AcDb2dVertex
 10
907.717896
 20
260.285156
 30
0.0
  0
VERTEX
  5
819
330
811
100
AcDbEntity
  8
0
370
     0
100
AcDbVertex
100
AcDb2dVertex
 10
909.127014
 20
258.130402
 30
0.0
  0
VERTEX
  5
81A
330
811
100
AcDbEntity
  8
0
370
     0
100
AcDbVertex
100
AcDb2dVertex
 10
910.478638
 20
256.931915
 30
0.0
  0
VERTEX
  5
81B
330
811
100
AcDbEntity
  8
0
370
     0
100
AcDbVertex
100
AcDb2dVertex
 10
912.78656
 20
255.790894
 30
0.0
  0
VERTEX
  5
81C
330
811
100
AcDbEntity
  8
0
370
     0
100
AcDbVertex
100
AcDb2dVertex
 10
915.467346
 20
256.431793
 30
0.0
  0
VERTEX
  5
81D
330
811
100
AcDbEntity
  8
0
370
     0
100
AcDbVertex
100
AcDb2dVertex
 10
917.771912
 20
258.009827
 30
0.0
  0
VERTEX
  5
81E
330
811
100
AcDbEntity
  8
0
370
     0
100
AcDbVertex
100
AcDb2dVertex
 10
919.869263
 20
260.375214
 30
0.0
  0
VERTEX
  5
81F
330
811
100
AcDbEntity
  8
0
370
     0
100
AcDbVertex
100
AcDb2dVertex
 10
920.860474
 20
262.514191
 30
0.0
  0
VERTEX
  5
820
330
811
100
AcDbEntity
  8
0
370
     0
100
AcDbVertex
100
AcDb2dVertex
 10
921.175842
 20
265.252411
 30
0.0
  0
VERTEX
  5
821
330
811
100
AcDbEntity
  8
0
370
     0
100
AcDbVertex
100
AcDb2dVertex
 10
919.766785
 20
267.407166
 30
0.0
  0
SEQEND
  5
822
330
811
100
AcDbEntity
  8
0
 62
     7
370
    13
  0
POLYLINE
  5
823
330
1F
100
AcDbEntity
  8
0
 62
     7
370
    13
100
AcDb2dPolyline
 66
     1
 10
0.0
 20
0.0
 30
0.0
  0
VERTEX
  5
824
330
823
100
AcDbEntity
  8
0
370
     0
100
AcDbVertex
100
AcDb2dVertex
 10
897.324585
 20
287.306
 30
0.0
  0
VERTEX
  5
825
330
823
100
AcDbEntity
  8
0
370
     0
100
AcDbVertex
100
AcDb2dVertex
 10
891.580139
 20
292.399475
 30
0.0
  0
SEQEND
  5
826
330
823
100
AcDbEntity
  8
0
 62
     7
370
    13
  0
POLYLINE
  5
827
330
1F
100
AcDbEntity
  8
0
 62
     7
370
    13
100
AcDb2dPolyline
 66
     1
 10
0.0
 20
0.0
 30
0.0
  0
VERTEX
  5
828
330
827
100
AcDbEntity
  8
0
370
     0
100
AcDbVertex
100
AcDb2dVertex
 10
887.085876
 20
287.330811
 30
0.0
  0
VERTEX
  5
829
330
827
100
AcDbEntity
  8
0
370
     0
100
AcDbVertex
100
AcDb2dVertex
 10
893.168274
 20
281.937714
 30
0.0
  0
SEQEND
  5
82A
330
827
100
AcDbEntity
  8
0
 62
     7
370
    13
  0
POLYLINE
  5
82B
330
1F
100
AcDbEntity
  8
0
 62
     7
370
    13
100
AcDb2dPolyline
 66
     1
 10
0.0
 20
0.0
 30
0.0
  0
VERTEX
  5
82C
330
82B
100
AcDbEntity
  8
0
370
     0
100
AcDbVertex
100
AcDb2dVertex
 10
891.580139
 20
292.399475
 30
0.0
  0
VERTEX
  5
82D
330
82B
100
AcDbEntity
  8
0
370
     0
100
AcDbVertex
100
AcDb2dVertex
 10
882.291992
 20
281.924225
 30
0.0
  0
SEQEND
  5
82E
330
82B
100
AcDbEntity
  8
0
 62
     7
370
    13
  0
POLYLINE
  5
82F
330
1F
100
AcDbEntity
  8
0
 62
     7
370
    13
100
AcDb2dPolyline
 66
     1
 10
0.0
 20
0.0
 30
0.0
  0
VERTEX
  5
830
330
82F
100
AcDbEntity
  8
0
370
     0
100
AcDbVertex
100
AcDb2dVertex
 10
897.324585
 20
287.306
 30
0.0
  0
VERTEX
  5
831
330
82F
100
AcDbEntity
  8
0
370
     0
100
AcDbVertex
100
AcDb2dVertex
 10
898.057861
 20
285.750488
 30
0.0
  0
VERTEX
  5
832
330
82F
100
AcDbEntity
  8
0
370
     0
100
AcDbVertex
100
AcDb2dVertex
 10
898.191895
 20
283.519135
 30
0.0
  0
VERTEX
  5
833
330
82F
100
AcDbEntity
  8
0
370
     0
100
AcDbVertex
100
AcDb2dVertex
 10
896.693848
 20
281.829559
 30
0.0
  0
VERTEX
  5
834
330
82F
100
AcDbEntity
  8
0
370
     0
100
AcDbVertex
100
AcDb2dVertex
 10
894.950195
 20
281.56488
 30
0.0
  0
VERTEX
  5
835
330
82F
100
AcDbEntity
  8
0
370
     0
100
AcDbVertex
100
AcDb2dVertex
 10
893.168274
 20
281.937714
 30
0.0
  0
SEQEND
  5
836
330
82F
100
AcDbEntity
  8
0
 62
     7
370
    13
  0
POLYLINE
  5
837
330
1F
100
AcDbEntity
  8
0
 62
     7
370
    13
100
AcDb2dPolyline
 66
     1
 10
0.0
 20
0.0
 30
0.0
  0
VERTEX
  5
838
330
837
100
AcDbEntity
  8
0
370
     0
100
AcDbVertex
100
AcDb2dVertex
 10
891.81665
 20
283.136169
 30
0.0
  0
VERTEX
  5
839
330
837
100
AcDbEntity
  8
0
370
     0
100
AcDbVertex
100
AcDb2dVertex
 10
890.401855
 20
274.733429
 30
0.0
  0
SEQEND
  5
83A
330
837
100
AcDbEntity
  8
0
 62
     7
370
    13
  0
ARC
  5
83B
330
1F
100
AcDbEntity
  8
0
 62
     7
370
    13
100
AcDbCircle
 10
934.141479
 20
233.277771
 30
0.0
 40
25.5
100
AcDbArc
 50
318.43749
 51
322.931262
  0
POLYLINE
  5
83C
330
1F
100
AcDbEntity
  8
0
 62
     7
370
    13
100
AcDb2dPolyline
 66
     1
 10
0.0
 20
0.0
 30
0.0
  0
VERTEX
  5
83D
330
83C
100
AcDbEntity
  8
0
370
     0
100
AcDbVertex
100
AcDb2dVertex
 10
951.432495
 20
217.254486
 30
0.0
  0
VERTEX
  5
83E
330
83C
100
AcDbEntity
  8
0
370
     0
100
AcDbVertex
100
AcDb2dVertex
 10
953.221375
 20
216.360138
 30
0.0
  0
VERTEX
  5
83F
330
83C
100
AcDbEntity
  8
0
370
     0
100
AcDbVertex
100
AcDb2dVertex
 10
952.119324
 20
218.029114
 30
0.0
  0
SEQEND
  5
840
330
83C
100
AcDbEntity
  8
0
 62
     7
370
    13
  0
LINE
  5
841
330
1F
100
AcDbEntity
  8
0
 62
     7
370
    13
100
AcDbLine
 10
953.221375
 20
216.360138
 30
0.0
 11
880.289307
 21
281.027008
 31
0.0
  0
LINE
  5
842
330
1F
100
AcDbEntity
  8
0
 62
     7
370
    35
100
AcDbLine
 10
1014.141479
 20
207.777771
 30
0.0
 11
1104.141479
 21
207.777771
 31
0.0
  0
LINE
  5
843
330
1F
100
AcDbEntity
  8
0
 62
     7
370
    35
100
AcDbLine
 10
1003.534912
 20
207.777771
 30
0.0
 11
1014.141479
 21
207.777771
 31
0.0
  0
ARC
  5
844
330
1F
100
AcDbEntity
  8
0
 62
     7
370
    35
100
AcDbCircle
 10
999.141479
 20
233.277771
 30
0.0
 40
25.5
100
AcDbArc
 50
180.000005
 51
269.999997
  0
LINE
  5
845
330
1F
100
AcDbEntity
  8
0
 62
     7
370
    35
100
AcDbLine
 10
999.141479
 20
207.777771
 30
0.0
 11
1003.534912
 21
207.777771
 31
0.0
  0
ARC
  5
846
330
1F
100
AcDbEntity
  8
0
 62
     7
370
    35
100
AcDbCircle
 10
1119.141479
 20
233.277771
 30
0.0
 40
25.5
100
AcDbArc
 50
269.999997
 51
360.0
  0
LINE
  5
847
330
1F
100
AcDbEntity
  8
0
 62
     7
370
    35
100
AcDbLine
 10
1114.748047
 20
207.777771
 30
0.0
 11
1119.141479
 21
207.777771
 31
0.0
  0
LINE
  5
848
330
1F
100
AcDbEntity
  8
0
 62
     7
370
    35
100
AcDbLine
 10
1104.141479
 20
207.777771
 30
0.0
 11
1114.748047
 21
207.777771
 31
0.0
  0
LINE
  5
849
330
1F
100
AcDbEntity
  8
0
 62
     7
370
    35
100
AcDbLine
 10
973.641479
 20
233.277771
 30
0.0
 11
973.641479
 21
307.777771
 31
0.0
  0
LINE
  5
84A
330
1F
100
AcDbEntity
  8
0
 62
     7
370
    35
100
AcDbLine
 10
1144.641479
 20
233.277771
 30
0.0
 11
1144.641479
 21
307.777771
 31
0.0
  0
LINE
  5
84B
330
1F
100
AcDbEntity
  8
0
 62
     7
370
    35
100
AcDbLine
 10
763.786133
 20
308.277771
 30
0.0
 11
749.141479
 21
308.277771
 31
0.0
  0
LINE
  5
84C
330
1F
100
AcDbEntity
  8
0
 62
     7
370
    35
100
AcDbLine
 10
799.141479
 20
308.277771
 30
0.0
 11
763.786133
 21
308.277771
 31
0.0
  0
LINE
  5
84D
330
1F
100
AcDbEntity
  8
0
 62
     7
370
    35
100
AcDbLine
 10
799.141479
 20
308.277771
 30
0.0
 11
1109.141479
 21
308.277771
 31
0.0
  0
LINE
  5
84E
330
1F
100
AcDbEntity
  8
0
 62
     7
370
    35
100
AcDbLine
 10
1144.496826
 20
308.277771
 30
0.0
 11
1109.141479
 21
308.277771
 31
0.0
  0
LINE
  5
84F
330
1F
100
AcDbEntity
  8
0
 62
     7
370
    35
100
AcDbLine
 10
1159.141479
 20
308.277771
 30
0.0
 11
1144.496826
 21
308.277771
 31
0.0
  0
LINE
  5
850
330
1F
100
AcDbEntity
  8
0
 62
     7
370
    35
100
AcDbLine
 10
1159.141479
 20
307.777771
 30
0.0
 11
1144.496826
 21
307.777771
 31
0.0
  0
LINE
  5
851
330
1F
100
AcDbEntity
  8
0
 62
     7
370
    35
100
AcDbLine
 10
1144.496826
 20
307.777771
 30
0.0
 11
1109.141479
 21
307.777771
 31
0.0
  0
LINE
  5
852
330
1F
100
AcDbEntity
  8
0
 62
     7
370
    35
100
AcDbLine
 10
799.141479
 20
307.777771
 30
0.0
 11
1109.141479
 21
307.777771
 31
0.0
  0
LINE
  5
853
330
1F
100
AcDbEntity
  8
0
 62
     7
370
    35
100
AcDbLine
 10
799.141479
 20
307.777771
 30
0.0
 11
763.786133
 21
307.777771
 31
0.0
  0
LINE
  5
854
330
1F
100
AcDbEntity
  8
0
 62
     7
370
    35
100
AcDbLine
 10
763.786133
 20
307.777771
 30
0.0
 11
749.141479
 21
307.777771
 31
0.0
  0
LINE
  5
855
330
1F
100
AcDbEntity
  8
0
 62
     7
370
    35
100
AcDbLine
 10
1159.141479
 20
307.777771
 30
0.0
 11
1159.141479
 21
308.277771
 31
0.0
  0
LINE
  5
856
330
1F
100
AcDbEntity
  8
0
 62
     7
370
    35
100
AcDbLine
 10
749.141479
 20
307.777771
 30
0.0
 11
749.141479
 21
308.277771
 31
0.0
  0
LINE
  5
857
330
1F
100
AcDbEntity
  8
0
 62
     7
370
    13
100
AcDbLine
 10
799.141479
 20
307.777771
 30
0.0
 11
799.141479
 21
308.277771
 31
0.0
  0
LINE
  5
858
330
1F
100
AcDbEntity
  8
0
 62
     7
370
    13
100
AcDbLine
 10
1109.141479
 20
307.777771
 30
0.0
 11
1109.141479
 21
308.277771
 31
0.0
  0
LINE
  5
859
330
1F
100
AcDbEntity
  8
0
 62
     7
370
    35
100
AcDbLine
 10
763.641479
 20
233.277771
 30
0.0
 11
763.641479
 21
307.777771
 31
0.0
  0
LINE
  5
85A
330
1F
100
AcDbEntity
  8
0
 62
     7
370
    35
100
AcDbLine
 10
959.641479
 20
307.777771
 30
0.0
 11
959.641479
 21
233.277771
 31
0.0
  0
ARC
  5
85B
330
1F
100
AcDbEntity
  8
0
 62
     7
370
    35
100
AcDbCircle
 10
789.141479
 20
233.277771
 30
0.0
 40
25.5
100
AcDbArc
 50
179.999995
 51
269.999997
  0
LINE
  5
85C
330
1F
100
AcDbEntity
  8
0
 62
     7
370
    35
100
AcDbLine
 10
789.141479
 20
207.777771
 30
0.0
 11
793.534912
 21
207.777771
 31
0.0
  0
LINE
  5
85D
330
1F
100
AcDbEntity
  8
0
 62
     7
370
    35
100
AcDbLine
 10
793.534912
 20
207.777771
 30
0.0
 11
804.141479
 21
207.777771
 31
0.0
  0
LINE
  5
85E
330
1F
100
AcDbEntity
  8
0
 62
     7
370
    35
100
AcDbLine
 10
929.748108
 20
207.777771
 30
0.0
 11
919.141479
 21
207.777771
 31
0.0
  0
LINE
  5
85F
330
1F
100
AcDbEntity
  8
0
 62
     7
370
    35
100
AcDbLine
 10
934.141479
 20
207.777771
 30
0.0
 11
929.748108
 21
207.777771
 31
0.0
  0
ARC
  5
860
330
1F
100
AcDbEntity
  8
0
 62
     7
370
    35
100
AcDbCircle
 10
934.141479
 20
233.277771
 30
0.0
 40
25.5
100
AcDbArc
 50
269.999997
 51
360.0
  0
LINE
  5
861
330
1F
100
AcDbEntity
  8
0
 62
     7
370
    35
100
AcDbLine
 10
919.141479
 20
207.777771
 30
0.0
 11
804.141479
 21
207.777771
 31
0.0
  0
LINE
  5
862
330
1F
100
AcDbEntity
  8
0
 62
     7
370
    13
100
AcDbLine
 10
1070.424805
 20
596.740967
 30
0.0
 11
1045.334229
 21
664.928284
 31
0.0
  0
ELLIPSE
  5
863
330
1F
100
AcDbEntity
  8
0
 62
     7
370
    13
100
AcDbEllipse
 10
1021.236084
 20
660.415894
 30
0.0
 11
23.46203613281249
 21
8.633239746093748
 31
0.0
210
0.0
220
0.0
230
1.0
 40
0.641261
 41
4.454608191375629
 42
6.025404518170525
  0
LINE
  5
864
330
1F
100
AcDbEntity
  8
0
 62
     7
370
    13
100
AcDbLine
 10
1041.428101
 20
587.085022
 30
0.0
 11
1020.608032
 21
643.666809
 31
0.0
  0
ELLIPSE
  5
865
330
1F
100
AcDbEntity
  8
0
 62
     7
370
    13
100
AcDbEllipse
 10
1006.149109
 20
640.959351
 30
0.0
 11
14.98944091796875
 21
-0.56207275390625
 31
0.0
210
0.0
220
0.0
230
1.0
 40
0.741969
 41
0.2960846601882975
 42
1.866880987021272
  0
ELLIPSE
  5
866
330
1F
100
AcDbEntity
  8
0
 62
     7
370
    13
100
AcDbEllipse
 10
1006.777161
 20
657.708435
 30
0.0
 11
39.971923828125
 21
-1.4989013671875
 31
0.0
210
0.0
220
0.0
230
1.0
 40
0.741969
 41
0.2960846602073368
 42
1.866880987002233
  0
ELLIPSE
  5
867
330
1F
100
AcDbEntity
  8
0
 62
     7
370
    13
100
AcDbEllipse
 10
1002.80249
 20
668.510254
 30
0.0
 11
4.60125732421875
 21
-24.57293701171875
 31
0.0
210
0.0
220
0.0
230
1.0
 40
0.195618
 41
3.854312862049345
 42
5.425109188844242
  0
LINE
  5
868
330
1F
100
AcDbEntity
  8
0
 62
     7
370
    13
100
AcDbLine
 10
996.17804
 20
686.513184
 30
0.0
 11
909.424622
 21
670.268555
 31
0.0
  0
ELLIPSE
  5
869
330
1F
100
AcDbEntity
  8
0
 62
     7
370
    13
100
AcDbEllipse
 10
916.049072
 20
652.265625
 30
0.0
 11
4.60125732421875
 21
-24.57293701171875
 31
0.0
210
0.0
220
0.0
230
1.0
 40
0.195618
 41
3.854312862049345
 42
5.425109188844242
  0
LINE
  5
86A
330
1F
100
AcDbEntity
  8
0
 62
     7
370
    13
100
AcDbLine
 10
1002.174438
 20
651.761108
 30
0.0
 11
915.421021
 21
635.516541
 31
0.0
  0
ELLIPSE
  5
86B
330
1F
100
AcDbEntity
  8
0
 62
     7
370
    13
100
AcDbEllipse
 10
919.395691
 20
624.714783
 30
0.0
 11
14.98944091796875
 21
-0.56207275390625
 31
0.0
210
0.0
220
0.0
230
1.0
 40
0.741969
 41
1.866880986983195
 42
3.007812560270923
  0
ELLIPSE
  5
86C
330
1F
100
AcDbEntity
  8
0
 62
     7
370
    13
100
AcDbEllipse
 10
920.023743
 20
641.463867
 30
0.0
 11
39.971923828125
 21
-1.4989013671875
 31
0.0
210
0.0
220
0.0
230
1.0
 40
0.741969
 41
1.866880987002233
 42
2.39703065006683
  0
ELLIPSE
  5
86D
330
1F
100
AcDbEntity
  8
0
 62
     7
370
    13
100
AcDbEllipse
 10
957.120789
 20
540.647278
 30
0.0
 11
4.69329833984375
 21
-25.06439208984375
 31
0.0
210
0.0
220
0.0
230
1.0
 40
0.195618
 41
6.283182759305586
 42
6.995905515639137
  0
ELLIPSE
  5
86E
330
1F
100
AcDbEntity
  8
0
 62
     7
370
    13
100
AcDbEllipse
 10
953.146118
 20
551.449036
 30
0.0
 11
40.4715576171875
 21
-1.51763916015625
 31
0.0
210
0.0
220
0.0
230
1.0
 40
0.741969
 41
3.43767731379713
 42
5.008473640592027
  0
ELLIPSE
  5
86F
330
1F
100
AcDbEntity
  8
0
 62
     7
370
    13
100
AcDbEllipse
 10
938.687195
 20
548.741638
 30
0.0
 11
-23.9312744140625
 21
-8.805908203125
 31
0.0
210
0.0
220
0.0
230
1.0
 40
0.641261
 41
6.025404518170525
 42
6.28314334224534
  0
ELLIPSE
  5
870
330
1F
100
AcDbEntity
  8
0
 62
     7
370
    13
100
AcDbEllipse
 10
1039.899536
 20
567.693665
 30
0.0
 11
40.4715576171875
 21
-1.51763916015625
 31
0.0
210
0.0
220
0.0
230
1.0
 40
0.741969
 41
5.008473640592026
 42
6.283236041041779
  0
ELLIPSE
  5
871
330
1F
100
AcDbEntity
  8
0
 62
     7
370
    13
100
AcDbEllipse
 10
1043.874268
 20
556.891907
 30
0.0
 11
4.69329833984375
 21
-25.06439208984375
 31
0.0
210
0.0
220
0.0
230
1.0
 40
0.195618
 41
6.283182759305715
 42
6.995905515639137
  0
ELLIPSE
  5
872
330
1F
100
AcDbEntity
  8
0
 62
     7
370
    35
100
AcDbEllipse
 10
1041.783691
 20
617.940918
 30
0.0
 11
39.971923828125
 21
-1.4989013671875
 31
0.0
210
0.0
220
0.0
230
1.0
 40
0.741969
 41
5.008473640592026
 42
6.283157085611432
  0
ELLIPSE
  5
873
330
1F
100
AcDbEntity
  8
0
 62
     7
370
    35
100
AcDbEllipse
 10
1041.783691
 20
617.940918
 30
0.0
 11
39.971923828125
 21
-1.4989013671875
 31
0.0
210
0.0
220
0.0
230
1.0
 40
0.741969
 41
6.283157085611432
 42
6.579269967386923
  0
LINE
  5
874
330
1F
100
AcDbEntity
  8
0
 62
     7
370
    13
100
AcDbLine
 10
1079.691895
 20
607.853699
 30
0.0
 11
1080.34082
 21
625.160767
 31
0.0
  0
LINE
  5
875
330
1F
100
AcDbEntity
  8
0
 62
     7
370
    35
100
AcDbLine
 10
1080.34082
 20
625.160767
 30
0.0
 11
1047.218506
 21
715.175537
 31
0.0
  0
LINE
  5
876
330
1F
100
AcDbEntity
  8
0
 62
     7
370
    13
100
AcDbLine
 10
1047.218506
 20
715.175537
 30
0.0
 11
1045.334229
 21
664.928284
 31
0.0
  0
ELLIPSE
  5
877
330
1F
100
AcDbEntity
  8
0
 62
     7
370
    35
100
AcDbEllipse
 10
1008.661377
 20
707.955688
 30
0.0
 11
39.971923828125
 21
-1.4989013671875
 31
0.0
210
0.0
220
0.0
230
1.0
 40
0.741969
 41
0.2960846602073368
 42
1.866880987002233
  0
LINE
  5
878
330
1F
100
AcDbEntity
  8
0
 62
     7
370
    13
100
AcDbLine
 10
996.17804
 20
686.513184
 30
0.0
 11
998.062256
 21
736.760437
 31
0.0
  0
LINE
  5
879
330
1F
100
AcDbEntity
  8
0
 62
     7
370
    35
100
AcDbLine
 10
998.062256
 20
736.760437
 30
0.0
 11
911.308838
 21
720.515869
 31
0.0
  0
LINE
  5
87A
330
1F
100
AcDbEntity
  8
0
 62
     7
370
    13
100
AcDbLine
 10
911.308838
 20
720.515869
 30
0.0
 11
909.424622
 21
670.268555
 31
0.0
  0
ELLIPSE
  5
87B
330
1F
100
AcDbEntity
  8
0
 62
     7
370
    35
100
AcDbEllipse
 10
921.907959
 20
691.711121
 30
0.0
 11
39.971923828125
 21
-1.4989013671875
 31
0.0
210
0.0
220
0.0
230
1.0
 40
0.741969
 41
1.866880987002233
 42
3.141564432021637
  0
ELLIPSE
  5
87C
330
1F
100
AcDbEntity
  8
0
 62
     7
370
    35
100
AcDbEllipse
 10
921.907959
 20
691.711121
 30
0.0
 11
39.971923828125
 21
-1.4989013671875
 31
0.0
210
0.0
220
0.0
230
1.0
 40
0.741969
 41
3.141564432021637
 42
3.43767731379713
  0
LINE
  5
87D
330
1F
100
AcDbEntity
  8
0
 62
     7
370
    35
100
AcDbLine
 10
883.350891
 20
684.491272
 30
0.0
 11
916.473267
 21
594.476501
 31
0.0
  0
ELLIPSE
  5
87E
330
1F
100
AcDbEntity
  8
0
 62
     7
370
    35
100
AcDbEllipse
 10
955.030334
 20
601.696289
 30
0.0
 11
39.971923828125
 21
-1.4989013671875
 31
0.0
210
0.0
220
0.0
230
1.0
 40
0.741969
 41
3.43767731379713
 42
5.008473640592026
  0
LINE
  5
87F
330
1F
100
AcDbEntity
  8
0
 62
     7
370
    35
100
AcDbLine
 10
965.629456
 20
572.891602
 30
0.0
 11
1052.382935
 21
589.136169
 31
0.0
  0
LINE
  5
880
330
1F
100
AcDbEntity
  8
0
 62
     7
370
    13
100
AcDbLine
 10
963.877747
 20
522.284302
 30
0.0
 11
1050.631104
 21
538.52887
 31
0.0
  0
LINE
  5
881
330
1F
100
AcDbEntity
  8
0
 62
     7
370
    13
100
AcDbLine
 10
963.877747
 20
522.284302
 30
0.0
 11
965.400574
 21
562.894409
 31
0.0
  0
LINE
  5
882
330
1F
100
AcDbEntity
  8
0
 62
     7
370
    13
100
AcDbLine
 10
914.107056
 20
544.138977
 30
0.0
 11
914.452637
 21
553.354492
 31
0.0
  0
LINE
  5
883
330
1F
100
AcDbEntity
  8
0
 62
     7
370
    13
100
AcDbLine
 10
910.956909
 20
552.69989
 30
0.0
 11
914.107056
 21
544.138977
 31
0.0
  0
LINE
  5
884
330
1F
100
AcDbEntity
  8
0
 62
     7
370
    13
100
AcDbLine
 10
1052.154053
 20
579.139038
 30
0.0
 11
1050.631104
 21
538.52887
 31
0.0
  0
LINE
  5
885
330
1F
100
AcDbEntity
  8
0
 62
     7
370
    35
100
AcDbLine
 10
1095.462158
 20
626.067871
 30
0.0
 11
1061.014893
 21
719.683228
 31
0.0
  0
ELLIPSE
  5
886
330
1F
100
AcDbEntity
  8
0
 62
     7
370
    35
100
AcDbEllipse
 10
1012.818604
 20
710.658508
 30
0.0
 11
49.96490478515625
 21
-1.8736572265625
 31
0.0
210
0.0
220
0.0
230
1.0
 40
0.741969
 41
0.2960846602073368
 42
1.866880987002233
  0
LINE
  5
887
330
1F
100
AcDbEntity
  8
0
 62
     7
370
    35
100
AcDbLine
 10
870.292969
 20
722.457275
 30
0.0
 11
999.569641
 21
746.664429
 31
0.0
  0
ELLIPSE
  5
888
330
1F
100
AcDbEntity
  8
0
 62
     7
370
    35
100
AcDbEllipse
 10
866.980713
 20
731.458801
 30
0.0
 11
12.4912109375
 21
-0.4683837890625
 31
0.0
210
0.0
220
0.0
230
1.0
 40
0.741969
 41
3.984528264493335
 42
5.008473640592026
  0
ELLIPSE
  5
889
330
1F
100
AcDbEntity
  8
0
 62
     7
370
    35
100
AcDbEllipse
 10
824.132935
 20
698.419128
 30
0.0
 11
49.96490478515625
 21
-1.8736572265625
 31
0.0
210
0.0
220
0.0
230
1.0
 40
0.741969
 41
0.8429356109032835
 42
1.866880987002234
  0
LINE
  5
88A
330
1F
100
AcDbEntity
  8
0
 62
     7
370
    35
100
AcDbLine
 10
692.802979
 20
712.314331
 30
0.0
 11
810.883972
 21
734.425049
 31
0.0
  0
ELLIPSE
  5
88B
330
1F
100
AcDbEntity
  8
0
 62
     7
370
    35
100
AcDbEllipse
 10
706.05188
 20
676.308411
 30
0.0
 11
49.96490478515625
 21
-1.8736572265625
 31
0.0
210
0.0
220
0.0
230
1.0
 40
0.741969
 41
1.866880986983194
 42
3.141643387463851
  0
ELLIPSE
  5
88C
330
1F
100
AcDbEntity
  8
0
 62
     7
370
    35
100
AcDbEllipse
 10
706.05188
 20
676.308411
 30
0.0
 11
49.96490478515625
 21
-1.8736572265625
 31
0.0
210
0.0
220
0.0
230
1.0
 40
0.741969
 41
3.141643387463851
 42
3.437677313816168
  0
LINE
  5
88D
330
1F
100
AcDbEntity
  8
0
 62
     7
370
    35
100
AcDbLine
 10
700.252136
 20
552.064697
 30
0.0
 11
657.85553
 21
667.28363
 31
0.0
  0
ELLIPSE
  5
88E
330
1F
100
AcDbEntity
  8
0
 62
     7
370
    35
100
AcDbEllipse
 10
748.448486
 20
561.089478
 30
0.0
 11
49.96490478515625
 21
-1.8736572265625
 31
0.0
210
0.0
220
0.0
230
1.0
 40
0.741969
 41
3.437677313787129
 42
5.008473640592025
  0
LINE
  5
88F
330
1F
100
AcDbEntity
  8
0
 62
     7
370
    35
100
AcDbLine
 10
761.697449
 20
525.083557
 30
0.0
 11
1060.514771
 21
581.03717
 31
0.0
  0
ELLIPSE
  5
890
330
1F
100
AcDbEntity
  8
0
 62
     7
370
    35
100
AcDbEllipse
 10
1047.265869
 20
617.043091
 30
0.0
 11
49.96490478515625
 21
-1.8736572265625
 31
0.0
210
0.0
220
0.0
230
1.0
 40
0.741969
 41
5.008473640592026
 42
6.283236041041779
  0
ELLIPSE
  5
891
330
1F
100
AcDbEntity
  8
0
 62
     7
370
    35
100
AcDbEllipse
 10
1047.265869
 20
617.043091
 30
0.0
 11
49.96490478515625
 21
-1.8736572265625
 31
0.0
210
0.0
220
0.0
230
1.0
 40
0.741969
 41
0.000050733862195
 42
0.2960846602073356
  0
LINE
  5
892
330
1F
100
AcDbEntity
  8
0
 62
     7
370
    35
100
AcDbLine
 10
714.048584
 20
556.572449
 30
0.0
 11
672.976929
 21
668.190735
 31
0.0
  0
ELLIPSE
  5
893
330
1F
100
AcDbEntity
  8
0
 62
     7
370
    35
100
AcDbEllipse
 10
711.533936
 20
675.410583
 30
0.0
 11
39.971923828125
 21
-1.4989013671875
 31
0.0
210
0.0
220
0.0
230
1.0
 40
0.741969
 41
1.866880987002233
 42
3.141564432021638
  0
ELLIPSE
  5
894
330
1F
100
AcDbEntity
  8
0
 62
     7
370
    35
100
AcDbEllipse
 10
711.533936
 20
675.410583
 30
0.0
 11
39.971923828125
 21
-1.4989013671875
 31
0.0
210
0.0
220
0.0
230
1.0
 40
0.741969
 41
3.141564432021638
 42
3.43767731379713
  0
LINE
  5
895
330
1F
100
AcDbEntity
  8
0
 62
     7
370
    35
100
AcDbLine
 10
700.934814
 20
704.215332
 30
0.0
 11
811.786438
 21
724.97229
 31
0.0
  0
ELLIPSE
  5
896
330
1F
100
AcDbEntity
  8
0
 62
     7
370
    35
100
AcDbEllipse
 10
822.385559
 20
696.167603
 30
0.0
 11
39.971923828125
 21
-1.4989013671875
 31
0.0
210
0.0
220
0.0
230
1.0
 40
0.741969
 41
0.2960846602073368
 42
1.866880987002234
  0
LINE
  5
897
330
1F
100
AcDbEntity
  8
0
 62
     7
370
    35
100
AcDbLine
 10
860.942627
 20
703.38739
 30
0.0
 11
902.014343
 21
591.769043
 31
0.0
  0
ELLIPSE
  5
898
330
1F
100
AcDbEntity
  8
0
 62
     7
370
    35
100
AcDbEllipse
 10
863.457275
 20
584.549255
 30
0.0
 11
39.971923828125
 21
-1.4989013671875
 31
0.0
210
0.0
220
0.0
230
1.0
 40
0.741969
 41
5.008473640592026
 42
6.283157085611432
  0
ELLIPSE
  5
899
330
1F
100
AcDbEntity
  8
0
 62
     7
370
    35
100
AcDbEllipse
 10
863.457275
 20
584.549255
 30
0.0
 11
39.971923828125
 21
-1.4989013671875
 31
0.0
210
0.0
220
0.0
230
1.0
 40
0.741969
 41
6.283157085611432
 42
6.579269967386923
  0
LINE
  5
89A
330
1F
100
AcDbEntity
  8
0
 62
     7
370
    35
100
AcDbLine
 10
874.056396
 20
555.744507
 30
0.0
 11
763.204834
 21
534.987549
 31
0.0
  0
ELLIPSE
  5
89B
330
1F
100
AcDbEntity
  8
0
 62
     7
370
    35
100
AcDbEllipse
 10
752.605713
 20
563.792236
 30
0.0
 11
39.971923828125
 21
-1.4989013671875
 31
0.0
210
0.0
220
0.0
230
1.0
 40
0.741969
 41
3.43767731379713
 42
5.008473640592026
  0
ELLIPSE
  5
89C
330
1F
100
AcDbEntity
  8
0
 62
     7
370
    35
100
AcDbEllipse
 10
1047.253296
 20
616.70813
 30
0.0
 11
49.96490478515625
 21
-1.8736572265625
 31
0.0
210
0.0
220
0.0
230
1.0
 40
0.741969
 41
5.008473640592026
 42
6.28323604104178
  0
LINE
  5
89D
330
1F
100
AcDbEntity
  8
0
 62
     7
370
    35
100
AcDbLine
 10
761.684875
 20
524.748596
 30
0.0
 11
1060.502197
 21
580.702209
 31
0.0
  0
ELLIPSE
  5
89E
330
1F
100
AcDbEntity
  8
0
 62
     7
370
    35
100
AcDbEllipse
 10
748.435913
 20
560.754517
 30
0.0
 11
49.96490478515625
 21
-1.8736572265625
 31
0.0
210
0.0
220
0.0
230
1.0
 40
0.741969
 41
3.43767731379713
 42
5.008473640592029
  0
LINE
  5
89F
330
1F
100
AcDbEntity
  8
0
 62
     7
370
    35
100
AcDbLine
 10
700.239563
 20
551.729736
 30
0.0
 11
657.843018
 21
666.948608
 31
0.0
  0
ELLIPSE
  5
8A0
330
1F
100
AcDbEntity
  8
0
 62
     7
370
    35
100
AcDbEllipse
 10
706.039307
 20
675.973389
 30
0.0
 11
49.96490478515625
 21
-1.8736572265625
 31
0.0
210
0.0
220
0.0
230
1.0
 40
0.741969
 41
3.141643387451989
 42
3.43767731379713
  0
LINE
  5
8A1
330
1F
100
AcDbEntity
  8
0
 62
     7
370
    13
100
AcDbLine
 10
657.843018
 20
666.948608
 30
0.0
 11
657.85553
 21
667.28363
 31
0.0
  0
LINE
  5
8A2
330
1F
100
AcDbEntity
  8
0
 62
     7
370
    13
100
AcDbLine
 10
700.239563
 20
551.729736
 30
0.0
 11
700.252136
 21
552.064697
 31
0.0
  0
LINE
  5
8A3
330
1F
100
AcDbEntity
  8
0
 62
     7
370
    13
100
AcDbLine
 10
761.684875
 20
524.748596
 30
0.0
 11
761.697449
 21
525.083557
 31
0.0
  0
LINE
  5
8A4
330
1F
100
AcDbEntity
  8
0
 62
     7
370
    13
100
AcDbLine
 10
1060.502197
 20
580.702209
 30
0.0
 11
1060.514771
 21
581.03717
 31
0.0
  0
ELLIPSE
  5
8A5
330
1F
100
AcDbEntity
  8
0
 62
     7
370
    13
100
AcDbEllipse
 10
709.64978
 20
625.16333
 30
0.0
 11
39.971923828125
 21
-1.4989013671875
 31
0.0
210
0.0
220
0.0
230
1.0
 40
0.741969
 41
1.866880987002233
 42
2.39703065006683
  0
LINE
  5
8A6
330
1F
100
AcDbEntity
  8
0
 62
     7
370
    13
100
AcDbLine
 10
700.934814
 20
704.215332
 30
0.0
 11
699.050598
 21
653.968079
 31
0.0
  0
LINE
  5
8A7
330
1F
100
AcDbEntity
  8
0
 62
     7
370
    13
100
AcDbLine
 10
699.050598
 20
653.968079
 30
0.0
 11
809.902161
 21
674.725037
 31
0.0
  0
LINE
  5
8A8
330
1F
100
AcDbEntity
  8
0
 62
     7
370
    13
100
AcDbLine
 10
809.902161
 20
674.725037
 30
0.0
 11
811.786438
 21
724.97229
 31
0.0
  0
LINE
  5
8A9
330
1F
100
AcDbEntity
  8
0
 62
     7
370
    13
100
AcDbLine
 10
859.058411
 20
653.140137
 30
0.0
 11
860.942627
 21
703.38739
 31
0.0
  0
ELLIPSE
  5
8AA
330
1F
100
AcDbEntity
  8
0
 62
     7
370
    13
100
AcDbEllipse
 10
820.501343
 20
645.920288
 30
0.0
 11
39.971923828125
 21
-1.4989013671875
 31
0.0
210
0.0
220
0.0
230
1.0
 40
0.741969
 41
0.2960846602073368
 42
1.866880987002233
  0
LINE
  5
8AB
330
1F
100
AcDbEntity
  8
0
 62
     7
370
    13
100
AcDbLine
 10
859.058411
 20
653.140137
 30
0.0
 11
892.098389
 21
563.349304
 31
0.0
  0
LINE
  5
8AC
330
1F
100
AcDbEntity
  8
0
 62
     7
370
    13
100
AcDbLine
 10
901.365356
 20
574.462036
 30
0.0
 11
902.014343
 21
591.769043
 31
0.0
  0
LINE
  5
8AD
330
1F
100
AcDbEntity
  8
0
 62
     7
370
    13
100
AcDbLine
 10
711.682434
 20
506.234924
 30
0.0
 11
712.774292
 21
535.352112
 31
0.0
  0
ELLIPSE
  5
8AE
330
1F
100
AcDbEntity
  8
0
 62
     7
370
    13
100
AcDbEllipse
 10
750.721436
 20
513.544983
 30
0.0
 11
40.4715576171875
 21
-1.51763916015625
 31
0.0
210
0.0
220
0.0
230
1.0
 40
0.741969
 41
3.43767731379713
 42
5.008473640592025
  0
LINE
  5
8AF
330
1F
100
AcDbEntity
  8
0
 62
     7
370
    13
100
AcDbLine
 10
762.975952
 20
524.990356
 30
0.0
 11
761.453125
 21
484.380188
 31
0.0
  0
LINE
  5
8B0
330
1F
100
AcDbEntity
  8
0
 62
     7
370
    13
100
AcDbLine
 10
873.827515
 20
545.747314
 30
0.0
 11
872.304688
 21
505.137207
 31
0.0
  0
LINE
  5
8B1
330
1F
100
AcDbEntity
  8
0
 62
     7
370
    13
100
AcDbLine
 10
872.304688
 20
505.137207
 30
0.0
 11
761.453125
 21
484.380188
 31
0.0
  0
ELLIPSE
  5
8B2
330
1F
100
AcDbEntity
  8
0
 62
     7
370
    13
100
AcDbEllipse
 10
861.573059
 20
534.302002
 30
0.0
 11
40.4715576171875
 21
-1.51763916015625
 31
0.0
210
0.0
220
0.0
230
1.0
 40
0.741969
 41
5.008473640592026
 42
6.283236041041779
  0
ELLIPSE
  5
8B3
330
1F
100
AcDbEntity
  8
0
 62
     7
370
    13
100
AcDbEllipse
 10
709.64978
 20
625.16333
 30
0.0
 11
40.4715576171875
 21
-1.51763916015625
 31
0.0
210
0.0
220
0.0
230
1.0
 40
0.741969
 41
3.141643387451987
 42
3.43767731379713
  0
LINE
  5
8B4
330
1F
100
AcDbEntity
  8
0
 62
     7
370
    13
100
AcDbLine
 10
671.100647
 20
630.919067
 30
0.0
 11
670.610718
 21
617.853271
 31
0.0
  0
LINE
  5
8B5
330
1F
100
AcDbEntity
  8
0
 62
     7
370
    13
100
AcDbLine
 10
711.682434
 20
506.234924
 30
0.0
 11
670.610718
 21
617.853271
 31
0.0
  0
ELLIPSE
  5
8B6
330
1F
100
AcDbEntity
  8
0
 62
     7
370
    13
100
AcDbEllipse
 10
709.021667
 20
608.414246
 30
0.0
 11
14.98944091796875
 21
-0.56207275390625
 31
0.0
210
0.0
220
0.0
230
1.0
 40
0.741969
 41
1.866880986983195
 42
3.007812560270923
  0
ELLIPSE
  5
8B7
330
1F
100
AcDbEntity
  8
0
 62
     7
370
    13
100
AcDbEllipse
 10
705.675049
 20
635.965088
 30
0.0
 11
4.60125732421875
 21
-24.57293701171875
 31
0.0
210
0.0
220
0.0
230
1.0
 40
0.195618
 41
3.854312862049345
 42
5.425109188844242
  0
LINE
  5
8B8
330
1F
100
AcDbEntity
  8
0
 62
     7
370
    13
100
AcDbLine
 10
705.046997
 20
619.216003
 30
0.0
 11
815.89856
 21
639.973022
 31
0.0
  0
ELLIPSE
  5
8B9
330
1F
100
AcDbEntity
  8
0
 62
     7
370
    13
100
AcDbEllipse
 10
816.526672
 20
656.722107
 30
0.0
 11
4.60125732421875
 21
-24.57293701171875
 31
0.0
210
0.0
220
0.0
230
1.0
 40
0.195618
 41
3.854312862049345
 42
5.425109188844242
  0
ELLIPSE
  5
8BA
330
1F
100
AcDbEntity
  8
0
 62
     7
370
    13
100
AcDbEllipse
 10
819.873291
 20
629.171204
 30
0.0
 11
14.98944091796875
 21
-0.56207275390625
 31
0.0
210
0.0
220
0.0
230
1.0
 40
0.741969
 41
0.296084660188297
 42
1.866880987021272
  0
ELLIPSE
  5
8BB
330
1F
100
AcDbEntity
  8
0
 62
     7
370
    13
100
AcDbEllipse
 10
834.960266
 20
648.627747
 30
0.0
 11
-23.46203613281249
 21
-8.633239746093748
 31
0.0
210
0.0
220
0.0
230
1.0
 40
0.641261
 41
1.313015537785836
 42
2.883811864580733
  0
LINE
  5
8BC
330
1F
100
AcDbEntity
  8
0
 62
     7
370
    13
100
AcDbLine
 10
834.332153
 20
631.878662
 30
0.0
 11
863.101685
 21
553.693359
 31
0.0
  0
ELLIPSE
  5
8BD
330
1F
100
AcDbEntity
  8
0
 62
     7
370
    13
100
AcDbEllipse
 10
736.262573
 20
510.837555
 30
0.0
 11
23.9312744140625
 21
8.805908203125
 31
0.0
210
0.0
220
0.0
230
1.0
 40
0.641261
 41
2.883811864580733
 42
3.141550688655547
  0
ELLIPSE
  5
8BE
330
1F
100
AcDbEntity
  8
0
 62
     7
370
    13
100
AcDbEllipse
 10
754.696167
 20
502.743225
 30
0.0
 11
-4.69329833984375
 21
25.06439208984375
 31
0.0
210
0.0
220
0.0
230
1.0
 40
0.195618
 41
3.141590105715916
 42
3.854312862049344
  0
ELLIPSE
  5
8BF
330
1F
100
AcDbEntity
  8
0
 62
     7
370
    13
100
AcDbEllipse
 10
865.547729
 20
523.500183
 30
0.0
 11
-4.69329833984375
 21
25.06439208984375
 31
0.0
210
0.0
220
0.0
230
1.0
 40
0.195618
 41
3.141604644515249
 42
3.854312862049344
  0
ELLIPSE
  5
8C0
330
1F
100
AcDbEntity
  8
0
 62
     7
370
    13
100
AcDbEllipse
 10
695.190857
 20
622.455872
 30
0.0
 11
23.9312744140625
 21
8.805908203125
 31
0.0
210
0.0
220
0.0
230
1.0
 40
0.641261
 41
2.883811864580733
 42
3.141550688655547
  0
ELLIPSE
  5
8C1
330
1F
100
AcDbEntity
  8
0
 62
     7
370
    35
100
AcDbEllipse
 10
778.346313
 20
580.65155
 30
0.0
 11
22.48419189453125
 21
-0.8431396484375002
 31
0.0
210
0.0
220
0.0
230
1.0
 40
0.741969
 41
0.0100294357792149
 42
0.2960846602073364
  0
ELLIPSE
  5
8C2
330
1F
100
AcDbEntity
  8
0
 62
     7
370
    35
100
AcDbEllipse
 10
778.346313
 20
580.65155
 30
0.0
 11
22.48419189453125
 21
-0.8431396484375002
 31
0.0
210
0.0
220
0.0
230
1.0
 40
0.741969
 41
0.2960846602073369
 42
3.131565954781399
  0
ELLIPSE
  5
8C3
330
1F
100
AcDbEntity
  8
0
 62
     7
370
    35
100
AcDbEllipse
 10
778.358826
 20
580.986511
 30
0.0
 11
22.48419189453125
 21
-0.8431396484375002
 31
0.0
210
0.0
220
0.0
230
1.0
 40
0.741969
 41
6.283145864975098
 42
9.42473851856489
  0
ELLIPSE
  5
8C4
330
1F
100
AcDbEntity
  8
0
 62
     7
370
    35
100
AcDbEllipse
 10
778.358826
 20
580.986511
 30
0.0
 11
22.48419189453125
 21
-0.8431396484375002
 31
0.0
210
0.0
220
0.0
230
1.0
 40
0.741969
 41
3.141553211385304
 42
3.437677313797129
  0
ELLIPSE
  5
8C5
330
1F
100
AcDbEntity
  8
0
 62
     7
370
    35
100
AcDbEllipse
 10
778.358826
 20
580.986511
 30
0.0
 11
22.48419189453125
 21
-0.8431396484375002
 31
0.0
210
0.0
220
0.0
230
1.0
 40
0.741969
 41
3.437677313797129
 42
6.283145864975099
  0
ELLIPSE
  5
8C6
330
1F
100
AcDbEntity
  8
0
 62
     7
370
    35
100
AcDbEllipse
 10
972.696533
 20
605.49762
 30
0.0
 11
22.48419189453125
 21
-0.8431396484375002
 31
0.0
210
0.0
220
0.0
230
1.0
 40
0.741969
 41
0.0100294357792886
 42
0.2960846602073365
  0
ELLIPSE
  5
8C7
330
1F
100
AcDbEntity
  8
0
 62
     7
370
    35
100
AcDbEllipse
 10
972.696533
 20
605.49762
 30
0.0
 11
22.48419189453125
 21
-0.8431396484375002
 31
0.0
210
0.0
220
0.0
230
1.0
 40
0.741969
 41
0.2960846602073365
 42
3.131565954781832
  0
ELLIPSE
  5
8C8
330
1F
100
AcDbEntity
  8
0
 62
     7
370
    35
100
AcDbEllipse
 10
972.709106
 20
605.832642
 30
0.0
 11
22.48419189453125
 21
-0.8431396484375002
 31
0.0
210
0.0
220
0.0
230
1.0
 40
0.741969
 41
6.283145864975098
 42
9.42473851856489
  0
ELLIPSE
  5
8C9
330
1F
100
AcDbEntity
  8
0
 62
     7
370
    35
100
AcDbEllipse
 10
972.709106
 20
605.832642
 30
0.0
 11
22.48419189453125
 21
-0.8431396484375002
 31
0.0
210
0.0
220
0.0
230
1.0
 40
0.741969
 41
3.141553211385304
 42
3.437677313797129
  0
ELLIPSE
  5
8CA
330
1F
100
AcDbEntity
  8
0
 62
     7
370
    35
100
AcDbEllipse
 10
972.709106
 20
605.832642
 30
0.0
 11
22.48419189453125
 21
-0.8431396484375002
 31
0.0
210
0.0
220
0.0
230
1.0
 40
0.741969
 41
3.437677313797129
 42
6.283145864975099
  0
POLYLINE
  5
8CB
330
1F
100
AcDbEntity
  8
0
 62
     7
370
    35
100
AcDb2dPolyline
 66
     1
 10
0.0
 20
0.0
 30
0.0
  0
VERTEX
  5
8CC
330
8CB
100
AcDbEntity
  8
0
370
     0
100
AcDbVertex
100
AcDb2dVertex
 10
961.814087
 20
515.582886
 30
0.0
  0
VERTEX
  5
8CD
330
8CB
100
AcDbEntity
  8
0
370
     0
100
AcDbVertex
100
AcDb2dVertex
 10
960.158142
 20
515.304932
 30
0.0
  0
VERTEX
  5
8CE
330
8CB
100
AcDbEntity
  8
0
370
     0
100
AcDbVertex
100
AcDb2dVertex
 10
958.495483
 20
515.089355
 30
0.0
  0
VERTEX
  5
8CF
330
8CB
100
AcDbEntity
  8
0
370
     0
100
AcDbVertex
100
AcDb2dVertex
 10
956.827942
 20
514.93573
 30
0.0
  0
VERTEX
  5
8D0
330
8CB
100
AcDbEntity
  8
0
370
     0
100
AcDbVertex
100
AcDb2dVertex
 10
955.157349
 20
514.84375
 30
0.0
  0
VERTEX
  5
8D1
330
8CB
100
AcDbEntity
  8
0
370
     0
100
AcDbVertex
100
AcDb2dVertex
 10
953.491699
 20
514.813171
 30
0.0
  0
VERTEX
  5
8D2
330
8CB
100
AcDbEntity
  8
0
370
     0
100
AcDbVertex
100
AcDb2dVertex
 10
951.826416
 20
514.843323
 30
0.0
  0
VERTEX
  5
8D3
330
8CB
100
AcDbEntity
  8
0
370
     0
100
AcDbVertex
100
AcDb2dVertex
 10
950.163391
 20
514.934082
 30
0.0
  0
VERTEX
  5
8D4
330
8CB
100
AcDbEntity
  8
0
370
     0
100
AcDbVertex
100
AcDb2dVertex
 10
948.504333
 20
515.08551
 30
0.0
  0
VERTEX
  5
8D5
330
8CB
100
AcDbEntity
  8
0
370
     0
100
AcDbVertex
100
AcDb2dVertex
 10
946.845154
 20
515.298462
 30
0.0
  0
VERTEX
  5
8D6
330
8CB
100
AcDbEntity
  8
0
370
     0
100
AcDbVertex
100
AcDb2dVertex
 10
945.193481
 20
515.572571
 30
0.0
  0
VERTEX
  5
8D7
330
8CB
100
AcDbEntity
  8
0
370
     0
100
AcDbVertex
100
AcDb2dVertex
 10
943.551147
 20
515.908142
 30
0.0
  0
VERTEX
  5
8D8
330
8CB
100
AcDbEntity
  8
0
370
     0
100
AcDbVertex
100
AcDb2dVertex
 10
941.920044
 20
516.305359
 30
0.0
  0
VERTEX
  5
8D9
330
8CB
100
AcDbEntity
  8
0
370
     0
100
AcDbVertex
100
AcDb2dVertex
 10
940.283997
 20
516.770142
 30
0.0
  0
VERTEX
  5
8DA
330
8CB
100
AcDbEntity
  8
0
370
     0
100
AcDbVertex
100
AcDb2dVertex
 10
938.663696
 20
517.298645
 30
0.0
  0
VERTEX
  5
8DB
330
8CB
100
AcDbEntity
  8
0
370
     0
100
AcDbVertex
100
AcDb2dVertex
 10
937.061584
 20
517.891357
 30
0.0
  0
VERTEX
  5
8DC
330
8CB
100
AcDbEntity
  8
0
370
     0
100
AcDbVertex
100
AcDb2dVertex
 10
935.480042
 20
518.548523
 30
0.0
  0
SEQEND
  5
8DD
330
8CB
100
AcDbEntity
  8
0
 62
     7
370
    35
  0
POLYLINE
  5
8DE
330
1F
100
AcDbEntity
  8
0
 62
     7
370
    35
100
AcDb2dPolyline
 66
     1
 10
0.0
 20
0.0
 30
0.0
  0
VERTEX
  5
8DF
330
8DE
100
AcDbEntity
  8
0
370
     0
100
AcDbVertex
100
AcDb2dVertex
 10
935.480042
 20
518.548523
 30
0.0
  0
VERTEX
  5
8E0
330
8DE
100
AcDbEntity
  8
0
370
     0
100
AcDbVertex
100
AcDb2dVertex
 10
933.889099
 20
519.28656
 30
0.0
  0
VERTEX
  5
8E1
330
8DE
100
AcDbEntity
  8
0
370
     0
100
AcDbVertex
100
AcDb2dVertex
 10
932.3255
 20
520.092529
 30
0.0
  0
VERTEX
  5
8E2
330
8DE
100
AcDbEntity
  8
0
370
     0
100
AcDbVertex
100
AcDb2dVertex
 10
930.792542
 20
520.966675
 30
0.0
  0
VERTEX
  5
8E3
330
8DE
100
AcDbEntity
  8
0
370
     0
100
AcDbVertex
100
AcDb2dVertex
 10
929.293823
 20
521.908936
 30
0.0
  0
VERTEX
  5
8E4
330
8DE
100
AcDbEntity
  8
0
370
     0
100
AcDbVertex
100
AcDb2dVertex
 10
927.865784
 20
522.895447
 30
0.0
  0
VERTEX
  5
8E5
330
8DE
100
AcDbEntity
  8
0
370
     0
100
AcDbVertex
100
AcDb2dVertex
 10
926.477417
 20
523.946655
 30
0.0
  0
VERTEX
  5
8E6
330
8DE
100
AcDbEntity
  8
0
370
     0
100
AcDbVertex
100
AcDb2dVertex
 10
925.720886
 20
524.561584
 30
0.0
  0
VERTEX
  5
8E7
330
8DE
100
AcDbEntity
  8
0
370
     0
100
AcDbVertex
100
AcDb2dVertex
 10
924.978577
 20
525.19635
 30
0.0
  0
VERTEX
  5
8E8
330
8DE
100
AcDbEntity
  8
0
370
     0
100
AcDbVertex
100
AcDb2dVertex
 10
924.251221
 20
525.85083
 30
0.0
  0
VERTEX
  5
8E9
330
8DE
100
AcDbEntity
  8
0
370
     0
100
AcDbVertex
100
AcDb2dVertex
 10
923.539551
 20
526.52478
 30
0.0
  0
VERTEX
  5
8EA
330
8DE
100
AcDbEntity
  8
0
370
     0
100
AcDbVertex
100
AcDb2dVertex
 10
922.436646
 20
527.641541
 30
0.0
  0
VERTEX
  5
8EB
330
8DE
100
AcDbEntity
  8
0
370
     0
100
AcDbVertex
100
AcDb2dVertex
 10
921.378479
 20
528.806274
 30
0.0
  0
VERTEX
  5
8EC
330
8DE
100
AcDbEntity
  8
0
370
     0
100
AcDbVertex
100
AcDb2dVertex
 10
920.368164
 20
530.017517
 30
0.0
  0
VERTEX
  5
8ED
330
8DE
100
AcDbEntity
  8
0
370
     0
100
AcDbVertex
100
AcDb2dVertex
 10
919.408508
 20
531.273621
 30
0.0
  0
VERTEX
  5
8EE
330
8DE
100
AcDbEntity
  8
0
370
     0
100
AcDbVertex
100
AcDb2dVertex
 10
918.531128
 20
532.529785
 30
0.0
  0
VERTEX
  5
8EF
330
8DE
100
AcDbEntity
  8
0
370
     0
100
AcDbVertex
100
AcDb2dVertex
 10
918.06781
 20
533.241943
 30
0.0
  0
VERTEX
  5
8F0
330
8DE
100
AcDbEntity
  8
0
370
     0
100
AcDbVertex
100
AcDb2dVertex
 10
917.621094
 20
533.965515
 30
0.0
  0
VERTEX
  5
8F1
330
8DE
100
AcDbEntity
  8
0
370
     0
100
AcDbVertex
100
AcDb2dVertex
 10
917.191284
 20
534.700073
 30
0.0
  0
VERTEX
  5
8F2
330
8DE
100
AcDbEntity
  8
0
370
     0
100
AcDbVertex
100
AcDb2dVertex
 10
916.778931
 20
535.445374
 30
0.0
  0
VERTEX
  5
8F3
330
8DE
100
AcDbEntity
  8
0
370
     0
100
AcDbVertex
100
AcDb2dVertex
 10
916.384277
 20
536.200867
 30
0.0
  0
VERTEX
  5
8F4
330
8DE
100
AcDbEntity
  8
0
370
     0
100
AcDbVertex
100
AcDb2dVertex
 10
916.007751
 20
536.966187
 30
0.0
  0
VERTEX
  5
8F5
330
8DE
100
AcDbEntity
  8
0
370
     0
100
AcDbVertex
100
AcDb2dVertex
 10
915.649719
 20
537.740967
 30
0.0
  0
VERTEX
  5
8F6
330
8DE
100
AcDbEntity
  8
0
370
     0
100
AcDbVertex
100
AcDb2dVertex
 10
915.025452
 20
539.227478
 30
0.0
  0
VERTEX
  5
8F7
330
8DE
100
AcDbEntity
  8
0
370
     0
100
AcDbVertex
100
AcDb2dVertex
 10
914.755615
 20
539.936768
 30
0.0
  0
SEQEND
  5
8F8
330
8DE
100
AcDbEntity
  8
0
 62
     7
370
    35
  0
POLYLINE
  5
8F9
330
1F
100
AcDbEntity
  8
0
 62
     7
370
    35
100
AcDb2dPolyline
 66
     1
 10
0.0
 20
0.0
 30
0.0
  0
VERTEX
  5
8FA
330
8F9
100
AcDbEntity
  8
0
370
     0
100
AcDbVertex
100
AcDb2dVertex
 10
1080.371094
 20
566.175964
 30
0.0
  0
VERTEX
  5
8FB
330
8F9
100
AcDbEntity
  8
0
370
     0
100
AcDbVertex
100
AcDb2dVertex
 10
1080.312134
 20
565.080444
 30
0.0
  0
VERTEX
  5
8FC
330
8F9
100
AcDbEntity
  8
0
370
     0
100
AcDbVertex
100
AcDb2dVertex
 10
1080.217651
 20
563.987549
 30
0.0
  0
VERTEX
  5
8FD
330
8F9
100
AcDbEntity
  8
0
370
     0
100
AcDbVertex
100
AcDb2dVertex
 10
1080.087769
 20
562.898254
 30
0.0
  0
VERTEX
  5
8FE
330
8F9
100
AcDbEntity
  8
0
370
     0
100
AcDbVertex
100
AcDb2dVertex
 10
1079.922607
 20
561.813965
 30
0.0
  0
VERTEX
  5
8FF
330
8F9
100
AcDbEntity
  8
0
370
     0
100
AcDbVertex
100
AcDb2dVertex
 10
1079.655518
 20
560.41333
 30
0.0
  0
VERTEX
  5
900
330
8F9
100
AcDbEntity
  8
0
370
     0
100
AcDbVertex
100
AcDb2dVertex
 10
1079.329956
 20
559.025452
 30
0.0
  0
VERTEX
  5
901
330
8F9
100
AcDbEntity
  8
0
370
     0
100
AcDbVertex
100
AcDb2dVertex
 10
1078.931641
 20
557.603394
 30
0.0
  0
VERTEX
  5
902
330
8F9
100
AcDbEntity
  8
0
370
     0
100
AcDbVertex
100
AcDb2dVertex
 10
1078.472412
 20
556.200562
 30
0.0
  0
VERTEX
  5
903
330
8F9
100
AcDbEntity
  8
0
370
     0
100
AcDbVertex
100
AcDb2dVertex
 10
1077.953491
 20
554.819397
 30
0.0
  0
VERTEX
  5
904
330
8F9
100
AcDbEntity
  8
0
370
     0
100
AcDbVertex
100
AcDb2dVertex
 10
1077.376221
 20
553.462646
 30
0.0
  0
VERTEX
  5
905
330
8F9
100
AcDbEntity
  8
0
370
     0
100
AcDbVertex
100
AcDb2dVertex
 10
1076.660889
 20
551.971985
 30
0.0
  0
VERTEX
  5
906
330
8F9
100
AcDbEntity
  8
0
370
     0
100
AcDbVertex
100
AcDb2dVertex
 10
1076.271606
 20
551.22998
 30
0.0
  0
VERTEX
  5
907
330
8F9
100
AcDbEntity
  8
0
370
     0
100
AcDbVertex
100
AcDb2dVertex
 10
1075.864868
 20
550.498108
 30
0.0
  0
VERTEX
  5
908
330
8F9
100
AcDbEntity
  8
0
370
     0
100
AcDbVertex
100
AcDb2dVertex
 10
1075.000732
 20
549.065613
 30
0.0
  0
VERTEX
  5
909
330
8F9
100
AcDbEntity
  8
0
370
     0
100
AcDbVertex
100
AcDb2dVertex
 10
1074.071045
 20
547.67749
 30
0.0
  0
VERTEX
  5
90A
330
8F9
100
AcDbEntity
  8
0
370
     0
100
AcDbVertex
100
AcDb2dVertex
 10
1073.079346
 20
546.336548
 30
0.0
  0
SEQEND
  5
90B
330
8F9
100
AcDbEntity
  8
0
 62
     7
370
    35
  0
POLYLINE
  5
90C
330
1F
100
AcDbEntity
  8
0
 62
     7
370
    35
100
AcDb2dPolyline
 66
     1
 10
0.0
 20
0.0
 30
0.0
  0
VERTEX
  5
90D
330
90C
100
AcDbEntity
  8
0
370
     0
100
AcDbVertex
100
AcDb2dVertex
 10
1073.079346
 20
546.336548
 30
0.0
  0
VERTEX
  5
90E
330
90C
100
AcDbEntity
  8
0
370
     0
100
AcDbVertex
100
AcDb2dVertex
 10
1072.03125
 20
545.048096
 30
0.0
  0
VERTEX
  5
90F
330
90C
100
AcDbEntity
  8
0
370
     0
100
AcDbVertex
100
AcDb2dVertex
 10
1071.000977
 20
543.889648
 30
0.0
  0
VERTEX
  5
910
330
90C
100
AcDbEntity
  8
0
370
     0
100
AcDbVertex
100
AcDb2dVertex
 10
1069.925171
 20
542.777954
 30
0.0
  0
VERTEX
  5
911
330
90C
100
AcDbEntity
  8
0
370
     0
100
AcDbVertex
100
AcDb2dVertex
 10
1068.806885
 20
541.714172
 30
0.0
  0
VERTEX
  5
912
330
90C
100
AcDbEntity
  8
0
370
     0
100
AcDbVertex
100
AcDb2dVertex
 10
1067.648804
 20
540.699646
 30
0.0
  0
VERTEX
  5
913
330
90C
100
AcDbEntity
  8
0
370
     0
100
AcDbVertex
100
AcDb2dVertex
 10
1066.866821
 20
540.059509
 30
0.0
  0
VERTEX
  5
914
330
90C
100
AcDbEntity
  8
0
370
     0
100
AcDbVertex
100
AcDb2dVertex
 10
1066.069824
 20
539.441345
 30
0.0
  0
VERTEX
  5
915
330
90C
100
AcDbEntity
  8
0
370
     0
100
AcDbVertex
100
AcDb2dVertex
 10
1065.258301
 20
538.845093
 30
0.0
  0
VERTEX
  5
916
330
90C
100
AcDbEntity
  8
0
370
     0
100
AcDbVertex
100
AcDb2dVertex
 10
1064.433472
 20
538.271179
 30
0.0
  0
VERTEX
  5
917
330
90C
100
AcDbEntity
  8
0
370
     0
100
AcDbVertex
100
AcDb2dVertex
 10
1063.019287
 20
537.356995
 30
0.0
  0
VERTEX
  5
918
330
90C
100
AcDbEntity
  8
0
370
     0
100
AcDbVertex
100
AcDb2dVertex
 10
1061.572388
 20
536.50592
 30
0.0
  0
VERTEX
  5
919
330
90C
100
AcDbEntity
  8
0
370
     0
100
AcDbVertex
100
AcDb2dVertex
 10
1060.008545
 20
535.673645
 30
0.0
  0
VERTEX
  5
91A
330
90C
100
AcDbEntity
  8
0
370
     0
100
AcDbVertex
100
AcDb2dVertex
 10
1058.415527
 20
534.911987
 30
0.0
  0
VERTEX
  5
91B
330
90C
100
AcDbEntity
  8
0
370
     0
100
AcDbVertex
100
AcDb2dVertex
 10
1056.796753
 20
534.220581
 30
0.0
  0
VERTEX
  5
91C
330
90C
100
AcDbEntity
  8
0
370
     0
100
AcDbVertex
100
AcDb2dVertex
 10
1055.15564
 20
533.599121
 30
0.0
  0
VERTEX
  5
91D
330
90C
100
AcDbEntity
  8
0
370
     0
100
AcDbVertex
100
AcDb2dVertex
 10
1053.530029
 20
533.057861
 30
0.0
  0
VERTEX
  5
91E
330
90C
100
AcDbEntity
  8
0
370
     0
100
AcDbVertex
100
AcDb2dVertex
 10
1051.88855
 20
532.582581
 30
0.0
  0
VERTEX
  5
91F
330
90C
100
AcDbEntity
  8
0
370
     0
100
AcDbVertex
100
AcDb2dVertex
 10
1050.233643
 20
532.172607
 30
0.0
  0
VERTEX
  5
920
330
90C
100
AcDbEntity
  8
0
370
     0
100
AcDbVertex
100
AcDb2dVertex
 10
1048.567505
 20
531.827515
 30
0.0
  0
SEQEND
  5
921
330
90C
100
AcDbEntity
  8
0
 62
     7
370
    35
  0
LINE
  5
922
330
1F
100
AcDbEntity
  8
0
 62
     7
370
    35
100
AcDbLine
 10
961.814087
 20
515.582886
 30
0.0
 11
1048.567505
 21
531.827515
 31
0.0
  0
LINE
  5
923
330
1F
100
AcDbEntity
  8
0
 62
     7
370
    35
100
AcDbLine
 10
910.117004
 20
552.542664
 30
0.0
 11
914.755676
 21
539.936401
 31
0.0
  0
LINE
  5
924
330
1F
100
AcDbEntity
  8
0
 62
     7
370
    35
100
AcDbLine
 10
1080.371094
 20
566.177551
 30
0.0
 11
1081.223755
 21
588.913391
 31
0.0
  0
LINE
  5
925
330
1F
100
AcDbEntity
  8
0
 62
     7
370
    35
100
AcDbLine
 10
656.074341
 20
677.845154
 30
0.0
 11
656.086914
 21
678.180176
 31
0.0
  0
LINE
  5
926
330
1F
100
AcDbEntity
  8
0
 62
     7
370
    35
100
AcDbLine
 10
1097.218262
 20
614.836365
 30
0.0
 11
1097.230835
 21
615.171326
 31
0.0
  0
LINE
  5
927
330
1F
100
AcDbEntity
  8
0
 62
     7
370
    35
100
AcDbLine
 10
902.044678
 20
532.785889
 30
0.0
 11
902.733704
 21
551.160095
 31
0.0
  0
LINE
  5
928
330
1F
100
AcDbEntity
  8
0
 62
     7
370
    35
100
AcDbLine
 10
669.178101
 20
626.679443
 30
0.0
 11
669.500244
 21
635.268494
 31
0.0
  0
POLYLINE
  5
929
330
1F
100
AcDbEntity
  8
0
 62
     7
370
    35
100
AcDb2dPolyline
 66
     1
 10
0.0
 20
0.0
 30
0.0
  0
VERTEX
  5
92A
330
929
100
AcDbEntity
  8
0
370
     0
100
AcDbVertex
100
AcDb2dVertex
 10
733.055359
 20
480.64447
 30
0.0
  0
VERTEX
  5
92B
330
929
100
AcDbEntity
  8
0
370
     0
100
AcDbVertex
100
AcDb2dVertex
 10
731.464478
 20
481.382477
 30
0.0
  0
VERTEX
  5
92C
330
929
100
AcDbEntity
  8
0
370
     0
100
AcDbVertex
100
AcDb2dVertex
 10
729.900879
 20
482.188477
 30
0.0
  0
VERTEX
  5
92D
330
929
100
AcDbEntity
  8
0
370
     0
100
AcDbVertex
100
AcDb2dVertex
 10
728.36792
 20
483.062592
 30
0.0
  0
VERTEX
  5
92E
330
929
100
AcDbEntity
  8
0
370
     0
100
AcDbVertex
100
AcDb2dVertex
 10
726.869141
 20
484.004883
 30
0.0
  0
VERTEX
  5
92F
330
929
100
AcDbEntity
  8
0
370
     0
100
AcDbVertex
100
AcDb2dVertex
 10
725.441101
 20
484.991394
 30
0.0
  0
VERTEX
  5
930
330
929
100
AcDbEntity
  8
0
370
     0
100
AcDbVertex
100
AcDb2dVertex
 10
724.052734
 20
486.042603
 30
0.0
  0
VERTEX
  5
931
330
929
100
AcDbEntity
  8
0
370
     0
100
AcDbVertex
100
AcDb2dVertex
 10
723.296265
 20
486.657501
 30
0.0
  0
VERTEX
  5
932
330
929
100
AcDbEntity
  8
0
370
     0
100
AcDbVertex
100
AcDb2dVertex
 10
722.553955
 20
487.292297
 30
0.0
  0
VERTEX
  5
933
330
929
100
AcDbEntity
  8
0
370
     0
100
AcDbVertex
100
AcDb2dVertex
 10
721.826599
 20
487.946777
 30
0.0
  0
VERTEX
  5
934
330
929
100
AcDbEntity
  8
0
370
     0
100
AcDbVertex
100
AcDb2dVertex
 10
721.114929
 20
488.620728
 30
0.0
  0
VERTEX
  5
935
330
929
100
AcDbEntity
  8
0
370
     0
100
AcDbVertex
100
AcDb2dVertex
 10
720.011963
 20
489.737488
 30
0.0
  0
VERTEX
  5
936
330
929
100
AcDbEntity
  8
0
370
     0
100
AcDbVertex
100
AcDb2dVertex
 10
718.953857
 20
490.902222
 30
0.0
  0
VERTEX
  5
937
330
929
100
AcDbEntity
  8
0
370
     0
100
AcDbVertex
100
AcDb2dVertex
 10
717.943481
 20
492.113434
 30
0.0
  0
VERTEX
  5
938
330
929
100
AcDbEntity
  8
0
370
     0
100
AcDbVertex
100
AcDb2dVertex
 10
716.983887
 20
493.369568
 30
0.0
  0
VERTEX
  5
939
330
929
100
AcDbEntity
  8
0
370
     0
100
AcDbVertex
100
AcDb2dVertex
 10
716.106445
 20
494.625732
 30
0.0
  0
VERTEX
  5
93A
330
929
100
AcDbEntity
  8
0
370
     0
100
AcDbVertex
100
AcDb2dVertex
 10
715.643127
 20
495.337891
 30
0.0
  0
VERTEX
  5
93B
330
929
100
AcDbEntity
  8
0
370
     0
100
AcDbVertex
100
AcDb2dVertex
 10
715.196411
 20
496.061401
 30
0.0
  0
VERTEX
  5
93C
330
929
100
AcDbEntity
  8
0
370
     0
100
AcDbVertex
100
AcDb2dVertex
 10
714.766663
 20
496.796021
 30
0.0
  0
VERTEX
  5
93D
330
929
100
AcDbEntity
  8
0
370
     0
100
AcDbVertex
100
AcDb2dVertex
 10
714.354248
 20
497.54126
 30
0.0
  0
VERTEX
  5
93E
330
929
100
AcDbEntity
  8
0
370
     0
100
AcDbVertex
100
AcDb2dVertex
 10
713.959656
 20
498.296783
 30
0.0
  0
VERTEX
  5
93F
330
929
100
AcDbEntity
  8
0
370
     0
100
AcDbVertex
100
AcDb2dVertex
 10
713.58313
 20
499.062134
 30
0.0
  0
VERTEX
  5
940
330
929
100
AcDbEntity
  8
0
370
     0
100
AcDbVertex
100
AcDb2dVertex
 10
713.225098
 20
499.836914
 30
0.0
  0
VERTEX
  5
941
330
929
100
AcDbEntity
  8
0
370
     0
100
AcDbVertex
100
AcDb2dVertex
 10
712.60083
 20
501.323395
 30
0.0
  0
VERTEX
  5
942
330
929
100
AcDbEntity
  8
0
370
     0
100
AcDbVertex
100
AcDb2dVertex
 10
712.330994
 20
502.032684
 30
0.0
  0
SEQEND
  5
943
330
929
100
AcDbEntity
  8
0
 62
     7
370
    35
  0
POLYLINE
  5
944
330
1F
100
AcDbEntity
  8
0
 62
     7
370
    35
100
AcDb2dPolyline
 66
     1
 10
0.0
 20
0.0
 30
0.0
  0
VERTEX
  5
945
330
944
100
AcDbEntity
  8
0
370
     0
100
AcDbVertex
100
AcDb2dVertex
 10
759.389404
 20
477.678833
 30
0.0
  0
VERTEX
  5
946
330
944
100
AcDbEntity
  8
0
370
     0
100
AcDbVertex
100
AcDb2dVertex
 10
757.733521
 20
477.400879
 30
0.0
  0
VERTEX
  5
947
330
944
100
AcDbEntity
  8
0
370
     0
100
AcDbVertex
100
AcDb2dVertex
 10
756.070801
 20
477.185272
 30
0.0
  0
VERTEX
  5
948
330
944
100
AcDbEntity
  8
0
370
     0
100
AcDbVertex
100
AcDb2dVertex
 10
754.40332
 20
477.031647
 30
0.0
  0
VERTEX
  5
949
330
944
100
AcDbEntity
  8
0
370
     0
100
AcDbVertex
100
AcDb2dVertex
 10
752.732727
 20
476.939697
 30
0.0
  0
VERTEX
  5
94A
330
944
100
AcDbEntity
  8
0
370
     0
100
AcDbVertex
100
AcDb2dVertex
 10
751.067017
 20
476.909058
 30
0.0
  0
VERTEX
  5
94B
330
944
100
AcDbEntity
  8
0
370
     0
100
AcDbVertex
100
AcDb2dVertex
 10
749.401794
 20
476.939209
 30
0.0
  0
VERTEX
  5
94C
330
944
100
AcDbEntity
  8
0
370
     0
100
AcDbVertex
100
AcDb2dVertex
 10
747.73877
 20
477.030029
 30
0.0
  0
VERTEX
  5
94D
330
944
100
AcDbEntity
  8
0
370
     0
100
AcDbVertex
100
AcDb2dVertex
 10
746.079712
 20
477.181427
 30
0.0
  0
VERTEX
  5
94E
330
944
100
AcDbEntity
  8
0
370
     0
100
AcDbVertex
100
AcDb2dVertex
 10
744.420532
 20
477.394348
 30
0.0
  0
VERTEX
  5
94F
330
944
100
AcDbEntity
  8
0
370
     0
100
AcDbVertex
100
AcDb2dVertex
 10
742.768799
 20
477.668518
 30
0.0
  0
VERTEX
  5
950
330
944
100
AcDbEntity
  8
0
370
     0
100
AcDbVertex
100
AcDb2dVertex
 10
741.126465
 20
478.004059
 30
0.0
  0
VERTEX
  5
951
330
944
100
AcDbEntity
  8
0
370
     0
100
AcDbVertex
100
AcDb2dVertex
 10
739.495422
 20
478.401276
 30
0.0
  0
VERTEX
  5
952
330
944
100
AcDbEntity
  8
0
370
     0
100
AcDbVertex
100
AcDb2dVertex
 10
737.859314
 20
478.866058
 30
0.0
  0
VERTEX
  5
953
330
944
100
AcDbEntity
  8
0
370
     0
100
AcDbVertex
100
AcDb2dVertex
 10
736.239014
 20
479.394592
 30
0.0
  0
VERTEX
  5
954
330
944
100
AcDbEntity
  8
0
370
     0
100
AcDbVertex
100
AcDb2dVertex
 10
734.636902
 20
479.987244
 30
0.0
  0
VERTEX
  5
955
330
944
100
AcDbEntity
  8
0
370
     0
100
AcDbVertex
100
AcDb2dVertex
 10
733.055359
 20
480.64447
 30
0.0
  0
SEQEND
  5
956
330
944
100
AcDbEntity
  8
0
 62
     7
370
    35
  0
LINE
  5
957
330
1F
100
AcDbEntity
  8
0
 62
     7
370
    35
100
AcDbLine
 10
870.241089
 20
498.435852
 30
0.0
 11
759.389404
 21
477.678833
 31
0.0
  0
POLYLINE
  5
958
330
1F
100
AcDbEntity
  8
0
 62
     7
370
    35
100
AcDb2dPolyline
 66
     1
 10
0.0
 20
0.0
 30
0.0
  0
VERTEX
  5
959
330
958
100
AcDbEntity
  8
0
370
     0
100
AcDbVertex
100
AcDb2dVertex
 10
894.75293
 20
512.944824
 30
0.0
  0
VERTEX
  5
95A
330
958
100
AcDbEntity
  8
0
370
     0
100
AcDbVertex
100
AcDb2dVertex
 10
893.704834
 20
511.656433
 30
0.0
  0
VERTEX
  5
95B
330
958
100
AcDbEntity
  8
0
370
     0
100
AcDbVertex
100
AcDb2dVertex
 10
892.6745
 20
510.497986
 30
0.0
  0
VERTEX
  5
95C
330
958
100
AcDbEntity
  8
0
370
     0
100
AcDbVertex
100
AcDb2dVertex
 10
891.598755
 20
509.386261
 30
0.0
  0
VERTEX
  5
95D
330
958
100
AcDbEntity
  8
0
370
     0
100
AcDbVertex
100
AcDb2dVertex
 10
890.480347
 20
508.32251
 30
0.0
  0
VERTEX
  5
95E
330
958
100
AcDbEntity
  8
0
370
     0
100
AcDbVertex
100
AcDb2dVertex
 10
889.322327
 20
507.307922
 30
0.0
  0
VERTEX
  5
95F
330
958
100
AcDbEntity
  8
0
370
     0
100
AcDbVertex
100
AcDb2dVertex
 10
888.540344
 20
506.667847
 30
0.0
  0
VERTEX
  5
960
330
958
100
AcDbEntity
  8
0
370
     0
100
AcDbVertex
100
AcDb2dVertex
 10
887.743286
 20
506.049622
 30
0.0
  0
VERTEX
  5
961
330
958
100
AcDbEntity
  8
0
370
     0
100
AcDbVertex
100
AcDb2dVertex
 10
886.931885
 20
505.45343
 30
0.0
  0
VERTEX
  5
962
330
958
100
AcDbEntity
  8
0
370
     0
100
AcDbVertex
100
AcDb2dVertex
 10
886.106995
 20
504.879456
 30
0.0
  0
VERTEX
  5
963
330
958
100
AcDbEntity
  8
0
370
     0
100
AcDbVertex
100
AcDb2dVertex
 10
884.692749
 20
503.965302
 30
0.0
  0
VERTEX
  5
964
330
958
100
AcDbEntity
  8
0
370
     0
100
AcDbVertex
100
AcDb2dVertex
 10
883.245911
 20
503.114258
 30
0.0
  0
VERTEX
  5
965
330
958
100
AcDbEntity
  8
0
370
     0
100
AcDbVertex
100
AcDb2dVertex
 10
881.682129
 20
502.281982
 30
0.0
  0
VERTEX
  5
966
330
958
100
AcDbEntity
  8
0
370
     0
100
AcDbVertex
100
AcDb2dVertex
 10
880.08905
 20
501.520294
 30
0.0
  0
VERTEX
  5
967
330
958
100
AcDbEntity
  8
0
370
     0
100
AcDbVertex
100
AcDb2dVertex
 10
878.470337
 20
500.828918
 30
0.0
  0
VERTEX
  5
968
330
958
100
AcDbEntity
  8
0
370
     0
100
AcDbVertex
100
AcDb2dVertex
 10
876.829224
 20
500.207458
 30
0.0
  0
VERTEX
  5
969
330
958
100
AcDbEntity
  8
0
370
     0
100
AcDbVertex
100
AcDb2dVertex
 10
875.203552
 20
499.666199
 30
0.0
  0
VERTEX
  5
96A
330
958
100
AcDbEntity
  8
0
370
     0
100
AcDbVertex
100
AcDb2dVertex
 10
873.562073
 20
499.190887
 30
0.0
  0
VERTEX
  5
96B
330
958
100
AcDbEntity
  8
0
370
     0
100
AcDbVertex
100
AcDb2dVertex
 10
871.907166
 20
498.780945
 30
0.0
  0
VERTEX
  5
96C
330
958
100
AcDbEntity
  8
0
370
     0
100
AcDbVertex
100
AcDb2dVertex
 10
870.241089
 20
498.435852
 30
0.0
  0
SEQEND
  5
96D
330
958
100
AcDbEntity
  8
0
 62
     7
370
    35
  0
POLYLINE
  5
96E
330
1F
100
AcDbEntity
  8
0
 62
     7
370
    35
100
AcDb2dPolyline
 66
     1
 10
0.0
 20
0.0
 30
0.0
  0
VERTEX
  5
96F
330
96E
100
AcDbEntity
  8
0
370
     0
100
AcDbVertex
100
AcDb2dVertex
 10
902.044617
 20
532.784485
 30
0.0
  0
VERTEX
  5
970
330
96E
100
AcDbEntity
  8
0
370
     0
100
AcDbVertex
100
AcDb2dVertex
 10
901.985718
 20
531.688965
 30
0.0
  0
VERTEX
  5
971
330
96E
100
AcDbEntity
  8
0
370
     0
100
AcDbVertex
100
AcDb2dVertex
 10
901.891235
 20
530.596008
 30
0.0
  0
VERTEX
  5
972
330
96E
100
AcDbEntity
  8
0
370
     0
100
AcDbVertex
100
AcDb2dVertex
 10
901.761292
 20
529.506653
 30
0.0
  0
VERTEX
  5
973
330
96E
100
AcDbEntity
  8
0
370
     0
100
AcDbVertex
100
AcDb2dVertex
 10
901.59613
 20
528.422302
 30
0.0
  0
VERTEX
  5
974
330
96E
100
AcDbEntity
  8
0
370
     0
100
AcDbVertex
100
AcDb2dVertex
 10
901.329102
 20
527.021667
 30
0.0
  0
VERTEX
  5
975
330
96E
100
AcDbEntity
  8
0
370
     0
100
AcDbVertex
100
AcDb2dVertex
 10
901.003479
 20
525.633789
 30
0.0
  0
VERTEX
  5
976
330
96E
100
AcDbEntity
  8
0
370
     0
100
AcDbVertex
100
AcDb2dVertex
 10
900.605225
 20
524.211731
 30
0.0
  0
VERTEX
  5
977
330
96E
100
AcDbEntity
  8
0
370
     0
100
AcDbVertex
100
AcDb2dVertex
 10
900.145935
 20
522.808838
 30
0.0
  0
VERTEX
  5
978
330
96E
100
AcDbEntity
  8
0
370
     0
100
AcDbVertex
100
AcDb2dVertex
 10
899.627014
 20
521.427734
 30
0.0
  0
VERTEX
  5
979
330
96E
100
AcDbEntity
  8
0
370
     0
100
AcDbVertex
100
AcDb2dVertex
 10
899.049744
 20
520.070923
 30
0.0
  0
VERTEX
  5
97A
330
96E
100
AcDbEntity
  8
0
370
     0
100
AcDbVertex
100
AcDb2dVertex
 10
898.334412
 20
518.580261
 30
0.0
  0
VERTEX
  5
97B
330
96E
100
AcDbEntity
  8
0
370
     0
100
AcDbVertex
100
AcDb2dVertex
 10
897.945068
 20
517.838318
 30
0.0
  0
VERTEX
  5
97C
330
96E
100
AcDbEntity
  8
0
370
     0
100
AcDbVertex
100
AcDb2dVertex
 10
897.538452
 20
517.106445
 30
0.0
  0
VERTEX
  5
97D
330
96E
100
AcDbEntity
  8
0
370
     0
100
AcDbVertex
100
AcDb2dVertex
 10
896.674194
 20
515.67395
 30
0.0
  0
VERTEX
  5
97E
330
96E
100
AcDbEntity
  8
0
370
     0
100
AcDbVertex
100
AcDb2dVertex
 10
895.744629
 20
514.285828
 30
0.0
  0
VERTEX
  5
97F
330
96E
100
AcDbEntity
  8
0
370
     0
100
AcDbVertex
100
AcDb2dVertex
 10
894.75293
 20
512.944824
 30
0.0
  0
SEQEND
  5
980
330
96E
100
AcDbEntity
  8
0
 62
     7
370
    35
  0
ELLIPSE
  5
981
330
1F
100
AcDbEntity
  8
0
 62
     7
370
    35
100
AcDbEllipse
 10
707.609741
 20
625.294617
 30
0.0
 11
38.44403076171875
 21
-0.99383544921875
 31
0.0
210
0.0
220
0.0
230
1.0
 40
0.936989
 41
3.13069901452258
 42
3.498196892380223
  0
LINE
  5
982
330
1F
100
AcDbEntity
  8
0
 62
     7
370
    35
100
AcDbLine
 10
712.331055
 20
502.032318
 30
0.0
 11
671.259338
 21
613.650635
 31
0.0
  0
ENDSEC
  0
SECTION
  2
OBJECTS
  0
DICTIONARY
  5
C
330
0
100
AcDbDictionary
281
     1
  3
ACAD_GROUP
350
D
  3
ACAD_LAYOUT
350
1A
  3
ACAD_MLINESTYLE
350
17
  3
ACAD_PLOTSETTINGS
350
19
  3
ACAD_PLOTSTYLENAME
350
E
  3
ACAD_SCALELIST
350
47
  0
DICTIONARY
  5
D
102
{ACAD_REACTORS
330
C
102
}
330
C
100
AcDbDictionary
281
     1
  0
DICTIONARY
  5
1A
102
{ACAD_REACTORS
330
C
102
}
330
C
100
AcDbDictionary
281
     1
  3
Layout1
350
1E
  3
Layout2
350
26
  3
Model
350
22
  0
DICTIONARY
  5
17
102
{ACAD_REACTORS
330
C
102
}
330
C
100
AcDbDictionary
281
     1
  3
Standard
350
18
  0
DICTIONARY
  5
19
102
{ACAD_REACTORS
330
C
102
}
330
C
100
AcDbDictionary
281
     1
  0
ACDBDICTIONARYWDFLT
  5
E
102
{ACAD_REACTORS
330
C
102
}
330
C
100
AcDbDictionary
281
     1
  3
Normal
350
F
100
AcDbDictionaryWithDefault
340
F
  0
DICTIONARY
  5
47
102
{ACAD_REACTORS
330
C
102
}
330
C
100
AcDbDictionary
281
     1
  3
A0
350
48
  3
A1
350
49
  3
A2
350
4A
  3
A3
350
4B
  3
A4
350
4C
  3
A5
350
4D
  3
A6
350
4E
  3
A7
350
4F
  3
A8
350
50
  3
A9
350
51
  3
B0
350
52
  3
B1
350
53
  3
B2
350
54
  3
B3
350
55
  3
B4
350
56
  3
B5
350
57
  3
B6
350
58
  3
B7
350
59
  3
B8
350
5A
  3
B9
350
5B
  3
C0
350
5C
  3
C1
350
5D
  3
C2
350
5E
  3
C3
350
5F
  3
C4
350
60
  3
C5
350
61
  3
C6
350
62
  3
C7
350
63
  3
C8
350
64
  3
C9
350
65
  3
D0
350
66
  3
D1
350
67
  3
D2
350
68
  0
LAYOUT
  5
1E
102
{ACAD_REACTORS
330
1A
102
}
330
1A
100
AcDbPlotSettings
  1

  2
none_device
  4

  6

 40
0.0
 41
0.0
 42
0.0
 43
0.0
 44
0.0
 45
0.0
 46
0.0
 47
0.0
 48
0.0
 49
0.0
140
0.0
141
0.0
142
1.0
143
1.0
 70
  4784
 72
     0
 73
     0
 74
     5
  7

 75
    16
147
1.0
148
0.0
149
0.0
100
AcDbLayout
  1
Layout1
 70
     1
 71
     1
 10
0.0
 20
0.0
 11
420.0
 21
297.0
 12
0.0
 22
0.0
 32
0.0
 14
0.0
 24
0.0
 34
0.0
 15
1159.141479
 25
747.778198
 35
2.0
146
0.0
 13
0.0
 23
0.0
 33
0.0
 16
1.0
 26
0.0
 36
0.0
 17
0.0
 27
1.0
 37
0.0
 76
     0
330
1B
  0
LAYOUT
  5
26
102
{ACAD_REACTORS
330
1A
102
}
330
1A
100
AcDbPlotSettings
  1

  2
none_device
  4

  6

 40
0.0
 41
0.0
 42
0.0
 43
0.0
 44
0.0
 45
0.0
 46
0.0
 47
0.0
 48
0.0
 49
0.0
140
0.0
141
0.0
142
1.0
143
1.0
 70
  4784
 72
     0
 73
     0
 74
     5
  7

 75
    16
147
1.0
148
0.0
149
0.0
100
AcDbLayout
  1
Layout2
 70
     1
 71
     2
 10
0.0
 20
0.0
 11
0.0
 21
0.0
 12
0.0
 22
0.0
 32
0.0
 14
0.0
 24
0.0
 34
0.0
 15
0.0
 25
0.0
 35
0.0
146
0.0
 13
0.0
 23
0.0
 33
0.0
 16
1.0
 26
0.0
 36
0.0
 17
0.0
 27
1.0
 37
0.0
 76
     0
330
23
  0
LAYOUT
  5
22
102
{ACAD_REACTORS
330
1A
102
}
330
1A
100
AcDbPlotSettings
  1

  2
none_device
  4
Letter_(8.50_x_11.00_Inches)
  6

 40
6.35
 41
6.35
 42
6.350005
 43
6.350005
 44
215.9
 45
279.4
 46
0.0
 47
0.0
 48
0.0
 49
0.0
140
0.0
141
0.0
142
1.0
143
1.0
 70
  5808
 72
     0
 73
     0
 74
     0
  7

 75
     0
147
1.0
148
0.0
149
0.0
100
AcDbLayout
  1
Model
 70
     1
 71
     0
 10
0.0
 20
0.0
 11
420.0
 21
297.0
 12
0.0
 22
0.0
 32
0.0
 14
0.0
 24
0.0
 34
0.0
 15
1159.141479
 25
747.778198
 35
2.0
146
0.0
 13
0.0
 23
0.0
 33
0.0
 16
1.0
 26
0.0
 36
0.0
 17
0.0
 27
1.0
 37
0.0
 76
     0
330
1F
331
29
  0
MLINESTYLE
  5
18
102
{ACAD_REACTORS
330
17
102
}
330
17
100
AcDbMlineStyle
  2
Standard
 70
     0
  3

 62
   256
 51
90.0
 52
90.0
 71
     2
 49
0.5
 62
   256
  6
BYLAYER
 49
-0.5
 62
   256
  6
BYLAYER
  0
ACDBPLACEHOLDER
  5
F
102
{ACAD_REACTORS
330
E
102
}
330
E
  0
SCALE
  5
48
102
{ACAD_REACTORS
330
47
102
}
330
47
100
AcDbScale
 70
     0
300
1:1
140
1.0
141
1.0
290
     1
  0
SCALE
  5
49
102
{ACAD_REACTORS
330
47
102
}
330
47
100
AcDbScale
 70
     0
300
1:2
140
1.0
141
2.0
290
     0
  0
SCALE
  5
4A
102
{ACAD_REACTORS
330
47
102
}
330
47
100
AcDbScale
 70
     0
300
1:4
140
1.0
141
4.0
290
     0
  0
SCALE
  5
4B
102
{ACAD_REACTORS
330
47
102
}
330
47
100
AcDbScale
 70
     0
300
1:5
140
1.0
141
5.0
290
     0
  0
SCALE
  5
4C
102
{ACAD_REACTORS
330
47
102
}
330
47
100
AcDbScale
 70
     0
300
1:8
140
1.0
141
8.0
290
     0
  0
SCALE
  5
4D
102
{ACAD_REACTORS
330
47
102
}
330
47
100
AcDbScale
 70
     0
300
1:10
140
1.0
141
10.0
290
     0
  0
SCALE
  5
4E
102
{ACAD_REACTORS
330
47
102
}
330
47
100
AcDbScale
 70
     0
300
1:16
140
1.0
141
16.0
290
     0
  0
SCALE
  5
4F
102
{ACAD_REACTORS
330
47
102
}
330
47
100
AcDbScale
 70
     0
300
1:20
140
1.0
141
20.0
290
     0
  0
SCALE
  5
50
102
{ACAD_REACTORS
330
47
102
}
330
47
100
AcDbScale
 70
     0
300
1:30
140
1.0
141
30.0
290
     0
  0
SCALE
  5
51
102
{ACAD_REACTORS
330
47
102
}
330
47
100
AcDbScale
 70
     0
300
1:40
140
1.0
141
40.0
290
     0
  0
SCALE
  5
52
102
{ACAD_REACTORS
330
47
102
}
330
47
100
AcDbScale
 70
     0
300
1:50
140
1.0
141
50.0
290
     0
  0
SCALE
  5
53
102
{ACAD_REACTORS
330
47
102
}
330
47
100
AcDbScale
 70
     0
300
1:100
140
1.0
141
100.0
290
     0
  0
SCALE
  5
54
102
{ACAD_REACTORS
330
47
102
}
330
47
100
AcDbScale
 70
     0
300
2:1
140
2.0
141
1.0
290
     0
  0
SCALE
  5
55
102
{ACAD_REACTORS
330
47
102
}
330
47
100
AcDbScale
 70
     0
300
4:1
140
4.0
141
1.0
290
     0
  0
SCALE
  5
56
102
{ACAD_REACTORS
330
47
102
}
330
47
100
AcDbScale
 70
     0
300
8:1
140
8.0
141
1.0
290
     0
  0
SCALE
  5
57
102
{ACAD_REACTORS
330
47
102
}
330
47
100
AcDbScale
 70
     0
300
10:1
140
10.0
141
1.0
290
     0
  0
SCALE
  5
58
102
{ACAD_REACTORS
330
47
102
}
330
47
100
AcDbScale
 70
     0
300
100:1
140
100.0
141
1.0
290
     0
  0
SCALE
  5
59
102
{ACAD_REACTORS
330
47
102
}
330
47
100
AcDbScale
 70
     0
300
1/128" = 1'-0"
140
0.007812
141
12.0
290
     0
  0
SCALE
  5
5A
102
{ACAD_REACTORS
330
47
102
}
330
47
100
AcDbScale
 70
     0
300
1/64" = 1'-0"
140
0.015625
141
12.0
290
     0
  0
SCALE
  5
5B
102
{ACAD_REACTORS
330
47
102
}
330
47
100
AcDbScale
 70
     0
300
1/32" = 1'-0"
140
0.03125
141
12.0
290
     0
  0
SCALE
  5
5C
102
{ACAD_REACTORS
330
47
102
}
330
47
100
AcDbScale
 70
     0
300
1/16" = 1'-0"
140
0.0625
141
12.0
290
     0
  0
SCALE
  5
5D
102
{ACAD_REACTORS
330
47
102
}
330
47
100
AcDbScale
 70
     0
300
3/32" = 1'-0"
140
0.09375
141
12.0
290
     0
  0
SCALE
  5
5E
102
{ACAD_REACTORS
330
47
102
}
330
47
100
AcDbScale
 70
     0
300
1/8" = 1'-0"
140
0.125
141
12.0
290
     0
  0
SCALE
  5
5F
102
{ACAD_REACTORS
330
47
102
}
330
47
100
AcDbScale
 70
     0
300
3/16" = 1'-0"
140
0.1875
141
12.0
290
     0
  0
SCALE
  5
60
102
{ACAD_REACTORS
330
47
102
}
330
47
100
AcDbScale
 70
     0
300
1/4" = 1'-0"
140
0.25
141
12.0
290
     0
  0
SCALE
  5
61
102
{ACAD_REACTORS
330
47
102
}
330
47
100
AcDbScale
 70
     0
300
3/8" = 1'-0"
140
0.375
141
12.0
290
     0
  0
SCALE
  5
62
102
{ACAD_REACTORS
330
47
102
}
330
47
100
AcDbScale
 70
     0
300
1/2" = 1'-0"
140
0.5
141
12.0
290
     0
  0
SCALE
  5
63
102
{ACAD_REACTORS
330
47
102
}
330
47
100
AcDbScale
 70
     0
300
3/4" = 1'-0"
140
0.75
141
12.0
290
     0
  0
SCALE
  5
64
102
{ACAD_REACTORS
330
47
102
}
330
47
100
AcDbScale
 70
     0
300
1" = 1'-0"
140
1.0
141
12.0
290
     0
  0
SCALE
  5
65
102
{ACAD_REACTORS
330
47
102
}
330
47
100
AcDbScale
 70
     0
300
1-1/2" = 1'-0"
140
1.5
141
12.0
290
     0
  0
SCALE
  5
66
102
{ACAD_REACTORS
330
47
102
}
330
47
100
AcDbScale
 70
     0
300
3" = 1'-0"
140
3.0
141
12.0
290
     0
  0
SCALE
  5
67
102
{ACAD_REACTORS
330
47
102
}
330
47
100
AcDbScale
 70
     0
300
6" = 1'-0"
140
6.0
141
12.0
290
     0
  0
SCALE
  5
68
102
{ACAD_REACTORS
330
47
102
}
330
47
100
AcDbScale
 70
     0
300
1'-0" = 1'-0"
140
12.0
141
12.0
290
     0
  0
ENDSEC
  0
EOF
