  0
SECTION
  2
HEADER
  9
$ACADVER
  1
AC1015
  9
$ACADMAINTVER
 70
     6
  9
$DWGCODEPAGE
  3
ANSI_1252
  9
$INSBASE
 10
0.0
 20
0.0
 30
0.0
  9
$EXTMIN
 10
0.0
 20
0.0
 30
0.0
  9
$EXTMAX
 10
926.845947
 20
715.009094
 30
2.0
  9
$LIMMIN
 10
0.0
 20
0.0
  9
$LIMMAX
 10
420.0
 20
297.0
  9
$ORTHOMODE
 70
     0
  9
$REGENMODE
 70
     1
  9
$FILLMODE
 70
     1
  9
$QTEXTMODE
 70
     0
  9
$MIRRTEXT
 70
     1
  9
$LTSCALE
 40
1.0
  9
$ATTMODE
 70
     1
  9
$TEXTSIZE
 40
2.5
  9
$TRACEWID
 40
1.0
  9
$TEXTSTYLE
  7
Standard
  9
$CLAYER
  8
0
  9
$CELTYPE
  6
ByLayer
  9
$CECOLOR
 62
   256
  9
$CELTSCALE
 40
1.0
  9
$DISPSILH
 70
     0
  9
$DIMSCALE
 40
1.0
  9
$DIMASZ
 40
2.5
  9
$DIMEXO
 40
0.625
  9
$DIMDLI
 40
3.75
  9
$DIMRND
 40
0.0
  9
$DIMDLE
 40
0.0
  9
$DIMEXE
 40
1.25
  9
$DIMTP
 40
0.0
  9
$DIMTM
 40
0.0
  9
$DIMTXT
 40
2.5
  9
$DIMCEN
 40
2.5
  9
$DIMTSZ
 40
0.0
  9
$DIMTOL
 70
     0
  9
$DIMLIM
 70
     0
  9
$DIMTIH
 70
     0
  9
$DIMTOH
 70
     0
  9
$DIMSE1
 70
     0
  9
$DIMSE2
 70
     0
  9
$DIMTAD
 70
     1
  9
$DIMZIN
 70
     8
  9
$DIMBLK
  1

  9
$DIMASO
 70
     1
  9
$DIMSHO
 70
     1
  9
$DIMPOST
  1

  9
$DIMAPOST
  1

  9
$DIMALT
 70
     0
  9
$DIMALTD
 70
     3
  9
$DIMALTF
 40
0.03937
  9
$DIMLFAC
 40
1.0
  9
$DIMTOFL
 70
     1
  9
$DIMTVP
 40
0.0
  9
$DIMTIX
 70
     0
  9
$DIMSOXD
 70
     0
  9
$DIMSAH
 70
     0
  9
$DIMBLK1
  1

  9
$DIMBLK2
  1

  9
$DIMSTYLE
  2
Standard
  9
$DIMCLRD
 70
     0
  9
$DIMCLRE
 70
     0
  9
$DIMCLRT
 70
     0
  9
$DIMTFAC
 40
1.0
  9
$DIMGAP
 40
0.625
  9
$DIMJUST
 70
     0
  9
$DIMSD1
 70
     0
  9
$DIMSD2
 70
     0
  9
$DIMTOLJ
 70
     0
  9
$DIMTZIN
 70
     8
  9
$DIMALTZ
 70
     0
  9
$DIMALTTZ
 70
     0
  9
$DIMUPT
 70
     0
  9
$DIMDEC
 70
     2
  9
$DIMTDEC
 70
     2
  9
$DIMALTU
 70
     2
  9
$DIMALTTD
 70
     3
  9
$DIMTXSTY
  7
Standard
  9
$DIMAUNIT
 70
     0
  9
$DIMADEC
 70
     0
  9
$DIMALTRND
 40
0.0
  9
$DIMAZIN
 70
     0
  9
$DIMDSEP
 70
    44
  9
$DIMATFIT
 70
     0
  9
$DIMFRAC
 70
     0
  9
$DIMLDRBLK
  1

  9
$DIMLUNIT
 70
     2
  9
$DIMLWD
 70
    -2
  9
$DIMLWE
 70
    -2
  9
$DIMTMOVE
 70
     0
  9
$LUNITS
 70
     2
  9
$LUPREC
 70
     4
  9
$SKETCHINC
 40
1.0
  9
$FILLETRAD
 40
2.5
  9
$AUNITS
 70
     0
  9
$AUPREC
 70
     0
  9
$MENU
  1
.
  9
$ELEVATION
 40
0.0
  9
$PELEVATION
 40
0.0
  9
$THICKNESS
 40
0.0
  9
$LIMCHECK
 70
     0
  9
$CHAMFERA
 40
2.5
  9
$CHAMFERB
 40
2.5
  9
$CHAMFERC
 40
0.0
  9
$CHAMFERD
 40
0.0
  9
$SKPOLY
 70
     0
  9
$TDCREATE
 40
2447893.125
  9
$TDUCREATE
 40
0.0
  9
$TDUPDATE
 40
2458758.364370313
  9
$TDUUPDATE
 40
2458758.239370313
  9
$TDINDWG
 40
0.0
  9
$TDUSRTIMER
 40
0.0
  9
$USRTIMER
 70
     1
  9
$ANGBASE
 50
0.0
  9
$ANGDIR
 70
     0
  9
$PDMODE
 70
     0
  9
$PDSIZE
 40
0.0
  9
$PLINEWID
 40
0.0
  9
$SPLFRAME
 70
     0
  9
$SPLINETYPE
 70
     6
  9
$SPLINESEGS
 70
     8
  9
$HANDSEED
  5
1F3
  9
$SURFTAB1
 70
     6
  9
$SURFTAB2
 70
     6
  9
$SURFTYPE
 70
     6
  9
$SURFU
 70
     6
  9
$SURFV
 70
     6
  9
$UCSBASE
  2

  9
$UCSNAME
  2

  9
$UCSORG
 10
0.0
 20
0.0
 30
0.0
  9
$UCSXDIR
 10
1.0
 20
0.0
 30
0.0
  9
$UCSYDIR
 10
0.0
 20
1.0
 30
0.0
  9
$UCSORTHOREF
  2

  9
$UCSORTHOVIEW
 70
     1
  9
$UCSORGTOP
 10
0.0
 20
0.0
 30
0.0
  9
$UCSORGBOTTOM
 10
0.0
 20
0.0
 30
0.0
  9
$UCSORGLEFT
 10
0.0
 20
0.0
 30
0.0
  9
$UCSORGRIGHT
 10
0.0
 20
0.0
 30
0.0
  9
$UCSORGFRONT
 10
0.0
 20
0.0
 30
0.0
  9
$UCSORGBACK
 10
0.0
 20
0.0
 30
0.0
  9
$PUCSBASE
  2

  9
$PUCSNAME
  2

  9
$PUCSORG
 10
0.0
 20
0.0
 30
0.0
  9
$PUCSXDIR
 10
1.0
 20
0.0
 30
0.0
  9
$PUCSYDIR
 10
0.0
 20
1.0
 30
0.0
  9
$PUCSORTHOREF
  2

  9
$PUCSORTHOVIEW
 70
     0
  9
$PUCSORGTOP
 10
0.0
 20
0.0
 30
0.0
  9
$PUCSORGBOTTOM
 10
0.0
 20
0.0
 30
0.0
  9
$PUCSORGLEFT
 10
0.0
 20
0.0
 30
0.0
  9
$PUCSORGRIGHT
 10
0.0
 20
0.0
 30
0.0
  9
$PUCSORGFRONT
 10
0.0
 20
0.0
 30
0.0
  9
$PUCSORGBACK
 10
0.0
 20
0.0
 30
0.0
  9
$USERI1
 70
     0
  9
$USERI2
 70
     0
  9
$USERI3
 70
     0
  9
$USERI4
 70
     0
  9
$USERI5
 70
     0
  9
$USERR1
 40
0.0
  9
$USERR2
 40
0.0
  9
$USERR3
 40
0.0
  9
$USERR4
 40
0.0
  9
$USERR5
 40
0.0
  9
$WORLDVIEW
 70
     1
  9
$SHADEDGE
 70
     3
  9
$SHADEDIF
 70
    70
  9
$TILEMODE
 70
     1
  9
$MAXACTVP
 70
    64
  9
$PINSBASE
 10
0.0
 20
0.0
 30
0.0
  9
$PLIMCHECK
 70
     0
  9
$PEXTMIN
 10
0.0
 20
0.0
 30
0.0
  9
$PEXTMAX
 10
926.845947
 20
715.009094
 30
2.0
  9
$PLIMMIN
 10
0.0
 20
0.0
  9
$PLIMMAX
 10
420.0
 20
297.0
  9
$UNITMODE
 70
     0
  9
$VISRETAIN
 70
     0
  9
$PLINEGEN
 70
     0
  9
$PSLTSCALE
 70
     1
  9
$TREEDEPTH
 70
  3020
  9
$CMLSTYLE
  2
Standard
  9
$CMLJUST
 70
     0
  9
$CMLSCALE
 40
20.0
  9
$PROXYGRAPHICS
 70
     1
  9
$MEASUREMENT
 70
     1
  9
$CELWEIGHT
370
    -1
  9
$ENDCAPS
280
     0
  9
$JOINSTYLE
280
     0
  9
$LWDISPLAY
290
     0
  9
$INSUNITS
 70
     0
  9
$HYPERLINKBASE
  1

  9
$STYLESHEET
  1

  9
$XEDIT
290
     1
  9
$CEPSNTYPE
380
     0
  9
$PSTYLEMODE
290
     0
  9
$FINGERPRINTGUID
  2
{80580A10-33B0-42D7-85AD-0BA10158BD8C}
  9
$VERSIONGUID
  2
{FAEB1C32-E019-11D5-929B-00C0DF256EC4}
  9
$EXTNAMES
290
     1
  9
$PSVPSCALE
 40
0.0
  9
$OLESTARTUP
290
     0
  0
ENDSEC
  0
SECTION
  2
CLASSES
  0
CLASS
  1
ACDBDICTIONARYWDFLT
  2
AcDbDictionaryWithDefault
  3
ObjectDBX Classes
 90
        0
280
     0
281
     0
  0
CLASS
  1
VISUALSTYLE
  2
AcDbVisualStyle
  3
ObjectDBX Classes
 90
     4095
280
     0
281
     0
  0
CLASS
  1
MATERIAL
  2
AcDbMaterial
  3
ObjectDBX Classes
 90
     1153
280
     0
281
     0
  0
CLASS
  1
SCALE
  2
AcDbScale
  3
ObjectDBX Classes
 90
     1153
280
     0
281
     0
  0
CLASS
  1
SUN
  2
AcDbSun
  3
SCENEOE
 90
     1153
280
     0
281
     0
  0
CLASS
  1
ACDBPLACEHOLDER
  2
AcDbPlaceHolder
  3
ObjectDBX Classes
 90
        0
280
     0
281
     0
  0
CLASS
  1
LAYOUT
  2
AcDbLayout
  3
ObjectDBX Classes
 90
        0
280
     0
281
     0
  0
ENDSEC
  0
SECTION
  2
TABLES
  0
TABLE
  2
VPORT
  5
8
330
0
100
AcDbSymbolTable
 70
     1
  0
VPORT
  5
29
330
8
100
AcDbSymbolTableRecord
100
AcDbViewportTableRecord
  2
*Active
 70
     0
 10
0.0
 20
0.0
 11
1.0
 21
1.0
 12
10.429907
 22
4.5
 13
0.0
 23
0.0
 14
0.5
 24
0.5
 15
0.5
 25
0.5
 16
0.0
 26
0.0
 36
1.0
 17
0.0
 27
0.0
 37
0.0
 40
9.0
 41
1.972973
 42
50.0
 43
0.0
 44
0.0
 50
0.0
 51
0.0
 71
     0
 72
   100
 73
     1
 74
     3
 75
     0
 76
     0
 77
     0
 78
     0
281
     0
 65
     1
110
0.0
120
0.0
130
0.0
111
1.0
121
0.0
131
0.0
112
0.0
122
1.0
132
0.0
 79
     0
146
0.0
  0
ENDTAB
  0
TABLE
  2
LTYPE
  5
5
330
0
100
AcDbSymbolTable
 70
     2
  0
LTYPE
  5
14
330
5
100
AcDbSymbolTableRecord
100
AcDbLinetypeTableRecord
  2
ByBlock
 70
     0
  3

 72
    65
 73
     0
 40
0.0
  0
LTYPE
  5
15
330
5
100
AcDbSymbolTableRecord
100
AcDbLinetypeTableRecord
  2
ByLayer
 70
     0
  3

 72
    65
 73
     0
 40
0.0
  0
LTYPE
  5
16
330
5
100
AcDbSymbolTableRecord
100
AcDbLinetypeTableRecord
  2
Continuous
 70
     0
  3
Solid line
 72
    65
 73
     0
 40
0.0
  0
LTYPE
  5
6A
330
5
100
AcDbSymbolTableRecord
100
AcDbLinetypeTableRecord
  2
DASHSPACE
 70
     0
  3
__    __    __    __    __   
 72
    65
 73
     2
 40
30.0
 49
12.0
 74
     0
 49
-18.0
 74
     0
  0
ENDTAB
  0
TABLE
  2
LAYER
  5
2
330
0
100
AcDbSymbolTable
 70
     1
  0
LAYER
  5
10
330
2
100
AcDbSymbolTableRecord
100
AcDbLayerTableRecord
  2
0
 70
     0
 62
     7
  6
Continuous
370
    -3
390
F
  0
ENDTAB
  0
TABLE
  2
STYLE
  5
3
330
0
100
AcDbSymbolTable
 70
     1
  0
STYLE
  5
11
330
3
100
AcDbSymbolTableRecord
100
AcDbTextStyleTableRecord
  2
Standard
 70
     0
 40
0.0
 41
1.0
 50
0.0
 71
     0
 42
2.5
  3
txt
  4

  0
ENDTAB
  0
TABLE
  2
VIEW
  5
6
330
0
100
AcDbSymbolTable
 70
     0
  0
ENDTAB
  0
TABLE
  2
UCS
  5
7
330
0
100
AcDbSymbolTable
 70
     0
  0
ENDTAB
  0
TABLE
  2
APPID
  5
9
330
0
100
AcDbSymbolTable
 70
     1
  0
APPID
  5
12
330
9
100
AcDbSymbolTableRecord
100
AcDbRegAppTableRecord
  2
ACAD
 70
     0
  0
ENDTAB
  0
TABLE
  2
DIMSTYLE
  5
A
330
0
100
AcDbSymbolTable
 70
     1
100
AcDbDimStyleTable
  0
DIMSTYLE
105
27
330
A
100
AcDbSymbolTableRecord
100
AcDbDimStyleTableRecord
  2
Standard
 70
     0
178
     0
340
11
  0
ENDTAB
  0
TABLE
  2
BLOCK_RECORD
  5
1
330
0
100
AcDbSymbolTable
 70
     1
  0
BLOCK_RECORD
  5
1F
330
1
100
AcDbSymbolTableRecord
100
AcDbBlockTableRecord
  2
*Model_Space
340
22
  0
BLOCK_RECORD
  5
1B
330
1
100
AcDbSymbolTableRecord
100
AcDbBlockTableRecord
  2
*Paper_Space
340
1E
  0
BLOCK_RECORD
  5
23
330
1
100
AcDbSymbolTableRecord
100
AcDbBlockTableRecord
  2
*Paper_Space0
340
26
  0
ENDTAB
  0
ENDSEC
  0
SECTION
  2
BLOCKS
  0
BLOCK
  5
20
330
1F
100
AcDbEntity
  8
0
100
AcDbBlockBegin
  2
*Model_Space
 70
     0
 10
0.0
 20
0.0
 30
0.0
  3
*Model_Space
  1
*Model_Space
  0
ENDBLK
  5
21
330
1F
100
AcDbEntity
  8
0
100
AcDbBlockEnd
  0
BLOCK
  5
1C
330
1B
100
AcDbEntity
 67
     1
  8
0
100
AcDbBlockBegin
  2
*Paper_Space
 70
     0
 10
0.0
 20
0.0
 30
0.0
  3
*Paper_Space
  1
*Paper_Space
  0
ENDBLK
  5
1D
330
1B
100
AcDbEntity
 67
     1
  8
0
100
AcDbBlockEnd
  0
BLOCK
  5
24
330
23
100
AcDbEntity
  8
0
100
AcDbBlockBegin
  2
*Paper_Space0
 70
     0
 10
0.0
 20
0.0
 30
0.0
  3
*Paper_Space0
  1
*Paper_Space0
  0
ENDBLK
  5
25
330
23
100
AcDbEntity
  8
0
100
AcDbBlockEnd
  0
ENDSEC
  0
SECTION
  2
ENTITIES
  0
LINE
  5
6B
330
1F
100
AcDbEntity
  8
0
  6
DASHSPACE
 62
     7
370
    35
100
AcDbLine
 10
576.408386
 20
634.851318
 30
0.0
 11
576.408386
 21
227.851288
 31
0.0
  0
LINE
  5
6C
330
1F
100
AcDbEntity
  8
0
  6
DASHSPACE
 62
     7
370
    35
100
AcDbLine
 10
306.908386
 20
431.351288
 30
0.0
 11
845.908386
 21
431.351288
 31
0.0
  0
POLYLINE
  5
6D
330
1F
100
AcDbEntity
  8
0
 62
     7
370
    13
100
AcDb2dPolyline
 66
     1
 10
0.0
 20
0.0
 30
0.0
  0
VERTEX
  5
6E
330
6D
100
AcDbEntity
  8
0
370
     0
100
AcDbVertex
100
AcDb2dVertex
 10
545.311584
 20
662.747192
 30
0.0
  0
VERTEX
  5
6F
330
6D
100
AcDbEntity
  8
0
370
     0
100
AcDbVertex
100
AcDb2dVertex
 10
546.279358
 20
661.134277
 30
0.0
  0
VERTEX
  5
70
330
6D
100
AcDbEntity
  8
0
370
     0
100
AcDbVertex
100
AcDb2dVertex
 10
547.24707
 20
660.166504
 30
0.0
  0
VERTEX
  5
71
330
6D
100
AcDbEntity
  8
0
370
     0
100
AcDbVertex
100
AcDb2dVertex
 10
550.795471
 20
659.198792
 30
0.0
  0
VERTEX
  5
72
330
6D
100
AcDbEntity
  8
0
370
     0
100
AcDbVertex
100
AcDb2dVertex
 10
554.343872
 20
659.198792
 30
0.0
  0
VERTEX
  5
73
330
6D
100
AcDbEntity
  8
0
370
     0
100
AcDbVertex
100
AcDb2dVertex
 10
558.214844
 20
660.166504
 30
0.0
  0
VERTEX
  5
74
330
6D
100
AcDbEntity
  8
0
370
     0
100
AcDbVertex
100
AcDb2dVertex
 10
560.15033
 20
662.10199
 30
0.0
  0
VERTEX
  5
75
330
6D
100
AcDbEntity
  8
0
370
     0
100
AcDbVertex
100
AcDb2dVertex
 10
561.118042
 20
665.005249
 30
0.0
  0
VERTEX
  5
76
330
6D
100
AcDbEntity
  8
0
370
     0
100
AcDbVertex
100
AcDb2dVertex
 10
561.118042
 20
666.940674
 30
0.0
  0
VERTEX
  5
77
330
6D
100
AcDbEntity
  8
0
370
     0
100
AcDbVertex
100
AcDb2dVertex
 10
560.15033
 20
669.843933
 30
0.0
  0
VERTEX
  5
78
330
6D
100
AcDbEntity
  8
0
370
     0
100
AcDbVertex
100
AcDb2dVertex
 10
558.214844
 20
671.456848
 30
0.0
  0
VERTEX
  5
79
330
6D
100
AcDbEntity
  8
0
370
     0
100
AcDbVertex
100
AcDb2dVertex
 10
554.343872
 20
672.424561
 30
0.0
  0
VERTEX
  5
7A
330
6D
100
AcDbEntity
  8
0
370
     0
100
AcDbVertex
100
AcDb2dVertex
 10
550.795471
 20
672.424561
 30
0.0
  0
VERTEX
  5
7B
330
6D
100
AcDbEntity
  8
0
370
     0
100
AcDbVertex
100
AcDb2dVertex
 10
547.892273
 20
671.456848
 30
0.0
  0
VERTEX
  5
7C
330
6D
100
AcDbEntity
  8
0
370
     0
100
AcDbVertex
100
AcDb2dVertex
 10
546.9245
 20
670.489136
 30
0.0
  0
VERTEX
  5
7D
330
6D
100
AcDbEntity
  8
0
370
     0
100
AcDbVertex
100
AcDb2dVertex
 10
547.892273
 20
679.198792
 30
0.0
  0
VERTEX
  5
7E
330
6D
100
AcDbEntity
  8
0
370
     0
100
AcDbVertex
100
AcDb2dVertex
 10
559.827759
 20
679.198792
 30
0.0
  0
SEQEND
  5
7F
330
6D
100
AcDbEntity
  8
0
 62
     7
370
    13
  0
POLYLINE
  5
80
330
1F
100
AcDbEntity
  8
0
 62
     7
370
    13
100
AcDb2dPolyline
 66
     1
 10
0.0
 20
0.0
 30
0.0
  0
VERTEX
  5
81
330
80
100
AcDbEntity
  8
0
370
     0
100
AcDbVertex
100
AcDb2dVertex
 10
568.666443
 20
662.747192
 30
0.0
  0
VERTEX
  5
82
330
80
100
AcDbEntity
  8
0
370
     0
100
AcDbVertex
100
AcDb2dVertex
 10
569.634216
 20
661.134277
 30
0.0
  0
VERTEX
  5
83
330
80
100
AcDbEntity
  8
0
370
     0
100
AcDbVertex
100
AcDb2dVertex
 10
570.601929
 20
660.166504
 30
0.0
  0
VERTEX
  5
84
330
80
100
AcDbEntity
  8
0
370
     0
100
AcDbVertex
100
AcDb2dVertex
 10
574.15033
 20
659.198792
 30
0.0
  0
VERTEX
  5
85
330
80
100
AcDbEntity
  8
0
370
     0
100
AcDbVertex
100
AcDb2dVertex
 10
577.69873
 20
659.198792
 30
0.0
  0
VERTEX
  5
86
330
80
100
AcDbEntity
  8
0
370
     0
100
AcDbVertex
100
AcDb2dVertex
 10
581.569702
 20
660.166504
 30
0.0
  0
VERTEX
  5
87
330
80
100
AcDbEntity
  8
0
370
     0
100
AcDbVertex
100
AcDb2dVertex
 10
583.505188
 20
662.10199
 30
0.0
  0
VERTEX
  5
88
330
80
100
AcDbEntity
  8
0
370
     0
100
AcDbVertex
100
AcDb2dVertex
 10
584.4729
 20
665.005249
 30
0.0
  0
VERTEX
  5
89
330
80
100
AcDbEntity
  8
0
370
     0
100
AcDbVertex
100
AcDb2dVertex
 10
584.4729
 20
666.940674
 30
0.0
  0
VERTEX
  5
8A
330
80
100
AcDbEntity
  8
0
370
     0
100
AcDbVertex
100
AcDb2dVertex
 10
583.505188
 20
669.843933
 30
0.0
  0
VERTEX
  5
8B
330
80
100
AcDbEntity
  8
0
370
     0
100
AcDbVertex
100
AcDb2dVertex
 10
582.537415
 20
670.811646
 30
0.0
  0
VERTEX
  5
8C
330
80
100
AcDbEntity
  8
0
370
     0
100
AcDbVertex
100
AcDb2dVertex
 10
580.601929
 20
671.779419
 30
0.0
  0
VERTEX
  5
8D
330
80
100
AcDbEntity
  8
0
370
     0
100
AcDbVertex
100
AcDb2dVertex
 10
576.085815
 20
671.779419
 30
0.0
  0
VERTEX
  5
8E
330
80
100
AcDbEntity
  8
0
370
     0
100
AcDbVertex
100
AcDb2dVertex
 10
582.859985
 20
679.198792
 30
0.0
  0
VERTEX
  5
8F
330
80
100
AcDbEntity
  8
0
370
     0
100
AcDbVertex
100
AcDb2dVertex
 10
570.9245
 20
679.198792
 30
0.0
  0
SEQEND
  5
90
330
80
100
AcDbEntity
  8
0
 62
     7
370
    13
  0
POLYLINE
  5
91
330
1F
100
AcDbEntity
  8
0
 62
     7
370
    13
100
AcDb2dPolyline
 66
     1
 10
0.0
 20
0.0
 30
0.0
  0
VERTEX
  5
92
330
91
100
AcDbEntity
  8
0
370
     0
100
AcDbVertex
100
AcDb2dVertex
 10
606.537415
 20
672.747192
 30
0.0
  0
VERTEX
  5
93
330
91
100
AcDbEntity
  8
0
370
     0
100
AcDbVertex
100
AcDb2dVertex
 10
605.569702
 20
676.295532
 30
0.0
  0
VERTEX
  5
94
330
91
100
AcDbEntity
  8
0
370
     0
100
AcDbVertex
100
AcDb2dVertex
 10
603.311584
 20
678.231018
 30
0.0
  0
VERTEX
  5
95
330
91
100
AcDbEntity
  8
0
370
     0
100
AcDbVertex
100
AcDb2dVertex
 10
599.763245
 20
679.198792
 30
0.0
  0
VERTEX
  5
96
330
91
100
AcDbEntity
  8
0
370
     0
100
AcDbVertex
100
AcDb2dVertex
 10
598.795471
 20
679.198792
 30
0.0
  0
VERTEX
  5
97
330
91
100
AcDbEntity
  8
0
370
     0
100
AcDbVertex
100
AcDb2dVertex
 10
595.24707
 20
678.231018
 30
0.0
  0
VERTEX
  5
98
330
91
100
AcDbEntity
  8
0
370
     0
100
AcDbVertex
100
AcDb2dVertex
 10
592.989014
 20
676.295532
 30
0.0
  0
VERTEX
  5
99
330
91
100
AcDbEntity
  8
0
370
     0
100
AcDbVertex
100
AcDb2dVertex
 10
592.021301
 20
673.714905
 30
0.0
  0
VERTEX
  5
9A
330
91
100
AcDbEntity
  8
0
370
     0
100
AcDbVertex
100
AcDb2dVertex
 10
592.021301
 20
672.747192
 30
0.0
  0
VERTEX
  5
9B
330
91
100
AcDbEntity
  8
0
370
     0
100
AcDbVertex
100
AcDb2dVertex
 10
592.989014
 20
670.166504
 30
0.0
  0
VERTEX
  5
9C
330
91
100
AcDbEntity
  8
0
370
     0
100
AcDbVertex
100
AcDb2dVertex
 10
595.24707
 20
668.231018
 30
0.0
  0
VERTEX
  5
9D
330
91
100
AcDbEntity
  8
0
370
     0
100
AcDbVertex
100
AcDb2dVertex
 10
598.795471
 20
666.940674
 30
0.0
  0
VERTEX
  5
9E
330
91
100
AcDbEntity
  8
0
370
     0
100
AcDbVertex
100
AcDb2dVertex
 10
599.763245
 20
666.940674
 30
0.0
  0
VERTEX
  5
9F
330
91
100
AcDbEntity
  8
0
370
     0
100
AcDbVertex
100
AcDb2dVertex
 10
603.311584
 20
667.908447
 30
0.0
  0
VERTEX
  5
A0
330
91
100
AcDbEntity
  8
0
370
     0
100
AcDbVertex
100
AcDb2dVertex
 10
605.569702
 20
669.843933
 30
0.0
  0
VERTEX
  5
A1
330
91
100
AcDbEntity
  8
0
370
     0
100
AcDbVertex
100
AcDb2dVertex
 10
606.537415
 20
672.747192
 30
0.0
  0
VERTEX
  5
A2
330
91
100
AcDbEntity
  8
0
370
     0
100
AcDbVertex
100
AcDb2dVertex
 10
606.537415
 20
668.231018
 30
0.0
  0
VERTEX
  5
A3
330
91
100
AcDbEntity
  8
0
370
     0
100
AcDbVertex
100
AcDb2dVertex
 10
605.569702
 20
663.714905
 30
0.0
  0
VERTEX
  5
A4
330
91
100
AcDbEntity
  8
0
370
     0
100
AcDbVertex
100
AcDb2dVertex
 10
603.311584
 20
660.166504
 30
0.0
  0
VERTEX
  5
A5
330
91
100
AcDbEntity
  8
0
370
     0
100
AcDbVertex
100
AcDb2dVertex
 10
599.763245
 20
659.198792
 30
0.0
  0
VERTEX
  5
A6
330
91
100
AcDbEntity
  8
0
370
     0
100
AcDbVertex
100
AcDb2dVertex
 10
597.505127
 20
659.198792
 30
0.0
  0
VERTEX
  5
A7
330
91
100
AcDbEntity
  8
0
370
     0
100
AcDbVertex
100
AcDb2dVertex
 10
594.279358
 20
660.166504
 30
0.0
  0
VERTEX
  5
A8
330
91
100
AcDbEntity
  8
0
370
     0
100
AcDbVertex
100
AcDb2dVertex
 10
592.989014
 20
662.10199
 30
0.0
  0
SEQEND
  5
A9
330
91
100
AcDbEntity
  8
0
 62
     7
370
    13
  0
LINE
  5
AA
330
1F
100
AcDbEntity
  8
0
 62
     7
370
    13
100
AcDbLine
 10
306.908386
 20
544.851318
 30
0.0
 11
306.908386
 21
659.198792
 31
0.0
  0
LINE
  5
AB
330
1F
100
AcDbEntity
  8
0
 62
     7
370
    13
100
AcDbLine
 10
845.908386
 20
544.851318
 30
0.0
 11
845.908386
 21
659.198792
 31
0.0
  0
POLYLINE
  5
AC
330
1F
100
AcDbEntity
  8
0
 62
     7
370
    13
100
AcDb2dPolyline
 66
     1
 10
0.0
 20
0.0
 30
0.0
  0
VERTEX
  5
AD
330
AC
100
AcDbEntity
  8
0
370
     0
100
AcDbVertex
100
AcDb2dVertex
 10
843.976562
 20
656.681152
 30
0.0
  0
VERTEX
  5
AE
330
AC
100
AcDbEntity
  8
0
370
     0
100
AcDbVertex
100
AcDb2dVertex
 10
845.908386
 20
657.198792
 30
0.0
  0
VERTEX
  5
AF
330
AC
100
AcDbEntity
  8
0
370
     0
100
AcDbVertex
100
AcDb2dVertex
 10
843.976562
 20
657.716431
 30
0.0
  0
SEQEND
  5
B0
330
AC
100
AcDbEntity
  8
0
 62
     7
370
    13
  0
POLYLINE
  5
B1
330
1F
100
AcDbEntity
  8
0
 62
     7
370
    13
100
AcDb2dPolyline
 66
     1
 10
0.0
 20
0.0
 30
0.0
  0
VERTEX
  5
B2
330
B1
100
AcDbEntity
  8
0
370
     0
100
AcDbVertex
100
AcDb2dVertex
 10
308.84024
 20
657.716431
 30
0.0
  0
VERTEX
  5
B3
330
B1
100
AcDbEntity
  8
0
370
     0
100
AcDbVertex
100
AcDb2dVertex
 10
306.908386
 20
657.198792
 30
0.0
  0
VERTEX
  5
B4
330
B1
100
AcDbEntity
  8
0
370
     0
100
AcDbVertex
100
AcDb2dVertex
 10
308.84024
 20
656.681152
 30
0.0
  0
SEQEND
  5
B5
330
B1
100
AcDbEntity
  8
0
 62
     7
370
    13
  0
LINE
  5
B6
330
1F
100
AcDbEntity
  8
0
 62
     7
370
    13
100
AcDbLine
 10
306.908386
 20
657.198792
 30
0.0
 11
845.908386
 21
657.198792
 31
0.0
  0
POLYLINE
  5
B7
330
1F
100
AcDbEntity
  8
0
 62
     7
370
    13
100
AcDb2dPolyline
 66
     1
 10
0.0
 20
0.0
 30
0.0
  0
VERTEX
  5
B8
330
B7
100
AcDbEntity
  8
0
370
     0
100
AcDbVertex
100
AcDb2dVertex
 10
545.311584
 20
697.557495
 30
0.0
  0
VERTEX
  5
B9
330
B7
100
AcDbEntity
  8
0
370
     0
100
AcDbVertex
100
AcDb2dVertex
 10
546.279358
 20
695.94458
 30
0.0
  0
VERTEX
  5
BA
330
B7
100
AcDbEntity
  8
0
370
     0
100
AcDbVertex
100
AcDb2dVertex
 10
547.24707
 20
694.976807
 30
0.0
  0
VERTEX
  5
BB
330
B7
100
AcDbEntity
  8
0
370
     0
100
AcDbVertex
100
AcDb2dVertex
 10
550.795471
 20
694.009094
 30
0.0
  0
VERTEX
  5
BC
330
B7
100
AcDbEntity
  8
0
370
     0
100
AcDbVertex
100
AcDb2dVertex
 10
554.343872
 20
694.009094
 30
0.0
  0
VERTEX
  5
BD
330
B7
100
AcDbEntity
  8
0
370
     0
100
AcDbVertex
100
AcDb2dVertex
 10
558.214844
 20
694.976807
 30
0.0
  0
VERTEX
  5
BE
330
B7
100
AcDbEntity
  8
0
370
     0
100
AcDbVertex
100
AcDb2dVertex
 10
560.15033
 20
696.912354
 30
0.0
  0
VERTEX
  5
BF
330
B7
100
AcDbEntity
  8
0
370
     0
100
AcDbVertex
100
AcDb2dVertex
 10
561.118042
 20
699.815552
 30
0.0
  0
VERTEX
  5
C0
330
B7
100
AcDbEntity
  8
0
370
     0
100
AcDbVertex
100
AcDb2dVertex
 10
561.118042
 20
701.751038
 30
0.0
  0
VERTEX
  5
C1
330
B7
100
AcDbEntity
  8
0
370
     0
100
AcDbVertex
100
AcDb2dVertex
 10
560.15033
 20
704.654297
 30
0.0
  0
VERTEX
  5
C2
330
B7
100
AcDbEntity
  8
0
370
     0
100
AcDbVertex
100
AcDb2dVertex
 10
558.214844
 20
706.267151
 30
0.0
  0
VERTEX
  5
C3
330
B7
100
AcDbEntity
  8
0
370
     0
100
AcDbVertex
100
AcDb2dVertex
 10
554.343872
 20
707.234863
 30
0.0
  0
VERTEX
  5
C4
330
B7
100
AcDbEntity
  8
0
370
     0
100
AcDbVertex
100
AcDb2dVertex
 10
550.795471
 20
707.234863
 30
0.0
  0
VERTEX
  5
C5
330
B7
100
AcDbEntity
  8
0
370
     0
100
AcDbVertex
100
AcDb2dVertex
 10
547.892273
 20
706.267151
 30
0.0
  0
VERTEX
  5
C6
330
B7
100
AcDbEntity
  8
0
370
     0
100
AcDbVertex
100
AcDb2dVertex
 10
546.9245
 20
705.299438
 30
0.0
  0
VERTEX
  5
C7
330
B7
100
AcDbEntity
  8
0
370
     0
100
AcDbVertex
100
AcDb2dVertex
 10
547.892273
 20
714.009094
 30
0.0
  0
VERTEX
  5
C8
330
B7
100
AcDbEntity
  8
0
370
     0
100
AcDbVertex
100
AcDb2dVertex
 10
559.827759
 20
714.009094
 30
0.0
  0
SEQEND
  5
C9
330
B7
100
AcDbEntity
  8
0
 62
     7
370
    13
  0
POLYLINE
  5
CA
330
1F
100
AcDbEntity
  8
0
 62
     7
370
    13
100
AcDb2dPolyline
 66
     1
 10
0.0
 20
0.0
 30
0.0
  0
VERTEX
  5
CB
330
CA
100
AcDbEntity
  8
0
370
     0
100
AcDbVertex
100
AcDb2dVertex
 10
583.505188
 20
701.105835
 30
0.0
  0
VERTEX
  5
CC
330
CA
100
AcDbEntity
  8
0
370
     0
100
AcDbVertex
100
AcDb2dVertex
 10
568.666443
 20
701.105835
 30
0.0
  0
VERTEX
  5
CD
330
CA
100
AcDbEntity
  8
0
370
     0
100
AcDbVertex
100
AcDb2dVertex
 10
579.634216
 20
714.009094
 30
0.0
  0
VERTEX
  5
CE
330
CA
100
AcDbEntity
  8
0
370
     0
100
AcDbVertex
100
AcDb2dVertex
 10
579.634216
 20
704.331665
 30
0.0
  0
VERTEX
  5
CF
330
CA
100
AcDbEntity
  8
0
370
     0
100
AcDbVertex
100
AcDb2dVertex
 10
579.634216
 20
694.009094
 30
0.0
  0
SEQEND
  5
D0
330
CA
100
AcDbEntity
  8
0
 62
     7
370
    13
  0
POLYLINE
  5
D1
330
1F
100
AcDbEntity
  8
0
 62
     7
370
    13
100
AcDb2dPolyline
 66
     1
 10
0.0
 20
0.0
 30
0.0
  0
VERTEX
  5
D2
330
D1
100
AcDbEntity
  8
0
370
     0
100
AcDbVertex
100
AcDb2dVertex
 10
606.214844
 20
711.428467
 30
0.0
  0
VERTEX
  5
D3
330
D1
100
AcDbEntity
  8
0
370
     0
100
AcDbVertex
100
AcDb2dVertex
 10
605.24707
 20
713.041382
 30
0.0
  0
VERTEX
  5
D4
330
D1
100
AcDbEntity
  8
0
370
     0
100
AcDbVertex
100
AcDb2dVertex
 10
601.69873
 20
714.009094
 30
0.0
  0
VERTEX
  5
D5
330
D1
100
AcDbEntity
  8
0
370
     0
100
AcDbVertex
100
AcDb2dVertex
 10
599.763245
 20
714.009094
 30
0.0
  0
VERTEX
  5
D6
330
D1
100
AcDbEntity
  8
0
370
     0
100
AcDbVertex
100
AcDb2dVertex
 10
596.214844
 20
713.041382
 30
0.0
  0
VERTEX
  5
D7
330
D1
100
AcDbEntity
  8
0
370
     0
100
AcDbVertex
100
AcDb2dVertex
 10
593.956787
 20
710.460693
 30
0.0
  0
VERTEX
  5
D8
330
D1
100
AcDbEntity
  8
0
370
     0
100
AcDbVertex
100
AcDb2dVertex
 10
592.989014
 20
705.94458
 30
0.0
  0
VERTEX
  5
D9
330
D1
100
AcDbEntity
  8
0
370
     0
100
AcDbVertex
100
AcDb2dVertex
 10
592.989014
 20
701.428467
 30
0.0
  0
VERTEX
  5
DA
330
D1
100
AcDbEntity
  8
0
370
     0
100
AcDbVertex
100
AcDb2dVertex
 10
593.956787
 20
697.880066
 30
0.0
  0
VERTEX
  5
DB
330
D1
100
AcDbEntity
  8
0
370
     0
100
AcDbVertex
100
AcDb2dVertex
 10
595.892273
 20
695.622009
 30
0.0
  0
VERTEX
  5
DC
330
D1
100
AcDbEntity
  8
0
370
     0
100
AcDbVertex
100
AcDb2dVertex
 10
599.440613
 20
694.009094
 30
0.0
  0
VERTEX
  5
DD
330
D1
100
AcDbEntity
  8
0
370
     0
100
AcDbVertex
100
AcDb2dVertex
 10
600.730957
 20
694.009094
 30
0.0
  0
VERTEX
  5
DE
330
D1
100
AcDbEntity
  8
0
370
     0
100
AcDbVertex
100
AcDb2dVertex
 10
604.279358
 20
694.976807
 30
0.0
  0
VERTEX
  5
DF
330
D1
100
AcDbEntity
  8
0
370
     0
100
AcDbVertex
100
AcDb2dVertex
 10
606.214844
 20
696.912354
 30
0.0
  0
VERTEX
  5
E0
330
D1
100
AcDbEntity
  8
0
370
     0
100
AcDbVertex
100
AcDb2dVertex
 10
607.182556
 20
699.49292
 30
0.0
  0
VERTEX
  5
E1
330
D1
100
AcDbEntity
  8
0
370
     0
100
AcDbVertex
100
AcDb2dVertex
 10
607.182556
 20
700.460693
 30
0.0
  0
VERTEX
  5
E2
330
D1
100
AcDbEntity
  8
0
370
     0
100
AcDbVertex
100
AcDb2dVertex
 10
606.214844
 20
703.041382
 30
0.0
  0
VERTEX
  5
E3
330
D1
100
AcDbEntity
  8
0
370
     0
100
AcDbVertex
100
AcDb2dVertex
 10
604.279358
 20
704.976807
 30
0.0
  0
VERTEX
  5
E4
330
D1
100
AcDbEntity
  8
0
370
     0
100
AcDbVertex
100
AcDb2dVertex
 10
600.730957
 20
705.94458
 30
0.0
  0
VERTEX
  5
E5
330
D1
100
AcDbEntity
  8
0
370
     0
100
AcDbVertex
100
AcDb2dVertex
 10
599.440613
 20
705.94458
 30
0.0
  0
VERTEX
  5
E6
330
D1
100
AcDbEntity
  8
0
370
     0
100
AcDbVertex
100
AcDb2dVertex
 10
595.892273
 20
704.976807
 30
0.0
  0
VERTEX
  5
E7
330
D1
100
AcDbEntity
  8
0
370
     0
100
AcDbVertex
100
AcDb2dVertex
 10
593.956787
 20
703.363892
 30
0.0
  0
VERTEX
  5
E8
330
D1
100
AcDbEntity
  8
0
370
     0
100
AcDbVertex
100
AcDb2dVertex
 10
592.989014
 20
701.105835
 30
0.0
  0
SEQEND
  5
E9
330
D1
100
AcDbEntity
  8
0
 62
     7
370
    13
  0
LINE
  5
EA
330
1F
100
AcDbEntity
  8
0
 62
     7
370
    13
100
AcDbLine
 10
303.408386
 20
544.351318
 30
0.0
 11
303.408386
 21
694.009094
 31
0.0
  0
LINE
  5
EB
330
1F
100
AcDbEntity
  8
0
 62
     7
370
    13
100
AcDbLine
 10
849.408386
 20
544.351318
 30
0.0
 11
849.408386
 21
694.009094
 31
0.0
  0
POLYLINE
  5
EC
330
1F
100
AcDbEntity
  8
0
 62
     7
370
    13
100
AcDb2dPolyline
 66
     1
 10
0.0
 20
0.0
 30
0.0
  0
VERTEX
  5
ED
330
EC
100
AcDbEntity
  8
0
370
     0
100
AcDbVertex
100
AcDb2dVertex
 10
305.34024
 20
692.526733
 30
0.0
  0
VERTEX
  5
EE
330
EC
100
AcDbEntity
  8
0
370
     0
100
AcDbVertex
100
AcDb2dVertex
 10
303.408386
 20
692.009094
 30
0.0
  0
VERTEX
  5
EF
330
EC
100
AcDbEntity
  8
0
370
     0
100
AcDbVertex
100
AcDb2dVertex
 10
305.34024
 20
691.491455
 30
0.0
  0
SEQEND
  5
F0
330
EC
100
AcDbEntity
  8
0
 62
     7
370
    13
  0
POLYLINE
  5
F1
330
1F
100
AcDbEntity
  8
0
 62
     7
370
    13
100
AcDb2dPolyline
 66
     1
 10
0.0
 20
0.0
 30
0.0
  0
VERTEX
  5
F2
330
F1
100
AcDbEntity
  8
0
370
     0
100
AcDbVertex
100
AcDb2dVertex
 10
847.476562
 20
691.491455
 30
0.0
  0
VERTEX
  5
F3
330
F1
100
AcDbEntity
  8
0
370
     0
100
AcDbVertex
100
AcDb2dVertex
 10
849.408386
 20
692.009094
 30
0.0
  0
VERTEX
  5
F4
330
F1
100
AcDbEntity
  8
0
370
     0
100
AcDbVertex
100
AcDb2dVertex
 10
847.476562
 20
692.526733
 30
0.0
  0
SEQEND
  5
F5
330
F1
100
AcDbEntity
  8
0
 62
     7
370
    13
  0
LINE
  5
F6
330
1F
100
AcDbEntity
  8
0
 62
     7
370
    13
100
AcDbLine
 10
303.408386
 20
692.009094
 30
0.0
 11
849.408386
 21
692.009094
 31
0.0
  0
POLYLINE
  5
F7
330
1F
100
AcDbEntity
  8
0
 62
     7
370
    13
100
AcDb2dPolyline
 66
     1
 10
0.0
 20
0.0
 30
0.0
  0
VERTEX
  5
F8
330
F7
100
AcDbEntity
  8
0
370
     0
100
AcDbVertex
100
AcDb2dVertex
 10
876.585693
 20
415.093231
 30
0.0
  0
VERTEX
  5
F9
330
F7
100
AcDbEntity
  8
0
370
     0
100
AcDbVertex
100
AcDb2dVertex
 10
876.585693
 20
400.254517
 30
0.0
  0
VERTEX
  5
FA
330
F7
100
AcDbEntity
  8
0
370
     0
100
AcDbVertex
100
AcDb2dVertex
 10
863.682495
 20
411.22226
 30
0.0
  0
VERTEX
  5
FB
330
F7
100
AcDbEntity
  8
0
370
     0
100
AcDbVertex
100
AcDb2dVertex
 10
873.359863
 20
411.22226
 30
0.0
  0
VERTEX
  5
FC
330
F7
100
AcDbEntity
  8
0
370
     0
100
AcDbVertex
100
AcDb2dVertex
 10
883.682495
 20
411.22226
 30
0.0
  0
SEQEND
  5
FD
330
F7
100
AcDbEntity
  8
0
 62
     7
370
    13
  0
POLYLINE
  5
FE
330
1F
100
AcDbEntity
  8
0
 62
     7
370
    13
100
AcDb2dPolyline
 66
     1
 10
0.0
 20
0.0
 30
0.0
 70
     1
  0
VERTEX
  5
FF
330
FE
100
AcDbEntity
  8
0
370
     0
100
AcDbVertex
100
AcDb2dVertex
 10
863.682495
 20
430.060974
 30
0.0
  0
VERTEX
  5
100
330
FE
100
AcDbEntity
  8
0
370
     0
100
AcDbVertex
100
AcDb2dVertex
 10
864.650208
 20
426.512573
 30
0.0
  0
VERTEX
  5
101
330
FE
100
AcDbEntity
  8
0
370
     0
100
AcDbVertex
100
AcDb2dVertex
 10
867.875977
 20
424.254517
 30
0.0
  0
VERTEX
  5
102
330
FE
100
AcDbEntity
  8
0
370
     0
100
AcDbVertex
100
AcDb2dVertex
 10
871.101807
 20
423.286774
 30
0.0
  0
VERTEX
  5
103
330
FE
100
AcDbEntity
  8
0
370
     0
100
AcDbVertex
100
AcDb2dVertex
 10
875.29541
 20
423.286774
 30
0.0
  0
VERTEX
  5
104
330
FE
100
AcDbEntity
  8
0
370
     0
100
AcDbVertex
100
AcDb2dVertex
 10
879.488892
 20
424.254517
 30
0.0
  0
VERTEX
  5
105
330
FE
100
AcDbEntity
  8
0
370
     0
100
AcDbVertex
100
AcDb2dVertex
 10
882.714722
 20
426.512573
 30
0.0
  0
VERTEX
  5
106
330
FE
100
AcDbEntity
  8
0
370
     0
100
AcDbVertex
100
AcDb2dVertex
 10
883.682495
 20
430.060974
 30
0.0
  0
VERTEX
  5
107
330
FE
100
AcDbEntity
  8
0
370
     0
100
AcDbVertex
100
AcDb2dVertex
 10
883.682495
 20
432.641602
 30
0.0
  0
VERTEX
  5
108
330
FE
100
AcDbEntity
  8
0
370
     0
100
AcDbVertex
100
AcDb2dVertex
 10
882.714722
 20
436.190002
 30
0.0
  0
VERTEX
  5
109
330
FE
100
AcDbEntity
  8
0
370
     0
100
AcDbVertex
100
AcDb2dVertex
 10
879.488892
 20
438.448059
 30
0.0
  0
VERTEX
  5
10A
330
FE
100
AcDbEntity
  8
0
370
     0
100
AcDbVertex
100
AcDb2dVertex
 10
875.61792
 20
439.415802
 30
0.0
  0
VERTEX
  5
10B
330
FE
100
AcDbEntity
  8
0
370
     0
100
AcDbVertex
100
AcDb2dVertex
 10
871.101807
 20
439.415802
 30
0.0
  0
VERTEX
  5
10C
330
FE
100
AcDbEntity
  8
0
370
     0
100
AcDbVertex
100
AcDb2dVertex
 10
867.875977
 20
438.448059
 30
0.0
  0
VERTEX
  5
10D
330
FE
100
AcDbEntity
  8
0
370
     0
100
AcDbVertex
100
AcDb2dVertex
 10
864.650208
 20
436.190002
 30
0.0
  0
VERTEX
  5
10E
330
FE
100
AcDbEntity
  8
0
370
     0
100
AcDbVertex
100
AcDb2dVertex
 10
863.682495
 20
432.641602
 30
0.0
  0
SEQEND
  5
10F
330
FE
100
AcDbEntity
  8
0
 62
     7
370
    13
  0
POLYLINE
  5
110
330
1F
100
AcDbEntity
  8
0
 62
     7
370
    13
100
AcDb2dPolyline
 66
     1
 10
0.0
 20
0.0
 30
0.0
  0
VERTEX
  5
111
330
110
100
AcDbEntity
  8
0
370
     0
100
AcDbVertex
100
AcDb2dVertex
 10
863.682495
 20
446.964203
 30
0.0
  0
VERTEX
  5
112
330
110
100
AcDbEntity
  8
0
370
     0
100
AcDbVertex
100
AcDb2dVertex
 10
863.682495
 20
462.448059
 30
0.0
  0
VERTEX
  5
113
330
110
100
AcDbEntity
  8
0
370
     0
100
AcDbVertex
100
AcDb2dVertex
 10
883.682495
 20
450.835144
 30
0.0
  0
SEQEND
  5
114
330
110
100
AcDbEntity
  8
0
 62
     7
370
    13
  0
LINE
  5
115
330
1F
100
AcDbEntity
  8
0
 62
     7
370
    13
100
AcDbLine
 10
755.908386
 20
227.851288
 30
0.0
 11
887.682495
 21
227.851288
 31
0.0
  0
LINE
  5
116
330
1F
100
AcDbEntity
  8
0
 62
     7
370
    13
100
AcDbLine
 10
755.908386
 20
634.851318
 30
0.0
 11
887.682495
 21
634.851318
 31
0.0
  0
POLYLINE
  5
117
330
1F
100
AcDbEntity
  8
0
 62
     7
370
    13
100
AcDb2dPolyline
 66
     1
 10
0.0
 20
0.0
 30
0.0
  0
VERTEX
  5
118
330
117
100
AcDbEntity
  8
0
370
     0
100
AcDbVertex
100
AcDb2dVertex
 10
886.200073
 20
632.919434
 30
0.0
  0
VERTEX
  5
119
330
117
100
AcDbEntity
  8
0
370
     0
100
AcDbVertex
100
AcDb2dVertex
 10
885.682495
 20
634.851318
 30
0.0
  0
VERTEX
  5
11A
330
117
100
AcDbEntity
  8
0
370
     0
100
AcDbVertex
100
AcDb2dVertex
 10
885.164795
 20
632.919434
 30
0.0
  0
SEQEND
  5
11B
330
117
100
AcDbEntity
  8
0
 62
     7
370
    13
  0
POLYLINE
  5
11C
330
1F
100
AcDbEntity
  8
0
 62
     7
370
    13
100
AcDb2dPolyline
 66
     1
 10
0.0
 20
0.0
 30
0.0
  0
VERTEX
  5
11D
330
11C
100
AcDbEntity
  8
0
370
     0
100
AcDbVertex
100
AcDb2dVertex
 10
885.164795
 20
229.783142
 30
0.0
  0
VERTEX
  5
11E
330
11C
100
AcDbEntity
  8
0
370
     0
100
AcDbVertex
100
AcDb2dVertex
 10
885.682495
 20
227.851288
 30
0.0
  0
VERTEX
  5
11F
330
11C
100
AcDbEntity
  8
0
370
     0
100
AcDbVertex
100
AcDb2dVertex
 10
886.200073
 20
229.783142
 30
0.0
  0
SEQEND
  5
120
330
11C
100
AcDbEntity
  8
0
 62
     7
370
    13
  0
LINE
  5
121
330
1F
100
AcDbEntity
  8
0
 62
     7
370
    13
100
AcDbLine
 10
885.682495
 20
227.851288
 30
0.0
 11
885.682495
 21
634.851318
 31
0.0
  0
POLYLINE
  5
122
330
1F
100
AcDbEntity
  8
0
 62
     7
370
    13
100
AcDb2dPolyline
 66
     1
 10
0.0
 20
0.0
 30
0.0
  0
VERTEX
  5
123
330
122
100
AcDbEntity
  8
0
370
     0
100
AcDbVertex
100
AcDb2dVertex
 10
915.749146
 20
415.093231
 30
0.0
  0
VERTEX
  5
124
330
122
100
AcDbEntity
  8
0
370
     0
100
AcDbVertex
100
AcDb2dVertex
 10
915.749146
 20
400.254517
 30
0.0
  0
VERTEX
  5
125
330
122
100
AcDbEntity
  8
0
370
     0
100
AcDbVertex
100
AcDb2dVertex
 10
902.845947
 20
411.22226
 30
0.0
  0
VERTEX
  5
126
330
122
100
AcDbEntity
  8
0
370
     0
100
AcDbVertex
100
AcDb2dVertex
 10
912.523315
 20
411.22226
 30
0.0
  0
VERTEX
  5
127
330
122
100
AcDbEntity
  8
0
370
     0
100
AcDbVertex
100
AcDb2dVertex
 10
922.845947
 20
411.22226
 30
0.0
  0
SEQEND
  5
128
330
122
100
AcDbEntity
  8
0
 62
     7
370
    13
  0
POLYLINE
  5
129
330
1F
100
AcDbEntity
  8
0
 62
     7
370
    13
100
AcDb2dPolyline
 66
     1
 10
0.0
 20
0.0
 30
0.0
  0
VERTEX
  5
12A
330
129
100
AcDbEntity
  8
0
370
     0
100
AcDbVertex
100
AcDb2dVertex
 10
905.426575
 20
428.448059
 30
0.0
  0
VERTEX
  5
12B
330
129
100
AcDbEntity
  8
0
370
     0
100
AcDbVertex
100
AcDb2dVertex
 10
902.845947
 20
431.99646
 30
0.0
  0
VERTEX
  5
12C
330
129
100
AcDbEntity
  8
0
370
     0
100
AcDbVertex
100
AcDb2dVertex
 10
922.845947
 20
431.99646
 30
0.0
  0
SEQEND
  5
12D
330
129
100
AcDbEntity
  8
0
 62
     7
370
    13
  0
POLYLINE
  5
12E
330
1F
100
AcDbEntity
  8
0
 62
     7
370
    13
100
AcDb2dPolyline
 66
     1
 10
0.0
 20
0.0
 30
0.0
  0
VERTEX
  5
12F
330
12E
100
AcDbEntity
  8
0
370
     0
100
AcDbVertex
100
AcDb2dVertex
 10
906.394287
 20
426.512573
 30
0.0
  0
VERTEX
  5
130
330
12E
100
AcDbEntity
  8
0
370
     0
100
AcDbVertex
100
AcDb2dVertex
 10
905.426575
 20
428.448059
 30
0.0
  0
SEQEND
  5
131
330
12E
100
AcDbEntity
  8
0
 62
     7
370
    13
  0
POLYLINE
  5
132
330
1F
100
AcDbEntity
  8
0
 62
     7
370
    13
100
AcDb2dPolyline
 66
     1
 10
0.0
 20
0.0
 30
0.0
  0
VERTEX
  5
133
330
132
100
AcDbEntity
  8
0
370
     0
100
AcDbVertex
100
AcDb2dVertex
 10
922.845947
 20
462.448059
 30
0.0
  0
VERTEX
  5
134
330
132
100
AcDbEntity
  8
0
370
     0
100
AcDbVertex
100
AcDb2dVertex
 10
922.845947
 20
446.964172
 30
0.0
  0
VERTEX
  5
135
330
132
100
AcDbEntity
  8
0
370
     0
100
AcDbVertex
100
AcDb2dVertex
 10
913.81366
 20
457.931946
 30
0.0
  0
VERTEX
  5
136
330
132
100
AcDbEntity
  8
0
370
     0
100
AcDbVertex
100
AcDb2dVertex
 10
911.233032
 20
460.190002
 30
0.0
  0
VERTEX
  5
137
330
132
100
AcDbEntity
  8
0
370
     0
100
AcDbVertex
100
AcDb2dVertex
 10
909.297485
 20
461.157745
 30
0.0
  0
VERTEX
  5
138
330
132
100
AcDbEntity
  8
0
370
     0
100
AcDbVertex
100
AcDb2dVertex
 10
907.362061
 20
461.157745
 30
0.0
  0
VERTEX
  5
139
330
132
100
AcDbEntity
  8
0
370
     0
100
AcDbVertex
100
AcDb2dVertex
 10
905.104004
 20
460.190002
 30
0.0
  0
VERTEX
  5
13A
330
132
100
AcDbEntity
  8
0
370
     0
100
AcDbVertex
100
AcDb2dVertex
 10
903.81366
 20
459.22226
 30
0.0
  0
VERTEX
  5
13B
330
132
100
AcDbEntity
  8
0
370
     0
100
AcDbVertex
100
AcDb2dVertex
 10
902.845947
 20
456.964172
 30
0.0
  0
VERTEX
  5
13C
330
132
100
AcDbEntity
  8
0
370
     0
100
AcDbVertex
100
AcDb2dVertex
 10
902.845947
 20
453.093231
 30
0.0
  0
VERTEX
  5
13D
330
132
100
AcDbEntity
  8
0
370
     0
100
AcDbVertex
100
AcDb2dVertex
 10
903.81366
 20
450.835144
 30
0.0
  0
VERTEX
  5
13E
330
132
100
AcDbEntity
  8
0
370
     0
100
AcDbVertex
100
AcDb2dVertex
 10
904.781372
 20
449.867401
 30
0.0
  0
VERTEX
  5
13F
330
132
100
AcDbEntity
  8
0
370
     0
100
AcDbVertex
100
AcDb2dVertex
 10
906.716919
 20
448.577087
 30
0.0
  0
VERTEX
  5
140
330
132
100
AcDbEntity
  8
0
370
     0
100
AcDbVertex
100
AcDb2dVertex
 10
907.684631
 20
448.577087
 30
0.0
  0
SEQEND
  5
141
330
132
100
AcDbEntity
  8
0
 62
     7
370
    13
  0
LINE
  5
142
330
1F
100
AcDbEntity
  8
0
 62
     7
370
    13
100
AcDbLine
 10
756.408386
 20
225.351288
 30
0.0
 11
926.845947
 21
225.351288
 31
0.0
  0
LINE
  5
143
330
1F
100
AcDbEntity
  8
0
 62
     7
370
    13
100
AcDbLine
 10
756.408386
 20
637.351318
 30
0.0
 11
926.845947
 21
637.351318
 31
0.0
  0
POLYLINE
  5
144
330
1F
100
AcDbEntity
  8
0
 62
     7
370
    13
100
AcDb2dPolyline
 66
     1
 10
0.0
 20
0.0
 30
0.0
  0
VERTEX
  5
145
330
144
100
AcDbEntity
  8
0
370
     0
100
AcDbVertex
100
AcDb2dVertex
 10
925.363525
 20
635.419434
 30
0.0
  0
VERTEX
  5
146
330
144
100
AcDbEntity
  8
0
370
     0
100
AcDbVertex
100
AcDb2dVertex
 10
924.845947
 20
637.351318
 30
0.0
  0
VERTEX
  5
147
330
144
100
AcDbEntity
  8
0
370
     0
100
AcDbVertex
100
AcDb2dVertex
 10
924.328247
 20
635.419434
 30
0.0
  0
SEQEND
  5
148
330
144
100
AcDbEntity
  8
0
 62
     7
370
    13
  0
POLYLINE
  5
149
330
1F
100
AcDbEntity
  8
0
 62
     7
370
    13
100
AcDb2dPolyline
 66
     1
 10
0.0
 20
0.0
 30
0.0
  0
VERTEX
  5
14A
330
149
100
AcDbEntity
  8
0
370
     0
100
AcDbVertex
100
AcDb2dVertex
 10
924.328247
 20
227.283142
 30
0.0
  0
VERTEX
  5
14B
330
149
100
AcDbEntity
  8
0
370
     0
100
AcDbVertex
100
AcDb2dVertex
 10
924.845947
 20
225.351288
 30
0.0
  0
VERTEX
  5
14C
330
149
100
AcDbEntity
  8
0
370
     0
100
AcDbVertex
100
AcDb2dVertex
 10
925.363525
 20
227.283142
 30
0.0
  0
SEQEND
  5
14D
330
149
100
AcDbEntity
  8
0
 62
     7
370
    13
  0
LINE
  5
14E
330
1F
100
AcDbEntity
  8
0
 62
     7
370
    13
100
AcDbLine
 10
924.845947
 20
225.351288
 30
0.0
 11
924.845947
 21
637.351318
 31
0.0
  0
SOLID
  5
14F
330
1F
100
AcDbEntity
  8
0
 62
     7
370
   211
100
AcDbTrace
 10
814.736206
 20
253.4245
 30
0.0
 11
816.428772
 21
252.359039
 31
0.0
 12
814.736206
 22
253.4245
 32
0.0
 13
815.495667
 23
254.128036
 33
0.0
  0
POLYLINE
  5
150
330
1F
100
AcDbEntity
  8
0
 62
     7
370
    13
100
AcDb2dPolyline
 66
     1
 10
0.0
 20
0.0
 30
0.0
  0
VERTEX
  5
151
330
150
100
AcDbEntity
  8
0
370
     0
100
AcDbVertex
100
AcDb2dVertex
 10
752.852051
 20
343.87146
 30
0.0
  0
VERTEX
  5
152
330
150
100
AcDbEntity
  8
0
370
     0
100
AcDbVertex
100
AcDb2dVertex
 10
754.797485
 20
346.992767
 30
0.0
  0
VERTEX
  5
153
330
150
100
AcDbEntity
  8
0
370
     0
100
AcDbVertex
100
AcDb2dVertex
 10
754.682861
 20
349.9646
 30
0.0
  0
VERTEX
  5
154
330
150
100
AcDbEntity
  8
0
370
     0
100
AcDbVertex
100
AcDb2dVertex
 10
752.981445
 20
353.225403
 30
0.0
  0
VERTEX
  5
155
330
150
100
AcDbEntity
  8
0
370
     0
100
AcDbVertex
100
AcDb2dVertex
 10
752.323792
 20
353.935333
 30
0.0
  0
VERTEX
  5
156
330
150
100
AcDbEntity
  8
0
370
     0
100
AcDbVertex
100
AcDb2dVertex
 10
749.202515
 20
355.880829
 30
0.0
  0
VERTEX
  5
157
330
150
100
AcDbEntity
  8
0
370
     0
100
AcDbVertex
100
AcDb2dVertex
 10
746.248108
 20
356.222076
 30
0.0
  0
VERTEX
  5
158
330
150
100
AcDbEntity
  8
0
370
     0
100
AcDbVertex
100
AcDb2dVertex
 10
743.697266
 20
355.178284
 30
0.0
  0
VERTEX
  5
159
330
150
100
AcDbEntity
  8
0
370
     0
100
AcDbVertex
100
AcDb2dVertex
 10
742.987305
 20
354.52066
 30
0.0
  0
VERTEX
  5
15A
330
150
100
AcDbEntity
  8
0
370
     0
100
AcDbVertex
100
AcDb2dVertex
 10
741.75177
 20
352.056976
 30
0.0
  0
VERTEX
  5
15B
330
150
100
AcDbEntity
  8
0
370
     0
100
AcDbVertex
100
AcDb2dVertex
 10
741.866394
 20
349.085144
 30
0.0
  0
VERTEX
  5
15C
330
150
100
AcDbEntity
  8
0
370
     0
100
AcDbVertex
100
AcDb2dVertex
 10
743.331177
 20
345.605133
 30
0.0
  0
VERTEX
  5
15D
330
150
100
AcDbEntity
  8
0
370
     0
100
AcDbVertex
100
AcDb2dVertex
 10
743.98877
 20
344.895203
 30
0.0
  0
VERTEX
  5
15E
330
150
100
AcDbEntity
  8
0
370
     0
100
AcDbVertex
100
AcDb2dVertex
 10
747.110107
 20
342.949707
 30
0.0
  0
VERTEX
  5
15F
330
150
100
AcDbEntity
  8
0
370
     0
100
AcDbVertex
100
AcDb2dVertex
 10
750.064575
 20
342.608459
 30
0.0
  0
VERTEX
  5
160
330
150
100
AcDbEntity
  8
0
370
     0
100
AcDbVertex
100
AcDb2dVertex
 10
752.852051
 20
343.87146
 30
0.0
  0
VERTEX
  5
161
330
150
100
AcDbEntity
  8
0
370
     0
100
AcDbVertex
100
AcDb2dVertex
 10
749.53894
 20
340.802429
 30
0.0
  0
VERTEX
  5
162
330
150
100
AcDbEntity
  8
0
370
     0
100
AcDbVertex
100
AcDb2dVertex
 10
745.568237
 20
338.443359
 30
0.0
  0
VERTEX
  5
163
330
150
100
AcDbEntity
  8
0
370
     0
100
AcDbVertex
100
AcDb2dVertex
 10
741.430542
 20
337.688538
 30
0.0
  0
VERTEX
  5
164
330
150
100
AcDbEntity
  8
0
370
     0
100
AcDbVertex
100
AcDb2dVertex
 10
738.309204
 20
339.634003
 30
0.0
  0
VERTEX
  5
165
330
150
100
AcDbEntity
  8
0
370
     0
100
AcDbVertex
100
AcDb2dVertex
 10
736.774719
 20
341.290558
 30
0.0
  0
VERTEX
  5
166
330
150
100
AcDbEntity
  8
0
370
     0
100
AcDbVertex
100
AcDb2dVertex
 10
735.29248
 20
344.314697
 30
0.0
  0
VERTEX
  5
167
330
150
100
AcDbEntity
  8
0
370
     0
100
AcDbVertex
100
AcDb2dVertex
 10
735.835571
 20
346.576599
 30
0.0
  0
SEQEND
  5
168
330
150
100
AcDbEntity
  8
0
 62
     7
370
    13
  0
POLYLINE
  5
169
330
1F
100
AcDbEntity
  8
0
 62
     7
370
    13
100
AcDb2dPolyline
 66
     1
 10
0.0
 20
0.0
 30
0.0
  0
VERTEX
  5
16A
330
169
100
AcDbEntity
  8
0
370
     0
100
AcDbVertex
100
AcDb2dVertex
 10
759.44165
 20
316.821045
 30
0.0
  0
VERTEX
  5
16B
330
169
100
AcDbEntity
  8
0
370
     0
100
AcDbVertex
100
AcDb2dVertex
 10
748.919312
 20
328.180206
 30
0.0
  0
VERTEX
  5
16C
330
169
100
AcDbEntity
  8
0
370
     0
100
AcDbVertex
100
AcDb2dVertex
 10
762.998779
 20
326.272186
 30
0.0
  0
VERTEX
  5
16D
330
169
100
AcDbEntity
  8
0
370
     0
100
AcDbVertex
100
AcDb2dVertex
 10
766.426514
 20
326.369385
 30
0.0
  0
VERTEX
  5
16E
330
169
100
AcDbEntity
  8
0
370
     0
100
AcDbVertex
100
AcDb2dVertex
 10
768.504028
 20
326.974731
 30
0.0
  0
VERTEX
  5
16F
330
169
100
AcDbEntity
  8
0
370
     0
100
AcDbVertex
100
AcDb2dVertex
 10
769.92395
 20
328.290009
 30
0.0
  0
VERTEX
  5
170
330
169
100
AcDbEntity
  8
0
370
     0
100
AcDbVertex
100
AcDb2dVertex
 10
770.922852
 20
330.534485
 30
0.0
  0
VERTEX
  5
171
330
169
100
AcDbEntity
  8
0
370
     0
100
AcDbVertex
100
AcDb2dVertex
 10
771.211792
 20
332.121277
 30
0.0
  0
VERTEX
  5
172
330
169
100
AcDbEntity
  8
0
370
     0
100
AcDbVertex
100
AcDb2dVertex
 10
770.387207
 20
334.435486
 30
0.0
  0
VERTEX
  5
173
330
169
100
AcDbEntity
  8
0
370
     0
100
AcDbVertex
100
AcDb2dVertex
 10
767.756592
 20
337.275269
 30
0.0
  0
VERTEX
  5
174
330
169
100
AcDbEntity
  8
0
370
     0
100
AcDbVertex
100
AcDb2dVertex
 10
765.512146
 20
338.27417
 30
0.0
  0
VERTEX
  5
175
330
169
100
AcDbEntity
  8
0
370
     0
100
AcDbVertex
100
AcDb2dVertex
 10
764.144531
 20
338.326447
 30
0.0
  0
VERTEX
  5
176
330
169
100
AcDbEntity
  8
0
370
     0
100
AcDbVertex
100
AcDb2dVertex
 10
761.847778
 20
337.957764
 30
0.0
  0
VERTEX
  5
177
330
169
100
AcDbEntity
  8
0
370
     0
100
AcDbVertex
100
AcDb2dVertex
 10
761.137878
 20
337.30011
 30
0.0
  0
SEQEND
  5
178
330
169
100
AcDbEntity
  8
0
 62
     7
370
    13
  0
POLYLINE
  5
179
330
1F
100
AcDbEntity
  8
0
 62
     7
370
    13
100
AcDb2dPolyline
 66
     1
 10
0.0
 20
0.0
 30
0.0
  0
VERTEX
  5
17A
330
179
100
AcDbEntity
  8
0
370
     0
100
AcDbVertex
100
AcDb2dVertex
 10
740.902649
 20
366.26474
 30
0.0
  0
VERTEX
  5
17B
330
179
100
AcDbEntity
  8
0
370
     0
100
AcDbVertex
100
AcDb2dVertex
 10
733.44928
 20
374.310791
 30
0.0
  0
SEQEND
  5
17C
330
179
100
AcDbEntity
  8
0
 62
     7
370
    13
  0
POLYLINE
  5
17D
330
1F
100
AcDbEntity
  8
0
 62
     7
370
    13
100
AcDb2dPolyline
 66
     1
 10
0.0
 20
0.0
 30
0.0
  0
VERTEX
  5
17E
330
17D
100
AcDbEntity
  8
0
370
     0
100
AcDbVertex
100
AcDb2dVertex
 10
726.349854
 20
367.734314
 30
0.0
  0
VERTEX
  5
17F
330
17D
100
AcDbEntity
  8
0
370
     0
100
AcDbVertex
100
AcDb2dVertex
 10
734.241577
 20
359.214966
 30
0.0
  0
SEQEND
  5
180
330
17D
100
AcDbEntity
  8
0
 62
     7
370
    13
  0
POLYLINE
  5
181
330
1F
100
AcDbEntity
  8
0
 62
     7
370
    13
100
AcDb2dPolyline
 66
     1
 10
0.0
 20
0.0
 30
0.0
  0
VERTEX
  5
182
330
181
100
AcDbEntity
  8
0
370
     0
100
AcDbVertex
100
AcDb2dVertex
 10
733.44928
 20
374.310791
 30
0.0
  0
VERTEX
  5
183
330
181
100
AcDbEntity
  8
0
370
     0
100
AcDbVertex
100
AcDb2dVertex
 10
718.7771
 20
360.719421
 30
0.0
  0
SEQEND
  5
184
330
181
100
AcDbEntity
  8
0
 62
     7
370
    13
  0
POLYLINE
  5
185
330
1F
100
AcDbEntity
  8
0
 62
     7
370
    13
100
AcDb2dPolyline
 66
     1
 10
0.0
 20
0.0
 30
0.0
  0
VERTEX
  5
186
330
185
100
AcDbEntity
  8
0
370
     0
100
AcDbVertex
100
AcDb2dVertex
 10
740.902649
 20
366.26474
 30
0.0
  0
VERTEX
  5
187
330
185
100
AcDbEntity
  8
0
370
     0
100
AcDbVertex
100
AcDb2dVertex
 10
741.727173
 20
363.950562
 30
0.0
  0
VERTEX
  5
188
330
185
100
AcDbEntity
  8
0
370
     0
100
AcDbVertex
100
AcDb2dVertex
 10
741.605164
 20
360.759521
 30
0.0
  0
VERTEX
  5
189
330
185
100
AcDbEntity
  8
0
370
     0
100
AcDbVertex
100
AcDb2dVertex
 10
739.238708
 20
358.567352
 30
0.0
  0
VERTEX
  5
18A
330
185
100
AcDbEntity
  8
0
370
     0
100
AcDbVertex
100
AcDb2dVertex
 10
736.722717
 20
358.435303
 30
0.0
  0
VERTEX
  5
18B
330
185
100
AcDbEntity
  8
0
370
     0
100
AcDbVertex
100
AcDb2dVertex
 10
734.241577
 20
359.214966
 30
0.0
  0
SEQEND
  5
18C
330
185
100
AcDbEntity
  8
0
 62
     7
370
    13
  0
POLYLINE
  5
18D
330
1F
100
AcDbEntity
  8
0
 62
     7
370
    13
100
AcDb2dPolyline
 66
     1
 10
0.0
 20
0.0
 30
0.0
  0
VERTEX
  5
18E
330
18D
100
AcDbEntity
  8
0
370
     0
100
AcDbVertex
100
AcDb2dVertex
 10
732.487915
 20
361.108154
 30
0.0
  0
VERTEX
  5
18F
330
18D
100
AcDbEntity
  8
0
370
     0
100
AcDbVertex
100
AcDb2dVertex
 10
729.299438
 20
349.360291
 30
0.0
  0
SEQEND
  5
190
330
18D
100
AcDbEntity
  8
0
 62
     7
370
    13
  0
LINE
  5
191
330
1F
100
AcDbEntity
  8
0
 62
     7
370
    70
100
AcDbLine
 10
815.115967
 20
253.77626
 30
0.0
 11
716.432983
 21
360.306885
 31
0.0
  0
POLYLINE
  5
192
330
1F
100
AcDbEntity
  8
0
 62
     7
370
   211
100
AcDb2dPolyline
 66
     1
 10
0.0
 20
0.0
 30
0.0
 70
     1
  0
VERTEX
  5
193
330
192
100
AcDbEntity
  8
0
370
     0
100
AcDbVertex
100
AcDb2dVertex
 10
814.736206
 20
253.4245
 30
0.0
  0
VERTEX
  5
194
330
192
100
AcDbEntity
  8
0
370
     0
100
AcDbVertex
100
AcDb2dVertex
 10
816.428772
 20
252.359039
 30
0.0
  0
VERTEX
  5
195
330
192
100
AcDbEntity
  8
0
370
     0
100
AcDbVertex
100
AcDb2dVertex
 10
815.495667
 20
254.128036
 30
0.0
  0
SEQEND
  5
196
330
192
100
AcDbEntity
  8
0
 62
     7
370
   211
  0
SOLID
  5
197
330
1F
100
AcDbEntity
  8
0
 62
     7
370
   211
100
AcDbTrace
 10
328.778076
 20
252.914871
 30
0.0
 11
329.814819
 21
254.625183
 31
0.0
 12
328.778076
 22
252.914871
 32
0.0
 13
328.061829
 23
253.662369
 33
0.0
  0
POLYLINE
  5
198
330
1F
100
AcDbEntity
  8
0
 62
     7
370
    13
100
AcDb2dPolyline
 66
     1
 10
0.0
 20
0.0
 30
0.0
  0
VERTEX
  5
199
330
198
100
AcDbEntity
  8
0
370
     0
100
AcDbVertex
100
AcDb2dVertex
 10
277.656311
 20
226.181107
 30
0.0
  0
VERTEX
  5
19A
330
198
100
AcDbEntity
  8
0
370
     0
100
AcDbVertex
100
AcDb2dVertex
 10
274.502594
 20
228.073639
 30
0.0
  0
VERTEX
  5
19B
330
198
100
AcDbEntity
  8
0
370
     0
100
AcDbVertex
100
AcDb2dVertex
 10
271.533112
 20
227.90889
 30
0.0
  0
VERTEX
  5
19C
330
198
100
AcDbEntity
  8
0
370
     0
100
AcDbVertex
100
AcDb2dVertex
 10
268.301514
 20
226.152664
 30
0.0
  0
VERTEX
  5
19D
330
198
100
AcDbEntity
  8
0
370
     0
100
AcDbVertex
100
AcDb2dVertex
 10
267.602753
 20
225.483124
 30
0.0
  0
VERTEX
  5
19E
330
198
100
AcDbEntity
  8
0
370
     0
100
AcDbVertex
100
AcDb2dVertex
 10
265.710236
 20
222.329422
 30
0.0
  0
VERTEX
  5
19F
330
198
100
AcDbEntity
  8
0
370
     0
100
AcDbVertex
100
AcDb2dVertex
 10
265.418884
 20
219.369675
 30
0.0
  0
VERTEX
  5
1A0
330
198
100
AcDbEntity
  8
0
370
     0
100
AcDbVertex
100
AcDb2dVertex
 10
266.505585
 20
216.836807
 30
0.0
  0
VERTEX
  5
1A1
330
198
100
AcDbEntity
  8
0
370
     0
100
AcDbVertex
100
AcDb2dVertex
 10
267.17511
 20
216.138062
 30
0.0
  0
VERTEX
  5
1A2
330
198
100
AcDbEntity
  8
0
370
     0
100
AcDbVertex
100
AcDb2dVertex
 10
269.659271
 20
214.94429
 30
0.0
  0
VERTEX
  5
1A3
330
198
100
AcDbEntity
  8
0
370
     0
100
AcDbVertex
100
AcDb2dVertex
 10
272.628784
 20
215.109055
 30
0.0
  0
VERTEX
  5
1A4
330
198
100
AcDbEntity
  8
0
370
     0
100
AcDbVertex
100
AcDb2dVertex
 10
276.083527
 20
216.632339
 30
0.0
  0
VERTEX
  5
1A5
330
198
100
AcDbEntity
  8
0
370
     0
100
AcDbVertex
100
AcDb2dVertex
 10
276.782288
 20
217.30188
 30
0.0
  0
VERTEX
  5
1A6
330
198
100
AcDbEntity
  8
0
370
     0
100
AcDbVertex
100
AcDb2dVertex
 10
278.674835
 20
220.455597
 30
0.0
  0
VERTEX
  5
1A7
330
198
100
AcDbEntity
  8
0
370
     0
100
AcDbVertex
100
AcDb2dVertex
 10
278.966156
 20
223.415329
 30
0.0
  0
VERTEX
  5
1A8
330
198
100
AcDbEntity
  8
0
370
     0
100
AcDbVertex
100
AcDb2dVertex
 10
277.656311
 20
226.181107
 30
0.0
  0
VERTEX
  5
1A9
330
198
100
AcDbEntity
  8
0
370
     0
100
AcDbVertex
100
AcDb2dVertex
 10
280.780823
 20
222.920303
 30
0.0
  0
VERTEX
  5
1AA
330
198
100
AcDbEntity
  8
0
370
     0
100
AcDbVertex
100
AcDb2dVertex
 10
283.206543
 20
218.989944
 30
0.0
  0
VERTEX
  5
1AB
330
198
100
AcDbEntity
  8
0
370
     0
100
AcDbVertex
100
AcDb2dVertex
 10
284.031128
 20
214.865631
 30
0.0
  0
VERTEX
  5
1AC
330
198
100
AcDbEntity
  8
0
370
     0
100
AcDbVertex
100
AcDb2dVertex
 10
282.13858
 20
211.711914
 30
0.0
  0
VERTEX
  5
1AD
330
198
100
AcDbEntity
  8
0
370
     0
100
AcDbVertex
100
AcDb2dVertex
 10
280.508179
 20
210.149658
 30
0.0
  0
VERTEX
  5
1AE
330
198
100
AcDbEntity
  8
0
370
     0
100
AcDbVertex
100
AcDb2dVertex
 10
277.509491
 20
208.616623
 30
0.0
  0
VERTEX
  5
1AF
330
198
100
AcDbEntity
  8
0
370
     0
100
AcDbVertex
100
AcDb2dVertex
 10
275.238739
 20
209.121399
 30
0.0
  0
SEQEND
  5
1B0
330
198
100
AcDbEntity
  8
0
 62
     7
370
    13
  0
POLYLINE
  5
1B1
330
1F
100
AcDbEntity
  8
0
 62
     7
370
    13
100
AcDb2dPolyline
 66
     1
 10
0.0
 20
0.0
 30
0.0
  0
VERTEX
  5
1B2
330
1B1
100
AcDbEntity
  8
0
370
     0
100
AcDbVertex
100
AcDb2dVertex
 10
290.956726
 20
225.075821
 30
0.0
  0
VERTEX
  5
1B3
330
1B1
100
AcDbEntity
  8
0
370
     0
100
AcDbVertex
100
AcDb2dVertex
 10
292.771332
 20
224.58078
 30
0.0
  0
VERTEX
  5
1B4
330
1B1
100
AcDbEntity
  8
0
370
     0
100
AcDbVertex
100
AcDb2dVertex
 10
294.139648
 20
224.551575
 30
0.0
  0
VERTEX
  5
1B5
330
1B1
100
AcDbEntity
  8
0
370
     0
100
AcDbVertex
100
AcDb2dVertex
 10
297.371246
 20
226.307785
 30
0.0
  0
VERTEX
  5
1B6
330
1B1
100
AcDbEntity
  8
0
370
     0
100
AcDbVertex
100
AcDb2dVertex
 10
299.933319
 20
228.762756
 30
0.0
  0
VERTEX
  5
1B7
330
1B1
100
AcDbEntity
  8
0
370
     0
100
AcDbVertex
100
AcDb2dVertex
 10
302.058777
 20
232.139648
 30
0.0
  0
VERTEX
  5
1B8
330
1B1
100
AcDbEntity
  8
0
370
     0
100
AcDbVertex
100
AcDb2dVertex
 10
302.117188
 20
234.876205
 30
0.0
  0
VERTEX
  5
1B9
330
1B1
100
AcDbEntity
  8
0
370
     0
100
AcDbVertex
100
AcDb2dVertex
 10
300.807312
 20
237.641983
 30
0.0
  0
VERTEX
  5
1BA
330
1B1
100
AcDbEntity
  8
0
370
     0
100
AcDbVertex
100
AcDb2dVertex
 10
299.468231
 20
239.039474
 30
0.0
  0
VERTEX
  5
1BB
330
1B1
100
AcDbEntity
  8
0
370
     0
100
AcDbVertex
100
AcDb2dVertex
 10
296.760895
 20
240.466171
 30
0.0
  0
VERTEX
  5
1BC
330
1B1
100
AcDbEntity
  8
0
370
     0
100
AcDbVertex
100
AcDb2dVertex
 10
294.247528
 20
240.291687
 30
0.0
  0
VERTEX
  5
1BD
330
1B1
100
AcDbEntity
  8
0
370
     0
100
AcDbVertex
100
AcDb2dVertex
 10
290.78299
 20
238.312286
 30
0.0
  0
VERTEX
  5
1BE
330
1B1
100
AcDbEntity
  8
0
370
     0
100
AcDbVertex
100
AcDb2dVertex
 10
288.220917
 20
235.857315
 30
0.0
  0
VERTEX
  5
1BF
330
1B1
100
AcDbEntity
  8
0
370
     0
100
AcDbVertex
100
AcDb2dVertex
 10
286.79422
 20
233.149963
 30
0.0
  0
VERTEX
  5
1C0
330
1B1
100
AcDbEntity
  8
0
370
     0
100
AcDbVertex
100
AcDb2dVertex
 10
286.765015
 20
231.781693
 30
0.0
  0
VERTEX
  5
1C1
330
1B1
100
AcDbEntity
  8
0
370
     0
100
AcDbVertex
100
AcDb2dVertex
 10
281.437927
 20
238.739929
 30
0.0
  0
VERTEX
  5
1C2
330
1B1
100
AcDbEntity
  8
0
370
     0
100
AcDbVertex
100
AcDb2dVertex
 10
290.055817
 20
246.997543
 30
0.0
  0
SEQEND
  5
1C3
330
1B1
100
AcDbEntity
  8
0
 62
     7
370
    13
  0
POLYLINE
  5
1C4
330
1F
100
AcDbEntity
  8
0
 62
     7
370
    13
100
AcDb2dPolyline
 66
     1
 10
0.0
 20
0.0
 30
0.0
  0
VERTEX
  5
1C5
330
1C4
100
AcDbEntity
  8
0
370
     0
100
AcDbVertex
100
AcDb2dVertex
 10
255.467865
 20
213.85553
 30
0.0
  0
VERTEX
  5
1C6
330
1C4
100
AcDbEntity
  8
0
370
     0
100
AcDbVertex
100
AcDb2dVertex
 10
247.548767
 20
206.267456
 30
0.0
  0
SEQEND
  5
1C7
330
1C4
100
AcDbEntity
  8
0
 62
     7
370
    13
  0
POLYLINE
  5
1C8
330
1F
100
AcDbEntity
  8
0
 62
     7
370
    13
100
AcDb2dPolyline
 66
     1
 10
0.0
 20
0.0
 30
0.0
  0
VERTEX
  5
1C9
330
1C8
100
AcDbEntity
  8
0
370
     0
100
AcDbVertex
100
AcDb2dVertex
 10
254.24411
 20
199.279999
 30
0.0
  0
VERTEX
  5
1CA
330
1C8
100
AcDbEntity
  8
0
370
     0
100
AcDbVertex
100
AcDb2dVertex
 10
262.629059
 20
207.314423
 30
0.0
  0
SEQEND
  5
1CB
330
1C8
100
AcDbEntity
  8
0
 62
     7
370
    13
  0
POLYLINE
  5
1CC
330
1F
100
AcDbEntity
  8
0
 62
     7
370
    13
100
AcDb2dPolyline
 66
     1
 10
0.0
 20
0.0
 30
0.0
  0
VERTEX
  5
1CD
330
1CC
100
AcDbEntity
  8
0
370
     0
100
AcDbVertex
100
AcDb2dVertex
 10
247.548767
 20
206.267456
 30
0.0
  0
VERTEX
  5
1CE
330
1CC
100
AcDbEntity
  8
0
370
     0
100
AcDbVertex
100
AcDb2dVertex
 10
261.385834
 20
191.826706
 30
0.0
  0
SEQEND
  5
1CF
330
1CC
100
AcDbEntity
  8
0
 62
     7
370
    13
  0
POLYLINE
  5
1D0
330
1F
100
AcDbEntity
  8
0
 62
     7
370
    13
100
AcDb2dPolyline
 66
     1
 10
0.0
 20
0.0
 30
0.0
  0
VERTEX
  5
1D1
330
1D0
100
AcDbEntity
  8
0
370
     0
100
AcDbVertex
100
AcDb2dVertex
 10
255.467865
 20
213.85553
 30
0.0
  0
VERTEX
  5
1D2
330
1D0
100
AcDbEntity
  8
0
370
     0
100
AcDbVertex
100
AcDb2dVertex
 10
257.767822
 20
214.71904
 30
0.0
  0
VERTEX
  5
1D3
330
1D0
100
AcDbEntity
  8
0
370
     0
100
AcDbVertex
100
AcDb2dVertex
 10
260.96048
 20
214.650879
 30
0.0
  0
VERTEX
  5
1D4
330
1D0
100
AcDbEntity
  8
0
370
     0
100
AcDbVertex
100
AcDb2dVertex
 10
263.192261
 20
212.321716
 30
0.0
  0
VERTEX
  5
1D5
330
1D0
100
AcDbEntity
  8
0
370
     0
100
AcDbVertex
100
AcDb2dVertex
 10
263.36676
 20
209.808334
 30
0.0
  0
VERTEX
  5
1D6
330
1D0
100
AcDbEntity
  8
0
370
     0
100
AcDbVertex
100
AcDb2dVertex
 10
262.629059
 20
207.314423
 30
0.0
  0
SEQEND
  5
1D7
330
1D0
100
AcDbEntity
  8
0
 62
     7
370
    13
  0
POLYLINE
  5
1D8
330
1F
100
AcDbEntity
  8
0
 62
     7
370
    13
100
AcDb2dPolyline
 66
     1
 10
0.0
 20
0.0
 30
0.0
  0
VERTEX
  5
1D9
330
1D8
100
AcDbEntity
  8
0
370
     0
100
AcDbVertex
100
AcDb2dVertex
 10
260.765717
 20
205.528992
 30
0.0
  0
VERTEX
  5
1DA
330
1D8
100
AcDbEntity
  8
0
370
     0
100
AcDbVertex
100
AcDb2dVertex
 10
272.565765
 20
202.539276
 30
0.0
  0
SEQEND
  5
1DB
330
1D8
100
AcDbEntity
  8
0
 62
     7
370
    13
  0
LINE
  5
1DC
330
1F
100
AcDbEntity
  8
0
 62
     7
370
    70
100
AcDbLine
 10
337.035187
 20
261.543701
 30
0.0
 11
329.814819
 21
254.625183
 31
0.0
  0
LINE
  5
1DD
330
1F
100
AcDbEntity
  8
0
 62
     7
370
    70
100
AcDbLine
 10
328.419922
 20
253.28862
 30
0.0
 11
261.83786
 21
189.489914
 31
0.0
  0
POLYLINE
  5
1DE
330
1F
100
AcDbEntity
  8
0
 62
     7
370
   211
100
AcDb2dPolyline
 66
     1
 10
0.0
 20
0.0
 30
0.0
 70
     1
  0
VERTEX
  5
1DF
330
1DE
100
AcDbEntity
  8
0
370
     0
100
AcDbVertex
100
AcDb2dVertex
 10
328.778076
 20
252.914871
 30
0.0
  0
VERTEX
  5
1E0
330
1DE
100
AcDbEntity
  8
0
370
     0
100
AcDbVertex
100
AcDb2dVertex
 10
329.814819
 20
254.625183
 30
0.0
  0
VERTEX
  5
1E1
330
1DE
100
AcDbEntity
  8
0
370
     0
100
AcDbVertex
100
AcDb2dVertex
 10
328.061829
 20
253.662369
 30
0.0
  0
SEQEND
  5
1E2
330
1DE
100
AcDbEntity
  8
0
 62
     7
370
   211
  0
ARC
  5
1E3
330
1F
100
AcDbEntity
  8
0
  6
DASHSPACE
 62
     7
370
    35
100
AcDbCircle
 10
398.908386
 20
319.851288
 30
0.0
 40
92.0
100
AcDbArc
 50
179.999995
 51
269.999997
  0
LINE
  5
1E4
330
1F
100
AcDbEntity
  8
0
  6
DASHSPACE
 62
     7
370
    35
100
AcDbLine
 10
306.908386
 20
319.851288
 30
0.0
 11
306.908386
 21
542.851318
 31
0.0
  0
ARC
  5
1E5
330
1F
100
AcDbEntity
  8
0
  6
DASHSPACE
 62
     7
370
    35
100
AcDbCircle
 10
398.908386
 20
542.851318
 30
0.0
 40
92.0
100
AcDbArc
 50
90.000003
 51
180.000005
  0
LINE
  5
1E6
330
1F
100
AcDbEntity
  8
0
  6
DASHSPACE
 62
     7
370
    35
100
AcDbLine
 10
398.908386
 20
634.851318
 30
0.0
 11
753.908386
 21
634.851318
 31
0.0
  0
ARC
  5
1E7
330
1F
100
AcDbEntity
  8
0
  6
DASHSPACE
 62
     7
370
    35
100
AcDbCircle
 10
753.908386
 20
542.851318
 30
0.0
 40
92.0
100
AcDbArc
 50
0.0
 51
90.000003
  0
LINE
  5
1E8
330
1F
100
AcDbEntity
  8
0
  6
DASHSPACE
 62
     7
370
    35
100
AcDbLine
 10
845.908386
 20
542.851318
 30
0.0
 11
845.908386
 21
319.851288
 31
0.0
  0
ARC
  5
1E9
330
1F
100
AcDbEntity
  8
0
  6
DASHSPACE
 62
     7
370
    35
100
AcDbCircle
 10
753.908386
 20
319.851288
 30
0.0
 40
92.0
100
AcDbArc
 50
269.999997
 51
360.0
  0
LINE
  5
1EA
330
1F
100
AcDbEntity
  8
0
  6
DASHSPACE
 62
     7
370
    35
100
AcDbLine
 10
753.908386
 20
227.851288
 30
0.0
 11
398.908386
 21
227.851288
 31
0.0
  0
ARC
  5
1EB
330
1F
100
AcDbEntity
  8
0
  6
DASHSPACE
 62
     7
370
    35
100
AcDbCircle
 10
398.408386
 20
320.351288
 30
0.0
 40
95.0
100
AcDbArc
 50
179.999995
 51
269.999997
  0
LINE
  5
1EC
330
1F
100
AcDbEntity
  8
0
  6
DASHSPACE
 62
     7
370
    35
100
AcDbLine
 10
303.408386
 20
320.351288
 30
0.0
 11
303.408386
 21
542.351318
 31
0.0
  0
ARC
  5
1ED
330
1F
100
AcDbEntity
  8
0
  6
DASHSPACE
 62
     7
370
    35
100
AcDbCircle
 10
398.408386
 20
542.351318
 30
0.0
 40
95.0
100
AcDbArc
 50
90.000003
 51
180.000005
  0
LINE
  5
1EE
330
1F
100
AcDbEntity
  8
0
  6
DASHSPACE
 62
     7
370
    35
100
AcDbLine
 10
398.408386
 20
637.351318
 30
0.0
 11
754.408386
 21
637.351318
 31
0.0
  0
ARC
  5
1EF
330
1F
100
AcDbEntity
  8
0
  6
DASHSPACE
 62
     7
370
    35
100
AcDbCircle
 10
754.408386
 20
542.351318
 30
0.0
 40
95.0
100
AcDbArc
 50
0.0
 51
90.000003
  0
LINE
  5
1F0
330
1F
100
AcDbEntity
  8
0
  6
DASHSPACE
 62
     7
370
    35
100
AcDbLine
 10
849.408386
 20
542.351318
 30
0.0
 11
849.408386
 21
320.351288
 31
0.0
  0
ARC
  5
1F1
330
1F
100
AcDbEntity
  8
0
  6
DASHSPACE
 62
     7
370
    35
100
AcDbCircle
 10
754.408386
 20
320.351288
 30
0.0
 40
95.0
100
AcDbArc
 50
269.999997
 51
360.0
  0
LINE
  5
1F2
330
1F
100
AcDbEntity
  8
0
  6
DASHSPACE
 62
     7
370
    35
100
AcDbLine
 10
754.408386
 20
225.351288
 30
0.0
 11
398.408386
 21
225.351288
 31
0.0
  0
ENDSEC
  0
SECTION
  2
OBJECTS
  0
DICTIONARY
  5
C
330
0
100
AcDbDictionary
281
     1
  3
ACAD_GROUP
350
D
  3
ACAD_LAYOUT
350
1A
  3
ACAD_MLINESTYLE
350
17
  3
ACAD_PLOTSETTINGS
350
19
  3
ACAD_PLOTSTYLENAME
350
E
  3
ACAD_SCALELIST
350
47
  0
DICTIONARY
  5
D
102
{ACAD_REACTORS
330
C
102
}
330
C
100
AcDbDictionary
281
     1
  0
DICTIONARY
  5
1A
102
{ACAD_REACTORS
330
C
102
}
330
C
100
AcDbDictionary
281
     1
  3
Layout1
350
1E
  3
Layout2
350
26
  3
Model
350
22
  0
DICTIONARY
  5
17
102
{ACAD_REACTORS
330
C
102
}
330
C
100
AcDbDictionary
281
     1
  3
Standard
350
18
  0
DICTIONARY
  5
19
102
{ACAD_REACTORS
330
C
102
}
330
C
100
AcDbDictionary
281
     1
  0
ACDBDICTIONARYWDFLT
  5
E
102
{ACAD_REACTORS
330
C
102
}
330
C
100
AcDbDictionary
281
     1
  3
Normal
350
F
100
AcDbDictionaryWithDefault
340
F
  0
DICTIONARY
  5
47
102
{ACAD_REACTORS
330
C
102
}
330
C
100
AcDbDictionary
281
     1
  3
A0
350
48
  3
A1
350
49
  3
A2
350
4A
  3
A3
350
4B
  3
A4
350
4C
  3
A5
350
4D
  3
A6
350
4E
  3
A7
350
4F
  3
A8
350
50
  3
A9
350
51
  3
B0
350
52
  3
B1
350
53
  3
B2
350
54
  3
B3
350
55
  3
B4
350
56
  3
B5
350
57
  3
B6
350
58
  3
B7
350
59
  3
B8
350
5A
  3
B9
350
5B
  3
C0
350
5C
  3
C1
350
5D
  3
C2
350
5E
  3
C3
350
5F
  3
C4
350
60
  3
C5
350
61
  3
C6
350
62
  3
C7
350
63
  3
C8
350
64
  3
C9
350
65
  3
D0
350
66
  3
D1
350
67
  3
D2
350
68
  0
LAYOUT
  5
1E
102
{ACAD_REACTORS
330
1A
102
}
330
1A
100
AcDbPlotSettings
  1

  2
none_device
  4

  6

 40
0.0
 41
0.0
 42
0.0
 43
0.0
 44
0.0
 45
0.0
 46
0.0
 47
0.0
 48
0.0
 49
0.0
140
0.0
141
0.0
142
1.0
143
1.0
 70
  4784
 72
     0
 73
     0
 74
     5
  7

 75
    16
147
1.0
148
0.0
149
0.0
100
AcDbLayout
  1
Layout1
 70
     1
 71
     1
 10
0.0
 20
0.0
 11
420.0
 21
297.0
 12
0.0
 22
0.0
 32
0.0
 14
0.0
 24
0.0
 34
0.0
 15
926.845947
 25
715.009094
 35
2.0
146
0.0
 13
0.0
 23
0.0
 33
0.0
 16
1.0
 26
0.0
 36
0.0
 17
0.0
 27
1.0
 37
0.0
 76
     0
330
1B
  0
LAYOUT
  5
26
102
{ACAD_REACTORS
330
1A
102
}
330
1A
100
AcDbPlotSettings
  1

  2
none_device
  4

  6

 40
0.0
 41
0.0
 42
0.0
 43
0.0
 44
0.0
 45
0.0
 46
0.0
 47
0.0
 48
0.0
 49
0.0
140
0.0
141
0.0
142
1.0
143
1.0
 70
  4784
 72
     0
 73
     0
 74
     5
  7

 75
    16
147
1.0
148
0.0
149
0.0
100
AcDbLayout
  1
Layout2
 70
     1
 71
     2
 10
0.0
 20
0.0
 11
0.0
 21
0.0
 12
0.0
 22
0.0
 32
0.0
 14
0.0
 24
0.0
 34
0.0
 15
0.0
 25
0.0
 35
0.0
146
0.0
 13
0.0
 23
0.0
 33
0.0
 16
1.0
 26
0.0
 36
0.0
 17
0.0
 27
1.0
 37
0.0
 76
     0
330
23
  0
LAYOUT
  5
22
102
{ACAD_REACTORS
330
1A
102
}
330
1A
100
AcDbPlotSettings
  1

  2
none_device
  4
Letter_(8.50_x_11.00_Inches)
  6

 40
6.35
 41
6.35
 42
6.350005
 43
6.350005
 44
215.9
 45
279.4
 46
0.0
 47
0.0
 48
0.0
 49
0.0
140
0.0
141
0.0
142
1.0
143
1.0
 70
  5808
 72
     0
 73
     0
 74
     0
  7

 75
     0
147
1.0
148
0.0
149
0.0
100
AcDbLayout
  1
Model
 70
     1
 71
     0
 10
0.0
 20
0.0
 11
420.0
 21
297.0
 12
0.0
 22
0.0
 32
0.0
 14
0.0
 24
0.0
 34
0.0
 15
926.845947
 25
715.009094
 35
2.0
146
0.0
 13
0.0
 23
0.0
 33
0.0
 16
1.0
 26
0.0
 36
0.0
 17
0.0
 27
1.0
 37
0.0
 76
     0
330
1F
331
29
  0
MLINESTYLE
  5
18
102
{ACAD_REACTORS
330
17
102
}
330
17
100
AcDbMlineStyle
  2
Standard
 70
     0
  3

 62
   256
 51
90.0
 52
90.0
 71
     2
 49
0.5
 62
   256
  6
BYLAYER
 49
-0.5
 62
   256
  6
BYLAYER
  0
ACDBPLACEHOLDER
  5
F
102
{ACAD_REACTORS
330
E
102
}
330
E
  0
SCALE
  5
48
102
{ACAD_REACTORS
330
47
102
}
330
47
100
AcDbScale
 70
     0
300
1:1
140
1.0
141
1.0
290
     1
  0
SCALE
  5
49
102
{ACAD_REACTORS
330
47
102
}
330
47
100
AcDbScale
 70
     0
300
1:2
140
1.0
141
2.0
290
     0
  0
SCALE
  5
4A
102
{ACAD_REACTORS
330
47
102
}
330
47
100
AcDbScale
 70
     0
300
1:4
140
1.0
141
4.0
290
     0
  0
SCALE
  5
4B
102
{ACAD_REACTORS
330
47
102
}
330
47
100
AcDbScale
 70
     0
300
1:5
140
1.0
141
5.0
290
     0
  0
SCALE
  5
4C
102
{ACAD_REACTORS
330
47
102
}
330
47
100
AcDbScale
 70
     0
300
1:8
140
1.0
141
8.0
290
     0
  0
SCALE
  5
4D
102
{ACAD_REACTORS
330
47
102
}
330
47
100
AcDbScale
 70
     0
300
1:10
140
1.0
141
10.0
290
     0
  0
SCALE
  5
4E
102
{ACAD_REACTORS
330
47
102
}
330
47
100
AcDbScale
 70
     0
300
1:16
140
1.0
141
16.0
290
     0
  0
SCALE
  5
4F
102
{ACAD_REACTORS
330
47
102
}
330
47
100
AcDbScale
 70
     0
300
1:20
140
1.0
141
20.0
290
     0
  0
SCALE
  5
50
102
{ACAD_REACTORS
330
47
102
}
330
47
100
AcDbScale
 70
     0
300
1:30
140
1.0
141
30.0
290
     0
  0
SCALE
  5
51
102
{ACAD_REACTORS
330
47
102
}
330
47
100
AcDbScale
 70
     0
300
1:40
140
1.0
141
40.0
290
     0
  0
SCALE
  5
52
102
{ACAD_REACTORS
330
47
102
}
330
47
100
AcDbScale
 70
     0
300
1:50
140
1.0
141
50.0
290
     0
  0
SCALE
  5
53
102
{ACAD_REACTORS
330
47
102
}
330
47
100
AcDbScale
 70
     0
300
1:100
140
1.0
141
100.0
290
     0
  0
SCALE
  5
54
102
{ACAD_REACTORS
330
47
102
}
330
47
100
AcDbScale
 70
     0
300
2:1
140
2.0
141
1.0
290
     0
  0
SCALE
  5
55
102
{ACAD_REACTORS
330
47
102
}
330
47
100
AcDbScale
 70
     0
300
4:1
140
4.0
141
1.0
290
     0
  0
SCALE
  5
56
102
{ACAD_REACTORS
330
47
102
}
330
47
100
AcDbScale
 70
     0
300
8:1
140
8.0
141
1.0
290
     0
  0
SCALE
  5
57
102
{ACAD_REACTORS
330
47
102
}
330
47
100
AcDbScale
 70
     0
300
10:1
140
10.0
141
1.0
290
     0
  0
SCALE
  5
58
102
{ACAD_REACTORS
330
47
102
}
330
47
100
AcDbScale
 70
     0
300
100:1
140
100.0
141
1.0
290
     0
  0
SCALE
  5
59
102
{ACAD_REACTORS
330
47
102
}
330
47
100
AcDbScale
 70
     0
300
1/128" = 1'-0"
140
0.007812
141
12.0
290
     0
  0
SCALE
  5
5A
102
{ACAD_REACTORS
330
47
102
}
330
47
100
AcDbScale
 70
     0
300
1/64" = 1'-0"
140
0.015625
141
12.0
290
     0
  0
SCALE
  5
5B
102
{ACAD_REACTORS
330
47
102
}
330
47
100
AcDbScale
 70
     0
300
1/32" = 1'-0"
140
0.03125
141
12.0
290
     0
  0
SCALE
  5
5C
102
{ACAD_REACTORS
330
47
102
}
330
47
100
AcDbScale
 70
     0
300
1/16" = 1'-0"
140
0.0625
141
12.0
290
     0
  0
SCALE
  5
5D
102
{ACAD_REACTORS
330
47
102
}
330
47
100
AcDbScale
 70
     0
300
3/32" = 1'-0"
140
0.09375
141
12.0
290
     0
  0
SCALE
  5
5E
102
{ACAD_REACTORS
330
47
102
}
330
47
100
AcDbScale
 70
     0
300
1/8" = 1'-0"
140
0.125
141
12.0
290
     0
  0
SCALE
  5
5F
102
{ACAD_REACTORS
330
47
102
}
330
47
100
AcDbScale
 70
     0
300
3/16" = 1'-0"
140
0.1875
141
12.0
290
     0
  0
SCALE
  5
60
102
{ACAD_REACTORS
330
47
102
}
330
47
100
AcDbScale
 70
     0
300
1/4" = 1'-0"
140
0.25
141
12.0
290
     0
  0
SCALE
  5
61
102
{ACAD_REACTORS
330
47
102
}
330
47
100
AcDbScale
 70
     0
300
3/8" = 1'-0"
140
0.375
141
12.0
290
     0
  0
SCALE
  5
62
102
{ACAD_REACTORS
330
47
102
}
330
47
100
AcDbScale
 70
     0
300
1/2" = 1'-0"
140
0.5
141
12.0
290
     0
  0
SCALE
  5
63
102
{ACAD_REACTORS
330
47
102
}
330
47
100
AcDbScale
 70
     0
300
3/4" = 1'-0"
140
0.75
141
12.0
290
     0
  0
SCALE
  5
64
102
{ACAD_REACTORS
330
47
102
}
330
47
100
AcDbScale
 70
     0
300
1" = 1'-0"
140
1.0
141
12.0
290
     0
  0
SCALE
  5
65
102
{ACAD_REACTORS
330
47
102
}
330
47
100
AcDbScale
 70
     0
300
1-1/2" = 1'-0"
140
1.5
141
12.0
290
     0
  0
SCALE
  5
66
102
{ACAD_REACTORS
330
47
102
}
330
47
100
AcDbScale
 70
     0
300
3" = 1'-0"
140
3.0
141
12.0
290
     0
  0
SCALE
  5
67
102
{ACAD_REACTORS
330
47
102
}
330
47
100
AcDbScale
 70
     0
300
6" = 1'-0"
140
6.0
141
12.0
290
     0
  0
SCALE
  5
68
102
{ACAD_REACTORS
330
47
102
}
330
47
100
AcDbScale
 70
     0
300
1'-0" = 1'-0"
140
12.0
141
12.0
290
     0
  0
ENDSEC
  0
EOF
