  0
SECTION
  2
HEADER
  9
$ACADVER
  1
AC1015
  9
$ACADMAINTVER
 70
     6
  9
$DWGCODEPAGE
  3
ANSI_1252
  9
$INSBASE
 10
0.0
 20
0.0
 30
0.0
  9
$EXTMIN
 10
0.0
 20
0.0
 30
0.0
  9
$EXTMAX
 10
990.920654
 20
716.103577
 30
2.0
  9
$LIMMIN
 10
0.0
 20
0.0
  9
$LIMMAX
 10
420.0
 20
297.0
  9
$ORTHOMODE
 70
     0
  9
$REGENMODE
 70
     1
  9
$FILLMODE
 70
     1
  9
$QTEXTMODE
 70
     0
  9
$MIRRTEXT
 70
     1
  9
$LTSCALE
 40
1.0
  9
$ATTMODE
 70
     1
  9
$TEXTSIZE
 40
2.5
  9
$TRACEWID
 40
1.0
  9
$TEXTSTYLE
  7
Standard
  9
$CLAYER
  8
0
  9
$CELTYPE
  6
ByLayer
  9
$CECOLOR
 62
   256
  9
$CELTSCALE
 40
1.0
  9
$DISPSILH
 70
     0
  9
$DIMSCALE
 40
1.0
  9
$DIMASZ
 40
2.5
  9
$DIMEXO
 40
0.625
  9
$DIMDLI
 40
3.75
  9
$DIMRND
 40
0.0
  9
$DIMDLE
 40
0.0
  9
$DIMEXE
 40
1.25
  9
$DIMTP
 40
0.0
  9
$DIMTM
 40
0.0
  9
$DIMTXT
 40
2.5
  9
$DIMCEN
 40
2.5
  9
$DIMTSZ
 40
0.0
  9
$DIMTOL
 70
     0
  9
$DIMLIM
 70
     0
  9
$DIMTIH
 70
     0
  9
$DIMTOH
 70
     0
  9
$DIMSE1
 70
     0
  9
$DIMSE2
 70
     0
  9
$DIMTAD
 70
     1
  9
$DIMZIN
 70
     8
  9
$DIMBLK
  1

  9
$DIMASO
 70
     1
  9
$DIMSHO
 70
     1
  9
$DIMPOST
  1

  9
$DIMAPOST
  1

  9
$DIMALT
 70
     0
  9
$DIMALTD
 70
     3
  9
$DIMALTF
 40
0.03937
  9
$DIMLFAC
 40
1.0
  9
$DIMTOFL
 70
     1
  9
$DIMTVP
 40
0.0
  9
$DIMTIX
 70
     0
  9
$DIMSOXD
 70
     0
  9
$DIMSAH
 70
     0
  9
$DIMBLK1
  1

  9
$DIMBLK2
  1

  9
$DIMSTYLE
  2
Standard
  9
$DIMCLRD
 70
     0
  9
$DIMCLRE
 70
     0
  9
$DIMCLRT
 70
     0
  9
$DIMTFAC
 40
1.0
  9
$DIMGAP
 40
0.625
  9
$DIMJUST
 70
     0
  9
$DIMSD1
 70
     0
  9
$DIMSD2
 70
     0
  9
$DIMTOLJ
 70
     0
  9
$DIMTZIN
 70
     8
  9
$DIMALTZ
 70
     0
  9
$DIMALTTZ
 70
     0
  9
$DIMUPT
 70
     0
  9
$DIMDEC
 70
     2
  9
$DIMTDEC
 70
     2
  9
$DIMALTU
 70
     2
  9
$DIMALTTD
 70
     3
  9
$DIMTXSTY
  7
Standard
  9
$DIMAUNIT
 70
     0
  9
$DIMADEC
 70
     0
  9
$DIMALTRND
 40
0.0
  9
$DIMAZIN
 70
     0
  9
$DIMDSEP
 70
    44
  9
$DIMATFIT
 70
     0
  9
$DIMFRAC
 70
     0
  9
$DIMLDRBLK
  1

  9
$DIMLUNIT
 70
     2
  9
$DIMLWD
 70
    -2
  9
$DIMLWE
 70
    -2
  9
$DIMTMOVE
 70
     0
  9
$LUNITS
 70
     2
  9
$LUPREC
 70
     4
  9
$SKETCHINC
 40
1.0
  9
$FILLETRAD
 40
2.5
  9
$AUNITS
 70
     0
  9
$AUPREC
 70
     0
  9
$MENU
  1
.
  9
$ELEVATION
 40
0.0
  9
$PELEVATION
 40
0.0
  9
$THICKNESS
 40
0.0
  9
$LIMCHECK
 70
     0
  9
$CHAMFERA
 40
2.5
  9
$CHAMFERB
 40
2.5
  9
$CHAMFERC
 40
0.0
  9
$CHAMFERD
 40
0.0
  9
$SKPOLY
 70
     0
  9
$TDCREATE
 40
2447893.125
  9
$TDUCREATE
 40
0.0
  9
$TDUPDATE
 40
2457994.411897569
  9
$TDUUPDATE
 40
2457994.286897569
  9
$TDINDWG
 40
0.0
  9
$TDUSRTIMER
 40
0.0
  9
$USRTIMER
 70
     1
  9
$ANGBASE
 50
0.0
  9
$ANGDIR
 70
     0
  9
$PDMODE
 70
     0
  9
$PDSIZE
 40
0.0
  9
$PLINEWID
 40
0.0
  9
$SPLFRAME
 70
     0
  9
$SPLINETYPE
 70
     6
  9
$SPLINESEGS
 70
     8
  9
$HANDSEED
  5
924
  9
$SURFTAB1
 70
     6
  9
$SURFTAB2
 70
     6
  9
$SURFTYPE
 70
     6
  9
$SURFU
 70
     6
  9
$SURFV
 70
     6
  9
$UCSBASE
  2

  9
$UCSNAME
  2

  9
$UCSORG
 10
0.0
 20
0.0
 30
0.0
  9
$UCSXDIR
 10
1.0
 20
0.0
 30
0.0
  9
$UCSYDIR
 10
0.0
 20
1.0
 30
0.0
  9
$UCSORTHOREF
  2

  9
$UCSORTHOVIEW
 70
     1
  9
$UCSORGTOP
 10
0.0
 20
0.0
 30
0.0
  9
$UCSORGBOTTOM
 10
0.0
 20
0.0
 30
0.0
  9
$UCSORGLEFT
 10
0.0
 20
0.0
 30
0.0
  9
$UCSORGRIGHT
 10
0.0
 20
0.0
 30
0.0
  9
$UCSORGFRONT
 10
0.0
 20
0.0
 30
0.0
  9
$UCSORGBACK
 10
0.0
 20
0.0
 30
0.0
  9
$PUCSBASE
  2

  9
$PUCSNAME
  2

  9
$PUCSORG
 10
0.0
 20
0.0
 30
0.0
  9
$PUCSXDIR
 10
1.0
 20
0.0
 30
0.0
  9
$PUCSYDIR
 10
0.0
 20
1.0
 30
0.0
  9
$PUCSORTHOREF
  2

  9
$PUCSORTHOVIEW
 70
     0
  9
$PUCSORGTOP
 10
0.0
 20
0.0
 30
0.0
  9
$PUCSORGBOTTOM
 10
0.0
 20
0.0
 30
0.0
  9
$PUCSORGLEFT
 10
0.0
 20
0.0
 30
0.0
  9
$PUCSORGRIGHT
 10
0.0
 20
0.0
 30
0.0
  9
$PUCSORGFRONT
 10
0.0
 20
0.0
 30
0.0
  9
$PUCSORGBACK
 10
0.0
 20
0.0
 30
0.0
  9
$USERI1
 70
     0
  9
$USERI2
 70
     0
  9
$USERI3
 70
     0
  9
$USERI4
 70
     0
  9
$USERI5
 70
     0
  9
$USERR1
 40
0.0
  9
$USERR2
 40
0.0
  9
$USERR3
 40
0.0
  9
$USERR4
 40
0.0
  9
$USERR5
 40
0.0
  9
$WORLDVIEW
 70
     1
  9
$SHADEDGE
 70
     3
  9
$SHADEDIF
 70
    70
  9
$TILEMODE
 70
     1
  9
$MAXACTVP
 70
    64
  9
$PINSBASE
 10
0.0
 20
0.0
 30
0.0
  9
$PLIMCHECK
 70
     0
  9
$PEXTMIN
 10
0.0
 20
0.0
 30
0.0
  9
$PEXTMAX
 10
990.920654
 20
716.103577
 30
2.0
  9
$PLIMMIN
 10
0.0
 20
0.0
  9
$PLIMMAX
 10
420.0
 20
297.0
  9
$UNITMODE
 70
     0
  9
$VISRETAIN
 70
     0
  9
$PLINEGEN
 70
     0
  9
$PSLTSCALE
 70
     1
  9
$TREEDEPTH
 70
  3020
  9
$CMLSTYLE
  2
Standard
  9
$CMLJUST
 70
     0
  9
$CMLSCALE
 40
20.0
  9
$PROXYGRAPHICS
 70
     1
  9
$MEASUREMENT
 70
     1
  9
$CELWEIGHT
370
    -1
  9
$ENDCAPS
280
     0
  9
$JOINSTYLE
280
     0
  9
$LWDISPLAY
290
     0
  9
$INSUNITS
 70
     0
  9
$HYPERLINKBASE
  1

  9
$STYLESHEET
  1

  9
$XEDIT
290
     1
  9
$CEPSNTYPE
380
     0
  9
$PSTYLEMODE
290
     0
  9
$FINGERPRINTGUID
  2
{CC6B3C9B-2BF1-415B-88EE-525F8A65B8EF}
  9
$VERSIONGUID
  2
{FAEB1C32-E019-11D5-929B-00C0DF256EC4}
  9
$EXTNAMES
290
     1
  9
$PSVPSCALE
 40
0.0
  9
$OLESTARTUP
290
     0
  0
ENDSEC
  0
SECTION
  2
CLASSES
  0
CLASS
  1
ACDBDICTIONARYWDFLT
  2
AcDbDictionaryWithDefault
  3
ObjectDBX Classes
 90
        0
280
     0
281
     0
  0
CLASS
  1
VISUALSTYLE
  2
AcDbVisualStyle
  3
ObjectDBX Classes
 90
     4095
280
     0
281
     0
  0
CLASS
  1
MATERIAL
  2
AcDbMaterial
  3
ObjectDBX Classes
 90
     1153
280
     0
281
     0
  0
CLASS
  1
SCALE
  2
AcDbScale
  3
ObjectDBX Classes
 90
     1153
280
     0
281
     0
  0
CLASS
  1
SUN
  2
AcDbSun
  3
SCENEOE
 90
     1153
280
     0
281
     0
  0
CLASS
  1
ACDBPLACEHOLDER
  2
AcDbPlaceHolder
  3
ObjectDBX Classes
 90
        0
280
     0
281
     0
  0
CLASS
  1
LAYOUT
  2
AcDbLayout
  3
ObjectDBX Classes
 90
        0
280
     0
281
     0
  0
ENDSEC
  0
SECTION
  2
TABLES
  0
TABLE
  2
VPORT
  5
8
330
0
100
AcDbSymbolTable
 70
     1
  0
VPORT
  5
29
330
8
100
AcDbSymbolTableRecord
100
AcDbViewportTableRecord
  2
*Active
 70
     0
 10
0.0
 20
0.0
 11
1.0
 21
1.0
 12
10.429907
 22
4.5
 13
0.0
 23
0.0
 14
0.5
 24
0.5
 15
0.5
 25
0.5
 16
0.0
 26
0.0
 36
1.0
 17
0.0
 27
0.0
 37
0.0
 40
9.0
 41
1.972973
 42
50.0
 43
0.0
 44
0.0
 50
0.0
 51
0.0
 71
     0
 72
   100
 73
     1
 74
     3
 75
     0
 76
     0
 77
     0
 78
     0
281
     0
 65
     1
110
0.0
120
0.0
130
0.0
111
1.0
121
0.0
131
0.0
112
0.0
122
1.0
132
0.0
 79
     0
146
0.0
  0
ENDTAB
  0
TABLE
  2
LTYPE
  5
5
330
0
100
AcDbSymbolTable
 70
     1
  0
LTYPE
  5
14
330
5
100
AcDbSymbolTableRecord
100
AcDbLinetypeTableRecord
  2
ByBlock
 70
     0
  3

 72
    65
 73
     0
 40
0.0
  0
LTYPE
  5
15
330
5
100
AcDbSymbolTableRecord
100
AcDbLinetypeTableRecord
  2
ByLayer
 70
     0
  3

 72
    65
 73
     0
 40
0.0
  0
LTYPE
  5
16
330
5
100
AcDbSymbolTableRecord
100
AcDbLinetypeTableRecord
  2
Continuous
 70
     0
  3
Solid line
 72
    65
 73
     0
 40
0.0
  0
ENDTAB
  0
TABLE
  2
LAYER
  5
2
330
0
100
AcDbSymbolTable
 70
     1
  0
LAYER
  5
10
330
2
100
AcDbSymbolTableRecord
100
AcDbLayerTableRecord
  2
0
 70
     0
 62
     7
  6
Continuous
370
    -3
390
F
  0
ENDTAB
  0
TABLE
  2
STYLE
  5
3
330
0
100
AcDbSymbolTable
 70
     1
  0
STYLE
  5
11
330
3
100
AcDbSymbolTableRecord
100
AcDbTextStyleTableRecord
  2
Standard
 70
     0
 40
0.0
 41
1.0
 50
0.0
 71
     0
 42
2.5
  3
txt
  4

  0
ENDTAB
  0
TABLE
  2
VIEW
  5
6
330
0
100
AcDbSymbolTable
 70
     0
  0
ENDTAB
  0
TABLE
  2
UCS
  5
7
330
0
100
AcDbSymbolTable
 70
     0
  0
ENDTAB
  0
TABLE
  2
APPID
  5
9
330
0
100
AcDbSymbolTable
 70
     1
  0
APPID
  5
12
330
9
100
AcDbSymbolTableRecord
100
AcDbRegAppTableRecord
  2
ACAD
 70
     0
  0
ENDTAB
  0
TABLE
  2
DIMSTYLE
  5
A
330
0
100
AcDbSymbolTable
 70
     1
100
AcDbDimStyleTable
  0
DIMSTYLE
105
27
330
A
100
AcDbSymbolTableRecord
100
AcDbDimStyleTableRecord
  2
Standard
 70
     0
178
     0
340
11
  0
ENDTAB
  0
TABLE
  2
BLOCK_RECORD
  5
1
330
0
100
AcDbSymbolTable
 70
     1
  0
BLOCK_RECORD
  5
1F
330
1
100
AcDbSymbolTableRecord
100
AcDbBlockTableRecord
  2
*Model_Space
340
22
  0
BLOCK_RECORD
  5
1B
330
1
100
AcDbSymbolTableRecord
100
AcDbBlockTableRecord
  2
*Paper_Space
340
1E
  0
BLOCK_RECORD
  5
23
330
1
100
AcDbSymbolTableRecord
100
AcDbBlockTableRecord
  2
*Paper_Space0
340
26
  0
ENDTAB
  0
ENDSEC
  0
SECTION
  2
BLOCKS
  0
BLOCK
  5
20
330
1F
100
AcDbEntity
  8
0
100
AcDbBlockBegin
  2
*Model_Space
 70
     0
 10
0.0
 20
0.0
 30
0.0
  3
*Model_Space
  1
*Model_Space
  0
ENDBLK
  5
21
330
1F
100
AcDbEntity
  8
0
100
AcDbBlockEnd
  0
BLOCK
  5
1C
330
1B
100
AcDbEntity
 67
     1
  8
0
100
AcDbBlockBegin
  2
*Paper_Space
 70
     0
 10
0.0
 20
0.0
 30
0.0
  3
*Paper_Space
  1
*Paper_Space
  0
ENDBLK
  5
1D
330
1B
100
AcDbEntity
 67
     1
  8
0
100
AcDbBlockEnd
  0
BLOCK
  5
24
330
23
100
AcDbEntity
  8
0
100
AcDbBlockBegin
  2
*Paper_Space0
 70
     0
 10
0.0
 20
0.0
 30
0.0
  3
*Paper_Space0
  1
*Paper_Space0
  0
ENDBLK
  5
25
330
23
100
AcDbEntity
  8
0
100
AcDbBlockEnd
  0
ENDSEC
  0
SECTION
  2
ENTITIES
  0
CIRCLE
  5
6A
330
1F
100
AcDbEntity
  8
0
 62
     7
370
    35
100
AcDbCircle
 10
385.463135
 20
328.471191
 30
0.0
 40
26.32774353027344
  0
POLYLINE
  5
6B
330
1F
100
AcDbEntity
  8
0
 62
     7
370
    13
100
AcDb2dPolyline
 66
     1
 10
0.0
 20
0.0
 30
0.0
  0
VERTEX
  5
6C
330
6B
100
AcDbEntity
  8
0
370
     0
100
AcDbVertex
100
AcDb2dVertex
 10
322.824432
 20
482.14566
 30
0.0
  0
VERTEX
  5
6D
330
6B
100
AcDbEntity
  8
0
370
     0
100
AcDbVertex
100
AcDb2dVertex
 10
333.663116
 20
482.14566
 30
0.0
  0
VERTEX
  5
6E
330
6B
100
AcDbEntity
  8
0
370
     0
100
AcDbVertex
100
AcDb2dVertex
 10
325.534088
 20
468.14566
 30
0.0
  0
SEQEND
  5
6F
330
6B
100
AcDbEntity
  8
0
 62
     7
370
    13
  0
POLYLINE
  5
70
330
1F
100
AcDbEntity
  8
0
 62
     7
370
    13
100
AcDb2dPolyline
 66
     1
 10
0.0
 20
0.0
 30
0.0
  0
VERTEX
  5
71
330
70
100
AcDbEntity
  8
0
370
     0
100
AcDbVertex
100
AcDb2dVertex
 10
342.559906
 20
480.339203
 30
0.0
  0
VERTEX
  5
72
330
70
100
AcDbEntity
  8
0
370
     0
100
AcDbVertex
100
AcDb2dVertex
 10
345.043762
 20
482.14566
 30
0.0
  0
VERTEX
  5
73
330
70
100
AcDbEntity
  8
0
370
     0
100
AcDbVertex
100
AcDb2dVertex
 10
345.043762
 20
468.14566
 30
0.0
  0
SEQEND
  5
74
330
70
100
AcDbEntity
  8
0
 62
     7
370
    13
  0
POLYLINE
  5
75
330
1F
100
AcDbEntity
  8
0
 62
     7
370
    13
100
AcDb2dPolyline
 66
     1
 10
0.0
 20
0.0
 30
0.0
  0
VERTEX
  5
76
330
75
100
AcDbEntity
  8
0
370
     0
100
AcDbVertex
100
AcDb2dVertex
 10
341.205078
 20
479.661804
 30
0.0
  0
VERTEX
  5
77
330
75
100
AcDbEntity
  8
0
370
     0
100
AcDbVertex
100
AcDb2dVertex
 10
342.559906
 20
480.339203
 30
0.0
  0
SEQEND
  5
78
330
75
100
AcDbEntity
  8
0
 62
     7
370
    13
  0
POLYLINE
  5
79
330
1F
100
AcDbEntity
  8
0
 62
     7
370
    13
100
AcDb2dPolyline
 66
     1
 10
0.0
 20
0.0
 30
0.0
  0
VERTEX
  5
7A
330
79
100
AcDbEntity
  8
0
370
     0
100
AcDbVertex
100
AcDb2dVertex
 10
364.779266
 20
475.14566
 30
0.0
  0
VERTEX
  5
7B
330
79
100
AcDbEntity
  8
0
370
     0
100
AcDbVertex
100
AcDb2dVertex
 10
362.972809
 20
476.726318
 30
0.0
  0
VERTEX
  5
7C
330
79
100
AcDbEntity
  8
0
370
     0
100
AcDbVertex
100
AcDb2dVertex
 10
361.617981
 20
477.177917
 30
0.0
  0
VERTEX
  5
7D
330
79
100
AcDbEntity
  8
0
370
     0
100
AcDbVertex
100
AcDb2dVertex
 10
359.134094
 20
477.177917
 30
0.0
  0
VERTEX
  5
7E
330
79
100
AcDbEntity
  8
0
370
     0
100
AcDbVertex
100
AcDb2dVertex
 10
357.553467
 20
476.726318
 30
0.0
  0
VERTEX
  5
7F
330
79
100
AcDbEntity
  8
0
370
     0
100
AcDbVertex
100
AcDb2dVertex
 10
355.747009
 20
475.14566
 30
0.0
  0
VERTEX
  5
80
330
79
100
AcDbEntity
  8
0
370
     0
100
AcDbVertex
100
AcDb2dVertex
 10
355.29538
 20
473.339203
 30
0.0
  0
SEQEND
  5
81
330
79
100
AcDbEntity
  8
0
 62
     7
370
    13
  0
POLYLINE
  5
82
330
1F
100
AcDbEntity
  8
0
 62
     7
370
    13
100
AcDb2dPolyline
 66
     1
 10
0.0
 20
0.0
 30
0.0
  0
VERTEX
  5
83
330
82
100
AcDbEntity
  8
0
370
     0
100
AcDbVertex
100
AcDb2dVertex
 10
361.617981
 20
468.14566
 30
0.0
  0
VERTEX
  5
84
330
82
100
AcDbEntity
  8
0
370
     0
100
AcDbVertex
100
AcDb2dVertex
 10
362.972809
 20
468.59729
 30
0.0
  0
VERTEX
  5
85
330
82
100
AcDbEntity
  8
0
370
     0
100
AcDbVertex
100
AcDb2dVertex
 10
364.779266
 20
470.177917
 30
0.0
  0
SEQEND
  5
86
330
82
100
AcDbEntity
  8
0
 62
     7
370
    13
  0
POLYLINE
  5
87
330
1F
100
AcDbEntity
  8
0
 62
     7
370
    13
100
AcDb2dPolyline
 66
     1
 10
0.0
 20
0.0
 30
0.0
  0
VERTEX
  5
88
330
87
100
AcDbEntity
  8
0
370
     0
100
AcDbVertex
100
AcDb2dVertex
 10
359.134094
 20
468.14566
 30
0.0
  0
VERTEX
  5
89
330
87
100
AcDbEntity
  8
0
370
     0
100
AcDbVertex
100
AcDb2dVertex
 10
361.617981
 20
468.14566
 30
0.0
  0
SEQEND
  5
8A
330
87
100
AcDbEntity
  8
0
 62
     7
370
    13
  0
POLYLINE
  5
8B
330
1F
100
AcDbEntity
  8
0
 62
     7
370
    13
100
AcDb2dPolyline
 66
     1
 10
0.0
 20
0.0
 30
0.0
  0
VERTEX
  5
8C
330
8B
100
AcDbEntity
  8
0
370
     0
100
AcDbVertex
100
AcDb2dVertex
 10
355.747009
 20
470.177917
 30
0.0
  0
VERTEX
  5
8D
330
8B
100
AcDbEntity
  8
0
370
     0
100
AcDbVertex
100
AcDb2dVertex
 10
355.29538
 20
471.984375
 30
0.0
  0
SEQEND
  5
8E
330
8B
100
AcDbEntity
  8
0
 62
     7
370
    13
  0
POLYLINE
  5
8F
330
1F
100
AcDbEntity
  8
0
 62
     7
370
    13
100
AcDb2dPolyline
 66
     1
 10
0.0
 20
0.0
 30
0.0
  0
VERTEX
  5
90
330
8F
100
AcDbEntity
  8
0
370
     0
100
AcDbVertex
100
AcDb2dVertex
 10
355.29538
 20
473.339203
 30
0.0
  0
VERTEX
  5
91
330
8F
100
AcDbEntity
  8
0
370
     0
100
AcDbVertex
100
AcDb2dVertex
 10
355.29538
 20
471.984375
 30
0.0
  0
SEQEND
  5
92
330
8F
100
AcDbEntity
  8
0
 62
     7
370
    13
  0
POLYLINE
  5
93
330
1F
100
AcDbEntity
  8
0
 62
     7
370
    13
100
AcDb2dPolyline
 66
     1
 10
0.0
 20
0.0
 30
0.0
  0
VERTEX
  5
94
330
93
100
AcDbEntity
  8
0
370
     0
100
AcDbVertex
100
AcDb2dVertex
 10
359.134094
 20
468.14566
 30
0.0
  0
VERTEX
  5
95
330
93
100
AcDbEntity
  8
0
370
     0
100
AcDbVertex
100
AcDb2dVertex
 10
357.553467
 20
468.59729
 30
0.0
  0
VERTEX
  5
96
330
93
100
AcDbEntity
  8
0
370
     0
100
AcDbVertex
100
AcDb2dVertex
 10
355.747009
 20
470.177917
 30
0.0
  0
SEQEND
  5
97
330
93
100
AcDbEntity
  8
0
 62
     7
370
    13
  0
POLYLINE
  5
98
330
1F
100
AcDbEntity
  8
0
 62
     7
370
    13
100
AcDb2dPolyline
 66
     1
 10
0.0
 20
0.0
 30
0.0
  0
VERTEX
  5
99
330
98
100
AcDbEntity
  8
0
370
     0
100
AcDbVertex
100
AcDb2dVertex
 10
371.192169
 20
468.14566
 30
0.0
  0
VERTEX
  5
9A
330
98
100
AcDbEntity
  8
0
370
     0
100
AcDbVertex
100
AcDb2dVertex
 10
371.192169
 20
477.177917
 30
0.0
  0
SEQEND
  5
9B
330
98
100
AcDbEntity
  8
0
 62
     7
370
    13
  0
POLYLINE
  5
9C
330
1F
100
AcDbEntity
  8
0
 62
     7
370
    13
100
AcDb2dPolyline
 66
     1
 10
0.0
 20
0.0
 30
0.0
  0
VERTEX
  5
9D
330
9C
100
AcDbEntity
  8
0
370
     0
100
AcDbVertex
100
AcDb2dVertex
 10
377.28894
 20
474.694031
 30
0.0
  0
VERTEX
  5
9E
330
9C
100
AcDbEntity
  8
0
370
     0
100
AcDbVertex
100
AcDb2dVertex
 10
377.28894
 20
468.14566
 30
0.0
  0
SEQEND
  5
9F
330
9C
100
AcDbEntity
  8
0
 62
     7
370
    13
  0
POLYLINE
  5
A0
330
1F
100
AcDbEntity
  8
0
 62
     7
370
    13
100
AcDb2dPolyline
 66
     1
 10
0.0
 20
0.0
 30
0.0
  0
VERTEX
  5
A1
330
A0
100
AcDbEntity
  8
0
370
     0
100
AcDbVertex
100
AcDb2dVertex
 10
383.385712
 20
474.694031
 30
0.0
  0
VERTEX
  5
A2
330
A0
100
AcDbEntity
  8
0
370
     0
100
AcDbVertex
100
AcDb2dVertex
 10
383.385712
 20
468.14566
 30
0.0
  0
SEQEND
  5
A3
330
A0
100
AcDbEntity
  8
0
 62
     7
370
    13
  0
POLYLINE
  5
A4
330
1F
100
AcDbEntity
  8
0
 62
     7
370
    13
100
AcDb2dPolyline
 66
     1
 10
0.0
 20
0.0
 30
0.0
  0
VERTEX
  5
A5
330
A4
100
AcDbEntity
  8
0
370
     0
100
AcDbVertex
100
AcDb2dVertex
 10
371.192169
 20
474.694031
 30
0.0
  0
VERTEX
  5
A6
330
A4
100
AcDbEntity
  8
0
370
     0
100
AcDbVertex
100
AcDb2dVertex
 10
372.772797
 20
476.500488
 30
0.0
  0
VERTEX
  5
A7
330
A4
100
AcDbEntity
  8
0
370
     0
100
AcDbVertex
100
AcDb2dVertex
 10
374.353455
 20
477.177917
 30
0.0
  0
VERTEX
  5
A8
330
A4
100
AcDbEntity
  8
0
370
     0
100
AcDbVertex
100
AcDb2dVertex
 10
375.708282
 20
477.177917
 30
0.0
  0
VERTEX
  5
A9
330
A4
100
AcDbEntity
  8
0
370
     0
100
AcDbVertex
100
AcDb2dVertex
 10
376.611511
 20
476.500488
 30
0.0
  0
VERTEX
  5
AA
330
A4
100
AcDbEntity
  8
0
370
     0
100
AcDbVertex
100
AcDb2dVertex
 10
377.28894
 20
474.694031
 30
0.0
  0
VERTEX
  5
AB
330
A4
100
AcDbEntity
  8
0
370
     0
100
AcDbVertex
100
AcDb2dVertex
 10
378.869568
 20
476.500488
 30
0.0
  0
VERTEX
  5
AC
330
A4
100
AcDbEntity
  8
0
370
     0
100
AcDbVertex
100
AcDb2dVertex
 10
380.450226
 20
477.177917
 30
0.0
  0
VERTEX
  5
AD
330
A4
100
AcDbEntity
  8
0
370
     0
100
AcDbVertex
100
AcDb2dVertex
 10
381.805054
 20
477.177917
 30
0.0
  0
VERTEX
  5
AE
330
A4
100
AcDbEntity
  8
0
370
     0
100
AcDbVertex
100
AcDb2dVertex
 10
382.708282
 20
476.500488
 30
0.0
  0
VERTEX
  5
AF
330
A4
100
AcDbEntity
  8
0
370
     0
100
AcDbVertex
100
AcDb2dVertex
 10
383.385712
 20
474.694031
 30
0.0
  0
SEQEND
  5
B0
330
A4
100
AcDbEntity
  8
0
 62
     7
370
    13
  0
POLYLINE
  5
B1
330
1F
100
AcDbEntity
  8
0
 62
     7
370
    13
100
AcDb2dPolyline
 66
     1
 10
0.0
 20
0.0
 30
0.0
  0
VERTEX
  5
B2
330
B1
100
AcDbEntity
  8
0
370
     0
100
AcDbVertex
100
AcDb2dVertex
 10
415.40506
 20
468.14566
 30
0.0
  0
VERTEX
  5
B3
330
B1
100
AcDbEntity
  8
0
370
     0
100
AcDbVertex
100
AcDb2dVertex
 10
404.566345
 20
468.14566
 30
0.0
  0
VERTEX
  5
B4
330
B1
100
AcDbEntity
  8
0
370
     0
100
AcDbVertex
100
AcDb2dVertex
 10
412.243774
 20
474.468262
 30
0.0
  0
VERTEX
  5
B5
330
B1
100
AcDbEntity
  8
0
370
     0
100
AcDbVertex
100
AcDb2dVertex
 10
413.824432
 20
476.274689
 30
0.0
  0
VERTEX
  5
B6
330
B1
100
AcDbEntity
  8
0
370
     0
100
AcDbVertex
100
AcDb2dVertex
 10
414.501831
 20
477.629517
 30
0.0
  0
VERTEX
  5
B7
330
B1
100
AcDbEntity
  8
0
370
     0
100
AcDbVertex
100
AcDb2dVertex
 10
414.501831
 20
478.984375
 30
0.0
  0
VERTEX
  5
B8
330
B1
100
AcDbEntity
  8
0
370
     0
100
AcDbVertex
100
AcDb2dVertex
 10
413.824432
 20
480.565002
 30
0.0
  0
VERTEX
  5
B9
330
B1
100
AcDbEntity
  8
0
370
     0
100
AcDbVertex
100
AcDb2dVertex
 10
413.147003
 20
481.468262
 30
0.0
  0
VERTEX
  5
BA
330
B1
100
AcDbEntity
  8
0
370
     0
100
AcDbVertex
100
AcDb2dVertex
 10
411.566345
 20
482.14566
 30
0.0
  0
VERTEX
  5
BB
330
B1
100
AcDbEntity
  8
0
370
     0
100
AcDbVertex
100
AcDb2dVertex
 10
408.856689
 20
482.14566
 30
0.0
  0
VERTEX
  5
BC
330
B1
100
AcDbEntity
  8
0
370
     0
100
AcDbVertex
100
AcDb2dVertex
 10
407.276031
 20
481.468262
 30
0.0
  0
VERTEX
  5
BD
330
B1
100
AcDbEntity
  8
0
370
     0
100
AcDbVertex
100
AcDb2dVertex
 10
406.598602
 20
480.790833
 30
0.0
  0
VERTEX
  5
BE
330
B1
100
AcDbEntity
  8
0
370
     0
100
AcDbVertex
100
AcDb2dVertex
 10
405.695374
 20
479.435974
 30
0.0
  0
VERTEX
  5
BF
330
B1
100
AcDbEntity
  8
0
370
     0
100
AcDbVertex
100
AcDb2dVertex
 10
405.695374
 20
478.758545
 30
0.0
  0
SEQEND
  5
C0
330
B1
100
AcDbEntity
  8
0
 62
     7
370
    13
  0
POLYLINE
  5
C1
330
1F
100
AcDbEntity
  8
0
 62
     7
370
    13
100
AcDb2dPolyline
 66
     1
 10
0.0
 20
0.0
 30
0.0
  0
VERTEX
  5
C2
330
C1
100
AcDbEntity
  8
0
370
     0
100
AcDbVertex
100
AcDb2dVertex
 10
421.592163
 20
469.726318
 30
0.0
  0
VERTEX
  5
C3
330
C1
100
AcDbEntity
  8
0
370
     0
100
AcDbVertex
100
AcDb2dVertex
 10
422.946991
 20
468.823059
 30
0.0
  0
VERTEX
  5
C4
330
C1
100
AcDbEntity
  8
0
370
     0
100
AcDbVertex
100
AcDb2dVertex
 10
425.205078
 20
468.14566
 30
0.0
  0
VERTEX
  5
C5
330
C1
100
AcDbEntity
  8
0
370
     0
100
AcDbVertex
100
AcDb2dVertex
 10
427.011505
 20
468.14566
 30
0.0
  0
VERTEX
  5
C6
330
C1
100
AcDbEntity
  8
0
370
     0
100
AcDbVertex
100
AcDb2dVertex
 10
429.269592
 20
468.823059
 30
0.0
  0
SEQEND
  5
C7
330
C1
100
AcDbEntity
  8
0
 62
     7
370
    13
  0
POLYLINE
  5
C8
330
1F
100
AcDbEntity
  8
0
 62
     7
370
    13
100
AcDb2dPolyline
 66
     1
 10
0.0
 20
0.0
 30
0.0
  0
VERTEX
  5
C9
330
C8
100
AcDbEntity
  8
0
370
     0
100
AcDbVertex
100
AcDb2dVertex
 10
429.269592
 20
481.468262
 30
0.0
  0
VERTEX
  5
CA
330
C8
100
AcDbEntity
  8
0
370
     0
100
AcDbVertex
100
AcDb2dVertex
 10
427.011505
 20
482.14566
 30
0.0
  0
VERTEX
  5
CB
330
C8
100
AcDbEntity
  8
0
370
     0
100
AcDbVertex
100
AcDb2dVertex
 10
425.205078
 20
482.14566
 30
0.0
  0
VERTEX
  5
CC
330
C8
100
AcDbEntity
  8
0
370
     0
100
AcDbVertex
100
AcDb2dVertex
 10
422.946991
 20
481.468262
 30
0.0
  0
SEQEND
  5
CD
330
C8
100
AcDbEntity
  8
0
 62
     7
370
    13
  0
POLYLINE
  5
CE
330
1F
100
AcDbEntity
  8
0
 62
     7
370
    13
100
AcDb2dPolyline
 66
     1
 10
0.0
 20
0.0
 30
0.0
  0
VERTEX
  5
CF
330
CE
100
AcDbEntity
  8
0
370
     0
100
AcDbVertex
100
AcDb2dVertex
 10
421.592163
 20
469.726318
 30
0.0
  0
VERTEX
  5
D0
330
CE
100
AcDbEntity
  8
0
370
     0
100
AcDbVertex
100
AcDb2dVertex
 10
420.914734
 20
471.081146
 30
0.0
  0
VERTEX
  5
D1
330
CE
100
AcDbEntity
  8
0
370
     0
100
AcDbVertex
100
AcDb2dVertex
 10
420.914734
 20
472.435974
 30
0.0
  0
VERTEX
  5
D2
330
CE
100
AcDbEntity
  8
0
370
     0
100
AcDbVertex
100
AcDb2dVertex
 10
421.592163
 20
473.790833
 30
0.0
  0
VERTEX
  5
D3
330
CE
100
AcDbEntity
  8
0
370
     0
100
AcDbVertex
100
AcDb2dVertex
 10
423.172821
 20
475.14566
 30
0.0
  0
VERTEX
  5
D4
330
CE
100
AcDbEntity
  8
0
370
     0
100
AcDbVertex
100
AcDb2dVertex
 10
427.914734
 20
476.500488
 30
0.0
  0
VERTEX
  5
D5
330
CE
100
AcDbEntity
  8
0
370
     0
100
AcDbVertex
100
AcDb2dVertex
 10
429.043762
 20
476.952118
 30
0.0
  0
VERTEX
  5
D6
330
CE
100
AcDbEntity
  8
0
370
     0
100
AcDbVertex
100
AcDb2dVertex
 10
429.721191
 20
477.629517
 30
0.0
  0
VERTEX
  5
D7
330
CE
100
AcDbEntity
  8
0
370
     0
100
AcDbVertex
100
AcDb2dVertex
 10
430.172821
 20
478.758545
 30
0.0
  0
VERTEX
  5
D8
330
CE
100
AcDbEntity
  8
0
370
     0
100
AcDbVertex
100
AcDb2dVertex
 10
430.172821
 20
480.339203
 30
0.0
  0
VERTEX
  5
D9
330
CE
100
AcDbEntity
  8
0
370
     0
100
AcDbVertex
100
AcDb2dVertex
 10
429.269592
 20
481.468262
 30
0.0
  0
SEQEND
  5
DA
330
CE
100
AcDbEntity
  8
0
 62
     7
370
    13
  0
POLYLINE
  5
DB
330
1F
100
AcDbEntity
  8
0
 62
     7
370
    13
100
AcDb2dPolyline
 66
     1
 10
0.0
 20
0.0
 30
0.0
  0
VERTEX
  5
DC
330
DB
100
AcDbEntity
  8
0
370
     0
100
AcDbVertex
100
AcDb2dVertex
 10
422.946991
 20
481.468262
 30
0.0
  0
VERTEX
  5
DD
330
DB
100
AcDbEntity
  8
0
370
     0
100
AcDbVertex
100
AcDb2dVertex
 10
422.043762
 20
480.339203
 30
0.0
  0
VERTEX
  5
DE
330
DB
100
AcDbEntity
  8
0
370
     0
100
AcDbVertex
100
AcDb2dVertex
 10
422.043762
 20
478.758545
 30
0.0
  0
VERTEX
  5
DF
330
DB
100
AcDbEntity
  8
0
370
     0
100
AcDbVertex
100
AcDb2dVertex
 10
422.495392
 20
477.629517
 30
0.0
  0
VERTEX
  5
E0
330
DB
100
AcDbEntity
  8
0
370
     0
100
AcDbVertex
100
AcDb2dVertex
 10
423.172821
 20
476.952118
 30
0.0
  0
VERTEX
  5
E1
330
DB
100
AcDbEntity
  8
0
370
     0
100
AcDbVertex
100
AcDb2dVertex
 10
424.301849
 20
476.500488
 30
0.0
  0
VERTEX
  5
E2
330
DB
100
AcDbEntity
  8
0
370
     0
100
AcDbVertex
100
AcDb2dVertex
 10
429.269592
 20
475.14566
 30
0.0
  0
SEQEND
  5
E3
330
DB
100
AcDbEntity
  8
0
 62
     7
370
    13
  0
POLYLINE
  5
E4
330
1F
100
AcDbEntity
  8
0
 62
     7
370
    13
100
AcDb2dPolyline
 66
     1
 10
0.0
 20
0.0
 30
0.0
  0
VERTEX
  5
E5
330
E4
100
AcDbEntity
  8
0
370
     0
100
AcDbVertex
100
AcDb2dVertex
 10
430.85022
 20
473.790833
 30
0.0
  0
VERTEX
  5
E6
330
E4
100
AcDbEntity
  8
0
370
     0
100
AcDbVertex
100
AcDb2dVertex
 10
431.527649
 20
472.435974
 30
0.0
  0
VERTEX
  5
E7
330
E4
100
AcDbEntity
  8
0
370
     0
100
AcDbVertex
100
AcDb2dVertex
 10
431.527649
 20
471.081146
 30
0.0
  0
VERTEX
  5
E8
330
E4
100
AcDbEntity
  8
0
370
     0
100
AcDbVertex
100
AcDb2dVertex
 10
430.85022
 20
469.726318
 30
0.0
  0
VERTEX
  5
E9
330
E4
100
AcDbEntity
  8
0
370
     0
100
AcDbVertex
100
AcDb2dVertex
 10
429.269592
 20
468.823059
 30
0.0
  0
SEQEND
  5
EA
330
E4
100
AcDbEntity
  8
0
 62
     7
370
    13
  0
POLYLINE
  5
EB
330
1F
100
AcDbEntity
  8
0
 62
     7
370
    13
100
AcDb2dPolyline
 66
     1
 10
0.0
 20
0.0
 30
0.0
  0
VERTEX
  5
EC
330
EB
100
AcDbEntity
  8
0
370
     0
100
AcDbVertex
100
AcDb2dVertex
 10
430.85022
 20
473.790833
 30
0.0
  0
VERTEX
  5
ED
330
EB
100
AcDbEntity
  8
0
370
     0
100
AcDbVertex
100
AcDb2dVertex
 10
429.269592
 20
475.14566
 30
0.0
  0
SEQEND
  5
EE
330
EB
100
AcDbEntity
  8
0
 62
     7
370
    13
  0
POLYLINE
  5
EF
330
1F
100
AcDbEntity
  8
0
 62
     7
370
    13
100
AcDb2dPolyline
 66
     1
 10
0.0
 20
0.0
 30
0.0
  0
VERTEX
  5
F0
330
EF
100
AcDbEntity
  8
0
370
     0
100
AcDbVertex
100
AcDb2dVertex
 10
440.876038
 20
482.14566
 30
0.0
  0
VERTEX
  5
F1
330
EF
100
AcDbEntity
  8
0
370
     0
100
AcDbVertex
100
AcDb2dVertex
 10
440.876038
 20
477.855347
 30
0.0
  0
SEQEND
  5
F2
330
EF
100
AcDbEntity
  8
0
 62
     7
370
    13
  0
POLYLINE
  5
F3
330
1F
100
AcDbEntity
  8
0
 62
     7
370
    13
100
AcDb2dPolyline
 66
     1
 10
0.0
 20
0.0
 30
0.0
  0
VERTEX
  5
F4
330
F3
100
AcDbEntity
  8
0
370
     0
100
AcDbVertex
100
AcDb2dVertex
 10
445.392151
 20
482.14566
 30
0.0
  0
VERTEX
  5
F5
330
F3
100
AcDbEntity
  8
0
370
     0
100
AcDbVertex
100
AcDb2dVertex
 10
445.392151
 20
477.855347
 30
0.0
  0
SEQEND
  5
F6
330
F3
100
AcDbEntity
  8
0
 62
     7
370
    13
  0
LINE
  5
F7
330
1F
100
AcDbEntity
  8
0
 62
     7
370
    13
100
AcDbLine
 10
207.213135
 20
399.221191
 30
0.0
 11
207.213135
 21
468.14566
 31
0.0
  0
LINE
  5
F8
330
1F
100
AcDbEntity
  8
0
 62
     7
370
    13
100
AcDbLine
 10
563.713135
 20
399.221191
 30
0.0
 11
563.713135
 21
468.14566
 31
0.0
  0
POLYLINE
  5
F9
330
1F
100
AcDbEntity
  8
0
 62
     7
370
    13
100
AcDb2dPolyline
 66
     1
 10
0.0
 20
0.0
 30
0.0
  0
VERTEX
  5
FA
330
F9
100
AcDbEntity
  8
0
370
     0
100
AcDbVertex
100
AcDb2dVertex
 10
561.78125
 20
465.628021
 30
0.0
  0
VERTEX
  5
FB
330
F9
100
AcDbEntity
  8
0
370
     0
100
AcDbVertex
100
AcDb2dVertex
 10
563.713135
 20
466.14566
 30
0.0
  0
VERTEX
  5
FC
330
F9
100
AcDbEntity
  8
0
370
     0
100
AcDbVertex
100
AcDb2dVertex
 10
561.78125
 20
466.6633
 30
0.0
  0
SEQEND
  5
FD
330
F9
100
AcDbEntity
  8
0
 62
     7
370
    13
  0
POLYLINE
  5
FE
330
1F
100
AcDbEntity
  8
0
 62
     7
370
    13
100
AcDb2dPolyline
 66
     1
 10
0.0
 20
0.0
 30
0.0
  0
VERTEX
  5
FF
330
FE
100
AcDbEntity
  8
0
370
     0
100
AcDbVertex
100
AcDb2dVertex
 10
209.144989
 20
466.6633
 30
0.0
  0
VERTEX
  5
100
330
FE
100
AcDbEntity
  8
0
370
     0
100
AcDbVertex
100
AcDb2dVertex
 10
207.213135
 20
466.14566
 30
0.0
  0
VERTEX
  5
101
330
FE
100
AcDbEntity
  8
0
370
     0
100
AcDbVertex
100
AcDb2dVertex
 10
209.144989
 20
465.628021
 30
0.0
  0
SEQEND
  5
102
330
FE
100
AcDbEntity
  8
0
 62
     7
370
    13
  0
LINE
  5
103
330
1F
100
AcDbEntity
  8
0
 62
     7
370
    13
100
AcDbLine
 10
207.213135
 20
466.14566
 30
0.0
 11
563.713135
 21
466.14566
 31
0.0
  0
POLYLINE
  5
104
330
1F
100
AcDbEntity
  8
0
 62
     7
370
    13
100
AcDb2dPolyline
 66
     1
 10
0.0
 20
0.0
 30
0.0
  0
VERTEX
  5
105
330
104
100
AcDbEntity
  8
0
370
     0
100
AcDbVertex
100
AcDb2dVertex
 10
265.605042
 20
512.244202
 30
0.0
  0
VERTEX
  5
106
330
104
100
AcDbEntity
  8
0
370
     0
100
AcDbVertex
100
AcDb2dVertex
 10
276.443787
 20
512.244202
 30
0.0
  0
VERTEX
  5
107
330
104
100
AcDbEntity
  8
0
370
     0
100
AcDbVertex
100
AcDb2dVertex
 10
268.314728
 20
498.244202
 30
0.0
  0
SEQEND
  5
108
330
104
100
AcDbEntity
  8
0
 62
     7
370
    13
  0
POLYLINE
  5
109
330
1F
100
AcDbEntity
  8
0
 62
     7
370
    13
100
AcDb2dPolyline
 66
     1
 10
0.0
 20
0.0
 30
0.0
  0
VERTEX
  5
10A
330
109
100
AcDbEntity
  8
0
370
     0
100
AcDbVertex
100
AcDb2dVertex
 10
291.888916
 20
510.437744
 30
0.0
  0
VERTEX
  5
10B
330
109
100
AcDbEntity
  8
0
370
     0
100
AcDbVertex
100
AcDb2dVertex
 10
291.211517
 20
511.566772
 30
0.0
  0
VERTEX
  5
10C
330
109
100
AcDbEntity
  8
0
370
     0
100
AcDbVertex
100
AcDb2dVertex
 10
288.727631
 20
512.244202
 30
0.0
  0
VERTEX
  5
10D
330
109
100
AcDbEntity
  8
0
370
     0
100
AcDbVertex
100
AcDb2dVertex
 10
287.372803
 20
512.244202
 30
0.0
  0
VERTEX
  5
10E
330
109
100
AcDbEntity
  8
0
370
     0
100
AcDbVertex
100
AcDb2dVertex
 10
284.888916
 20
511.566772
 30
0.0
  0
VERTEX
  5
10F
330
109
100
AcDbEntity
  8
0
370
     0
100
AcDbVertex
100
AcDb2dVertex
 10
283.308289
 20
509.760315
 30
0.0
  0
VERTEX
  5
110
330
109
100
AcDbEntity
  8
0
370
     0
100
AcDbVertex
100
AcDb2dVertex
 10
282.630859
 20
506.59906
 30
0.0
  0
VERTEX
  5
111
330
109
100
AcDbEntity
  8
0
370
     0
100
AcDbVertex
100
AcDb2dVertex
 10
282.630859
 20
503.437744
 30
0.0
  0
VERTEX
  5
112
330
109
100
AcDbEntity
  8
0
370
     0
100
AcDbVertex
100
AcDb2dVertex
 10
283.308289
 20
500.953857
 30
0.0
  0
VERTEX
  5
113
330
109
100
AcDbEntity
  8
0
370
     0
100
AcDbVertex
100
AcDb2dVertex
 10
284.663116
 20
499.37323
 30
0.0
  0
VERTEX
  5
114
330
109
100
AcDbEntity
  8
0
370
     0
100
AcDbVertex
100
AcDb2dVertex
 10
287.147003
 20
498.244202
 30
0.0
  0
VERTEX
  5
115
330
109
100
AcDbEntity
  8
0
370
     0
100
AcDbVertex
100
AcDb2dVertex
 10
288.050232
 20
498.244202
 30
0.0
  0
VERTEX
  5
116
330
109
100
AcDbEntity
  8
0
370
     0
100
AcDbVertex
100
AcDb2dVertex
 10
290.534088
 20
498.921631
 30
0.0
  0
VERTEX
  5
117
330
109
100
AcDbEntity
  8
0
370
     0
100
AcDbVertex
100
AcDb2dVertex
 10
291.888916
 20
500.276459
 30
0.0
  0
VERTEX
  5
118
330
109
100
AcDbEntity
  8
0
370
     0
100
AcDbVertex
100
AcDb2dVertex
 10
292.566345
 20
502.082916
 30
0.0
  0
VERTEX
  5
119
330
109
100
AcDbEntity
  8
0
370
     0
100
AcDbVertex
100
AcDb2dVertex
 10
292.566345
 20
502.760315
 30
0.0
  0
VERTEX
  5
11A
330
109
100
AcDbEntity
  8
0
370
     0
100
AcDbVertex
100
AcDb2dVertex
 10
291.888916
 20
504.566772
 30
0.0
  0
VERTEX
  5
11B
330
109
100
AcDbEntity
  8
0
370
     0
100
AcDbVertex
100
AcDb2dVertex
 10
290.534088
 20
505.921631
 30
0.0
  0
VERTEX
  5
11C
330
109
100
AcDbEntity
  8
0
370
     0
100
AcDbVertex
100
AcDb2dVertex
 10
288.050232
 20
506.59906
 30
0.0
  0
VERTEX
  5
11D
330
109
100
AcDbEntity
  8
0
370
     0
100
AcDbVertex
100
AcDb2dVertex
 10
287.147003
 20
506.59906
 30
0.0
  0
VERTEX
  5
11E
330
109
100
AcDbEntity
  8
0
370
     0
100
AcDbVertex
100
AcDb2dVertex
 10
284.663116
 20
505.921631
 30
0.0
  0
VERTEX
  5
11F
330
109
100
AcDbEntity
  8
0
370
     0
100
AcDbVertex
100
AcDb2dVertex
 10
283.308289
 20
504.792603
 30
0.0
  0
VERTEX
  5
120
330
109
100
AcDbEntity
  8
0
370
     0
100
AcDbVertex
100
AcDb2dVertex
 10
282.630859
 20
503.211945
 30
0.0
  0
SEQEND
  5
121
330
109
100
AcDbEntity
  8
0
 62
     7
370
    13
  0
POLYLINE
  5
122
330
1F
100
AcDbEntity
  8
0
 62
     7
370
    13
100
AcDb2dPolyline
 66
     1
 10
0.0
 20
0.0
 30
0.0
  0
VERTEX
  5
123
330
122
100
AcDbEntity
  8
0
370
     0
100
AcDbVertex
100
AcDb2dVertex
 10
303.721191
 20
498.244202
 30
0.0
  0
VERTEX
  5
124
330
122
100
AcDbEntity
  8
0
370
     0
100
AcDbVertex
100
AcDb2dVertex
 10
304.172791
 20
498.244202
 30
0.0
  0
SEQEND
  5
125
330
122
100
AcDbEntity
  8
0
 62
     7
370
    13
  0
POLYLINE
  5
126
330
1F
100
AcDbEntity
  8
0
 62
     7
370
    13
100
AcDb2dPolyline
 66
     1
 10
0.0
 20
0.0
 30
0.0
  0
VERTEX
  5
127
330
126
100
AcDbEntity
  8
0
370
     0
100
AcDbVertex
100
AcDb2dVertex
 10
304.85022
 20
499.37323
 30
0.0
  0
VERTEX
  5
128
330
126
100
AcDbEntity
  8
0
370
     0
100
AcDbVertex
100
AcDb2dVertex
 10
304.85022
 20
497.340973
 30
0.0
  0
SEQEND
  5
129
330
126
100
AcDbEntity
  8
0
 62
     7
370
    13
  0
POLYLINE
  5
12A
330
1F
100
AcDbEntity
  8
0
 62
     7
370
    13
100
AcDb2dPolyline
 66
     1
 10
0.0
 20
0.0
 30
0.0
  0
VERTEX
  5
12B
330
12A
100
AcDbEntity
  8
0
370
     0
100
AcDbVertex
100
AcDb2dVertex
 10
304.85022
 20
499.37323
 30
0.0
  0
VERTEX
  5
12C
330
12A
100
AcDbEntity
  8
0
370
     0
100
AcDbVertex
100
AcDb2dVertex
 10
304.172791
 20
500.050659
 30
0.0
  0
SEQEND
  5
12D
330
12A
100
AcDbEntity
  8
0
 62
     7
370
    13
  0
POLYLINE
  5
12E
330
1F
100
AcDbEntity
  8
0
 62
     7
370
    13
100
AcDb2dPolyline
 66
     1
 10
0.0
 20
0.0
 30
0.0
  0
VERTEX
  5
12F
330
12E
100
AcDbEntity
  8
0
370
     0
100
AcDbVertex
100
AcDb2dVertex
 10
303.721191
 20
500.050659
 30
0.0
  0
VERTEX
  5
130
330
12E
100
AcDbEntity
  8
0
370
     0
100
AcDbVertex
100
AcDb2dVertex
 10
303.043762
 20
499.37323
 30
0.0
  0
SEQEND
  5
131
330
12E
100
AcDbEntity
  8
0
 62
     7
370
    13
  0
POLYLINE
  5
132
330
1F
100
AcDbEntity
  8
0
 62
     7
370
    13
100
AcDb2dPolyline
 66
     1
 10
0.0
 20
0.0
 30
0.0
  0
VERTEX
  5
133
330
132
100
AcDbEntity
  8
0
370
     0
100
AcDbVertex
100
AcDb2dVertex
 10
303.043762
 20
498.921631
 30
0.0
  0
VERTEX
  5
134
330
132
100
AcDbEntity
  8
0
370
     0
100
AcDbVertex
100
AcDb2dVertex
 10
303.721191
 20
498.244202
 30
0.0
  0
SEQEND
  5
135
330
132
100
AcDbEntity
  8
0
 62
     7
370
    13
  0
POLYLINE
  5
136
330
1F
100
AcDbEntity
  8
0
 62
     7
370
    13
100
AcDb2dPolyline
 66
     1
 10
0.0
 20
0.0
 30
0.0
  0
VERTEX
  5
137
330
136
100
AcDbEntity
  8
0
370
     0
100
AcDbVertex
100
AcDb2dVertex
 10
304.172791
 20
498.244202
 30
0.0
  0
VERTEX
  5
138
330
136
100
AcDbEntity
  8
0
370
     0
100
AcDbVertex
100
AcDb2dVertex
 10
304.85022
 20
498.921631
 30
0.0
  0
SEQEND
  5
139
330
136
100
AcDbEntity
  8
0
 62
     7
370
    13
  0
POLYLINE
  5
13A
330
1F
100
AcDbEntity
  8
0
 62
     7
370
    13
100
AcDb2dPolyline
 66
     1
 10
0.0
 20
0.0
 30
0.0
  0
VERTEX
  5
13B
330
13A
100
AcDbEntity
  8
0
370
     0
100
AcDbVertex
100
AcDb2dVertex
 10
303.043762
 20
499.37323
 30
0.0
  0
VERTEX
  5
13C
330
13A
100
AcDbEntity
  8
0
370
     0
100
AcDbVertex
100
AcDb2dVertex
 10
303.043762
 20
498.921631
 30
0.0
  0
SEQEND
  5
13D
330
13A
100
AcDbEntity
  8
0
 62
     7
370
    13
  0
POLYLINE
  5
13E
330
1F
100
AcDbEntity
  8
0
 62
     7
370
    13
100
AcDb2dPolyline
 66
     1
 10
0.0
 20
0.0
 30
0.0
  0
VERTEX
  5
13F
330
13E
100
AcDbEntity
  8
0
370
     0
100
AcDbVertex
100
AcDb2dVertex
 10
303.721191
 20
500.050659
 30
0.0
  0
VERTEX
  5
140
330
13E
100
AcDbEntity
  8
0
370
     0
100
AcDbVertex
100
AcDb2dVertex
 10
304.172791
 20
500.050659
 30
0.0
  0
SEQEND
  5
141
330
13E
100
AcDbEntity
  8
0
 62
     7
370
    13
  0
POLYLINE
  5
142
330
1F
100
AcDbEntity
  8
0
 62
     7
370
    13
100
AcDb2dPolyline
 66
     1
 10
0.0
 20
0.0
 30
0.0
  0
VERTEX
  5
143
330
142
100
AcDbEntity
  8
0
370
     0
100
AcDbVertex
100
AcDb2dVertex
 10
304.85022
 20
497.340973
 30
0.0
  0
VERTEX
  5
144
330
142
100
AcDbEntity
  8
0
370
     0
100
AcDbVertex
100
AcDb2dVertex
 10
304.398621
 20
496.437744
 30
0.0
  0
VERTEX
  5
145
330
142
100
AcDbEntity
  8
0
370
     0
100
AcDbVertex
100
AcDb2dVertex
 10
303.495392
 20
495.760315
 30
0.0
  0
SEQEND
  5
146
330
142
100
AcDbEntity
  8
0
 62
     7
370
    13
  0
POLYLINE
  5
147
330
1F
100
AcDbEntity
  8
0
 62
     7
370
    13
100
AcDb2dPolyline
 66
     1
 10
0.0
 20
0.0
 30
0.0
  0
VERTEX
  5
148
330
147
100
AcDbEntity
  8
0
370
     0
100
AcDbVertex
100
AcDb2dVertex
 10
314.650208
 20
500.728088
 30
0.0
  0
VERTEX
  5
149
330
147
100
AcDbEntity
  8
0
370
     0
100
AcDbVertex
100
AcDb2dVertex
 10
315.327637
 20
499.59906
 30
0.0
  0
VERTEX
  5
14A
330
147
100
AcDbEntity
  8
0
370
     0
100
AcDbVertex
100
AcDb2dVertex
 10
316.005066
 20
498.921631
 30
0.0
  0
VERTEX
  5
14B
330
147
100
AcDbEntity
  8
0
370
     0
100
AcDbVertex
100
AcDb2dVertex
 10
318.488953
 20
498.244202
 30
0.0
  0
VERTEX
  5
14C
330
147
100
AcDbEntity
  8
0
370
     0
100
AcDbVertex
100
AcDb2dVertex
 10
320.972809
 20
498.244202
 30
0.0
  0
VERTEX
  5
14D
330
147
100
AcDbEntity
  8
0
370
     0
100
AcDbVertex
100
AcDb2dVertex
 10
323.682495
 20
498.921631
 30
0.0
  0
VERTEX
  5
14E
330
147
100
AcDbEntity
  8
0
370
     0
100
AcDbVertex
100
AcDb2dVertex
 10
325.037323
 20
500.276459
 30
0.0
  0
VERTEX
  5
14F
330
147
100
AcDbEntity
  8
0
370
     0
100
AcDbVertex
100
AcDb2dVertex
 10
325.714752
 20
502.308716
 30
0.0
  0
VERTEX
  5
150
330
147
100
AcDbEntity
  8
0
370
     0
100
AcDbVertex
100
AcDb2dVertex
 10
325.714752
 20
503.663574
 30
0.0
  0
VERTEX
  5
151
330
147
100
AcDbEntity
  8
0
370
     0
100
AcDbVertex
100
AcDb2dVertex
 10
325.037323
 20
505.695801
 30
0.0
  0
VERTEX
  5
152
330
147
100
AcDbEntity
  8
0
370
     0
100
AcDbVertex
100
AcDb2dVertex
 10
323.682495
 20
506.824829
 30
0.0
  0
VERTEX
  5
153
330
147
100
AcDbEntity
  8
0
370
     0
100
AcDbVertex
100
AcDb2dVertex
 10
320.972809
 20
507.502258
 30
0.0
  0
VERTEX
  5
154
330
147
100
AcDbEntity
  8
0
370
     0
100
AcDbVertex
100
AcDb2dVertex
 10
318.488953
 20
507.502258
 30
0.0
  0
VERTEX
  5
155
330
147
100
AcDbEntity
  8
0
370
     0
100
AcDbVertex
100
AcDb2dVertex
 10
316.456665
 20
506.824829
 30
0.0
  0
VERTEX
  5
156
330
147
100
AcDbEntity
  8
0
370
     0
100
AcDbVertex
100
AcDb2dVertex
 10
315.779266
 20
506.14743
 30
0.0
  0
VERTEX
  5
157
330
147
100
AcDbEntity
  8
0
370
     0
100
AcDbVertex
100
AcDb2dVertex
 10
316.456665
 20
512.244202
 30
0.0
  0
VERTEX
  5
158
330
147
100
AcDbEntity
  8
0
370
     0
100
AcDbVertex
100
AcDb2dVertex
 10
324.811523
 20
512.244202
 30
0.0
  0
SEQEND
  5
159
330
147
100
AcDbEntity
  8
0
 62
     7
370
    13
  0
POLYLINE
  5
15A
330
1F
100
AcDbEntity
  8
0
 62
     7
370
    13
100
AcDb2dPolyline
 66
     1
 10
0.0
 20
0.0
 30
0.0
  0
VERTEX
  5
15B
330
15A
100
AcDbEntity
  8
0
370
     0
100
AcDbVertex
100
AcDb2dVertex
 10
356.605072
 20
505.244202
 30
0.0
  0
VERTEX
  5
15C
330
15A
100
AcDbEntity
  8
0
370
     0
100
AcDbVertex
100
AcDb2dVertex
 10
354.798615
 20
506.824829
 30
0.0
  0
VERTEX
  5
15D
330
15A
100
AcDbEntity
  8
0
370
     0
100
AcDbVertex
100
AcDb2dVertex
 10
353.443787
 20
507.276459
 30
0.0
  0
VERTEX
  5
15E
330
15A
100
AcDbEntity
  8
0
370
     0
100
AcDbVertex
100
AcDb2dVertex
 10
350.9599
 20
507.276459
 30
0.0
  0
VERTEX
  5
15F
330
15A
100
AcDbEntity
  8
0
370
     0
100
AcDbVertex
100
AcDb2dVertex
 10
349.379272
 20
506.824829
 30
0.0
  0
VERTEX
  5
160
330
15A
100
AcDbEntity
  8
0
370
     0
100
AcDbVertex
100
AcDb2dVertex
 10
347.572815
 20
505.244202
 30
0.0
  0
VERTEX
  5
161
330
15A
100
AcDbEntity
  8
0
370
     0
100
AcDbVertex
100
AcDb2dVertex
 10
347.121185
 20
503.437744
 30
0.0
  0
SEQEND
  5
162
330
15A
100
AcDbEntity
  8
0
 62
     7
370
    13
  0
POLYLINE
  5
163
330
1F
100
AcDbEntity
  8
0
 62
     7
370
    13
100
AcDb2dPolyline
 66
     1
 10
0.0
 20
0.0
 30
0.0
  0
VERTEX
  5
164
330
163
100
AcDbEntity
  8
0
370
     0
100
AcDbVertex
100
AcDb2dVertex
 10
353.443787
 20
498.244202
 30
0.0
  0
VERTEX
  5
165
330
163
100
AcDbEntity
  8
0
370
     0
100
AcDbVertex
100
AcDb2dVertex
 10
354.798615
 20
498.695801
 30
0.0
  0
VERTEX
  5
166
330
163
100
AcDbEntity
  8
0
370
     0
100
AcDbVertex
100
AcDb2dVertex
 10
356.605072
 20
500.276459
 30
0.0
  0
SEQEND
  5
167
330
163
100
AcDbEntity
  8
0
 62
     7
370
    13
  0
POLYLINE
  5
168
330
1F
100
AcDbEntity
  8
0
 62
     7
370
    13
100
AcDb2dPolyline
 66
     1
 10
0.0
 20
0.0
 30
0.0
  0
VERTEX
  5
169
330
168
100
AcDbEntity
  8
0
370
     0
100
AcDbVertex
100
AcDb2dVertex
 10
350.9599
 20
498.244202
 30
0.0
  0
VERTEX
  5
16A
330
168
100
AcDbEntity
  8
0
370
     0
100
AcDbVertex
100
AcDb2dVertex
 10
353.443787
 20
498.244202
 30
0.0
  0
SEQEND
  5
16B
330
168
100
AcDbEntity
  8
0
 62
     7
370
    13
  0
POLYLINE
  5
16C
330
1F
100
AcDbEntity
  8
0
 62
     7
370
    13
100
AcDb2dPolyline
 66
     1
 10
0.0
 20
0.0
 30
0.0
  0
VERTEX
  5
16D
330
16C
100
AcDbEntity
  8
0
370
     0
100
AcDbVertex
100
AcDb2dVertex
 10
347.572815
 20
500.276459
 30
0.0
  0
VERTEX
  5
16E
330
16C
100
AcDbEntity
  8
0
370
     0
100
AcDbVertex
100
AcDb2dVertex
 10
347.121185
 20
502.082916
 30
0.0
  0
SEQEND
  5
16F
330
16C
100
AcDbEntity
  8
0
 62
     7
370
    13
  0
POLYLINE
  5
170
330
1F
100
AcDbEntity
  8
0
 62
     7
370
    13
100
AcDb2dPolyline
 66
     1
 10
0.0
 20
0.0
 30
0.0
  0
VERTEX
  5
171
330
170
100
AcDbEntity
  8
0
370
     0
100
AcDbVertex
100
AcDb2dVertex
 10
347.121185
 20
503.437744
 30
0.0
  0
VERTEX
  5
172
330
170
100
AcDbEntity
  8
0
370
     0
100
AcDbVertex
100
AcDb2dVertex
 10
347.121185
 20
502.082916
 30
0.0
  0
SEQEND
  5
173
330
170
100
AcDbEntity
  8
0
 62
     7
370
    13
  0
POLYLINE
  5
174
330
1F
100
AcDbEntity
  8
0
 62
     7
370
    13
100
AcDb2dPolyline
 66
     1
 10
0.0
 20
0.0
 30
0.0
  0
VERTEX
  5
175
330
174
100
AcDbEntity
  8
0
370
     0
100
AcDbVertex
100
AcDb2dVertex
 10
350.9599
 20
498.244202
 30
0.0
  0
VERTEX
  5
176
330
174
100
AcDbEntity
  8
0
370
     0
100
AcDbVertex
100
AcDb2dVertex
 10
349.379272
 20
498.695801
 30
0.0
  0
VERTEX
  5
177
330
174
100
AcDbEntity
  8
0
370
     0
100
AcDbVertex
100
AcDb2dVertex
 10
347.572815
 20
500.276459
 30
0.0
  0
SEQEND
  5
178
330
174
100
AcDbEntity
  8
0
 62
     7
370
    13
  0
POLYLINE
  5
179
330
1F
100
AcDbEntity
  8
0
 62
     7
370
    13
100
AcDb2dPolyline
 66
     1
 10
0.0
 20
0.0
 30
0.0
  0
VERTEX
  5
17A
330
179
100
AcDbEntity
  8
0
370
     0
100
AcDbVertex
100
AcDb2dVertex
 10
363.017975
 20
498.244202
 30
0.0
  0
VERTEX
  5
17B
330
179
100
AcDbEntity
  8
0
370
     0
100
AcDbVertex
100
AcDb2dVertex
 10
363.017975
 20
507.276459
 30
0.0
  0
SEQEND
  5
17C
330
179
100
AcDbEntity
  8
0
 62
     7
370
    13
  0
POLYLINE
  5
17D
330
1F
100
AcDbEntity
  8
0
 62
     7
370
    13
100
AcDb2dPolyline
 66
     1
 10
0.0
 20
0.0
 30
0.0
  0
VERTEX
  5
17E
330
17D
100
AcDbEntity
  8
0
370
     0
100
AcDbVertex
100
AcDb2dVertex
 10
369.114746
 20
504.792603
 30
0.0
  0
VERTEX
  5
17F
330
17D
100
AcDbEntity
  8
0
370
     0
100
AcDbVertex
100
AcDb2dVertex
 10
369.114746
 20
498.244202
 30
0.0
  0
SEQEND
  5
180
330
17D
100
AcDbEntity
  8
0
 62
     7
370
    13
  0
POLYLINE
  5
181
330
1F
100
AcDbEntity
  8
0
 62
     7
370
    13
100
AcDb2dPolyline
 66
     1
 10
0.0
 20
0.0
 30
0.0
  0
VERTEX
  5
182
330
181
100
AcDbEntity
  8
0
370
     0
100
AcDbVertex
100
AcDb2dVertex
 10
375.211517
 20
504.792603
 30
0.0
  0
VERTEX
  5
183
330
181
100
AcDbEntity
  8
0
370
     0
100
AcDbVertex
100
AcDb2dVertex
 10
375.211517
 20
498.244202
 30
0.0
  0
SEQEND
  5
184
330
181
100
AcDbEntity
  8
0
 62
     7
370
    13
  0
POLYLINE
  5
185
330
1F
100
AcDbEntity
  8
0
 62
     7
370
    13
100
AcDb2dPolyline
 66
     1
 10
0.0
 20
0.0
 30
0.0
  0
VERTEX
  5
186
330
185
100
AcDbEntity
  8
0
370
     0
100
AcDbVertex
100
AcDb2dVertex
 10
363.017975
 20
504.792603
 30
0.0
  0
VERTEX
  5
187
330
185
100
AcDbEntity
  8
0
370
     0
100
AcDbVertex
100
AcDb2dVertex
 10
364.598602
 20
506.59906
 30
0.0
  0
VERTEX
  5
188
330
185
100
AcDbEntity
  8
0
370
     0
100
AcDbVertex
100
AcDb2dVertex
 10
366.17926
 20
507.276459
 30
0.0
  0
VERTEX
  5
189
330
185
100
AcDbEntity
  8
0
370
     0
100
AcDbVertex
100
AcDb2dVertex
 10
367.534088
 20
507.276459
 30
0.0
  0
VERTEX
  5
18A
330
185
100
AcDbEntity
  8
0
370
     0
100
AcDbVertex
100
AcDb2dVertex
 10
368.437317
 20
506.59906
 30
0.0
  0
VERTEX
  5
18B
330
185
100
AcDbEntity
  8
0
370
     0
100
AcDbVertex
100
AcDb2dVertex
 10
369.114746
 20
504.792603
 30
0.0
  0
VERTEX
  5
18C
330
185
100
AcDbEntity
  8
0
370
     0
100
AcDbVertex
100
AcDb2dVertex
 10
370.695374
 20
506.59906
 30
0.0
  0
VERTEX
  5
18D
330
185
100
AcDbEntity
  8
0
370
     0
100
AcDbVertex
100
AcDb2dVertex
 10
372.276031
 20
507.276459
 30
0.0
  0
VERTEX
  5
18E
330
185
100
AcDbEntity
  8
0
370
     0
100
AcDbVertex
100
AcDb2dVertex
 10
373.630859
 20
507.276459
 30
0.0
  0
VERTEX
  5
18F
330
185
100
AcDbEntity
  8
0
370
     0
100
AcDbVertex
100
AcDb2dVertex
 10
374.534088
 20
506.59906
 30
0.0
  0
VERTEX
  5
190
330
185
100
AcDbEntity
  8
0
370
     0
100
AcDbVertex
100
AcDb2dVertex
 10
375.211517
 20
504.792603
 30
0.0
  0
SEQEND
  5
191
330
185
100
AcDbEntity
  8
0
 62
     7
370
    13
  0
POLYLINE
  5
192
330
1F
100
AcDbEntity
  8
0
 62
     7
370
    13
100
AcDb2dPolyline
 66
     1
 10
0.0
 20
0.0
 30
0.0
  0
VERTEX
  5
193
330
192
100
AcDbEntity
  8
0
370
     0
100
AcDbVertex
100
AcDb2dVertex
 10
396.392151
 20
500.728088
 30
0.0
  0
VERTEX
  5
194
330
192
100
AcDbEntity
  8
0
370
     0
100
AcDbVertex
100
AcDb2dVertex
 10
397.06958
 20
499.59906
 30
0.0
  0
VERTEX
  5
195
330
192
100
AcDbEntity
  8
0
370
     0
100
AcDbVertex
100
AcDb2dVertex
 10
397.747009
 20
498.921631
 30
0.0
  0
VERTEX
  5
196
330
192
100
AcDbEntity
  8
0
370
     0
100
AcDbVertex
100
AcDb2dVertex
 10
400.230865
 20
498.244202
 30
0.0
  0
VERTEX
  5
197
330
192
100
AcDbEntity
  8
0
370
     0
100
AcDbVertex
100
AcDb2dVertex
 10
402.714752
 20
498.244202
 30
0.0
  0
VERTEX
  5
198
330
192
100
AcDbEntity
  8
0
370
     0
100
AcDbVertex
100
AcDb2dVertex
 10
405.424408
 20
498.921631
 30
0.0
  0
VERTEX
  5
199
330
192
100
AcDbEntity
  8
0
370
     0
100
AcDbVertex
100
AcDb2dVertex
 10
406.779266
 20
500.276459
 30
0.0
  0
VERTEX
  5
19A
330
192
100
AcDbEntity
  8
0
370
     0
100
AcDbVertex
100
AcDb2dVertex
 10
407.456665
 20
502.308716
 30
0.0
  0
VERTEX
  5
19B
330
192
100
AcDbEntity
  8
0
370
     0
100
AcDbVertex
100
AcDb2dVertex
 10
407.456665
 20
503.663574
 30
0.0
  0
VERTEX
  5
19C
330
192
100
AcDbEntity
  8
0
370
     0
100
AcDbVertex
100
AcDb2dVertex
 10
406.779266
 20
505.695801
 30
0.0
  0
VERTEX
  5
19D
330
192
100
AcDbEntity
  8
0
370
     0
100
AcDbVertex
100
AcDb2dVertex
 10
406.101837
 20
506.37323
 30
0.0
  0
VERTEX
  5
19E
330
192
100
AcDbEntity
  8
0
370
     0
100
AcDbVertex
100
AcDb2dVertex
 10
404.747009
 20
507.050659
 30
0.0
  0
VERTEX
  5
19F
330
192
100
AcDbEntity
  8
0
370
     0
100
AcDbVertex
100
AcDb2dVertex
 10
401.585724
 20
507.050659
 30
0.0
  0
VERTEX
  5
1A0
330
192
100
AcDbEntity
  8
0
370
     0
100
AcDbVertex
100
AcDb2dVertex
 10
406.327637
 20
512.244202
 30
0.0
  0
VERTEX
  5
1A1
330
192
100
AcDbEntity
  8
0
370
     0
100
AcDbVertex
100
AcDb2dVertex
 10
397.972809
 20
512.244202
 30
0.0
  0
SEQEND
  5
1A2
330
192
100
AcDbEntity
  8
0
 62
     7
370
    13
  0
POLYLINE
  5
1A3
330
1F
100
AcDbEntity
  8
0
 62
     7
370
    13
100
AcDb2dPolyline
 66
     1
 10
0.0
 20
0.0
 30
0.0
 70
     1
  0
VERTEX
  5
1A4
330
1A3
100
AcDbEntity
  8
0
370
     0
100
AcDbVertex
100
AcDb2dVertex
 10
417.256683
 20
512.244202
 30
0.0
  0
VERTEX
  5
1A5
330
1A3
100
AcDbEntity
  8
0
370
     0
100
AcDbVertex
100
AcDb2dVertex
 10
414.772797
 20
511.566772
 30
0.0
  0
VERTEX
  5
1A6
330
1A3
100
AcDbEntity
  8
0
370
     0
100
AcDbVertex
100
AcDb2dVertex
 10
413.192169
 20
509.308716
 30
0.0
  0
VERTEX
  5
1A7
330
1A3
100
AcDbEntity
  8
0
370
     0
100
AcDbVertex
100
AcDb2dVertex
 10
412.51474
 20
507.050659
 30
0.0
  0
VERTEX
  5
1A8
330
1A3
100
AcDbEntity
  8
0
370
     0
100
AcDbVertex
100
AcDb2dVertex
 10
412.51474
 20
504.115173
 30
0.0
  0
VERTEX
  5
1A9
330
1A3
100
AcDbEntity
  8
0
370
     0
100
AcDbVertex
100
AcDb2dVertex
 10
413.192169
 20
501.179688
 30
0.0
  0
VERTEX
  5
1AA
330
1A3
100
AcDbEntity
  8
0
370
     0
100
AcDbVertex
100
AcDb2dVertex
 10
414.772797
 20
498.921631
 30
0.0
  0
VERTEX
  5
1AB
330
1A3
100
AcDbEntity
  8
0
370
     0
100
AcDbVertex
100
AcDb2dVertex
 10
417.256683
 20
498.244202
 30
0.0
  0
VERTEX
  5
1AC
330
1A3
100
AcDbEntity
  8
0
370
     0
100
AcDbVertex
100
AcDb2dVertex
 10
419.063141
 20
498.244202
 30
0.0
  0
VERTEX
  5
1AD
330
1A3
100
AcDbEntity
  8
0
370
     0
100
AcDbVertex
100
AcDb2dVertex
 10
421.546997
 20
498.921631
 30
0.0
  0
VERTEX
  5
1AE
330
1A3
100
AcDbEntity
  8
0
370
     0
100
AcDbVertex
100
AcDb2dVertex
 10
423.127655
 20
501.179688
 30
0.0
  0
VERTEX
  5
1AF
330
1A3
100
AcDbEntity
  8
0
370
     0
100
AcDbVertex
100
AcDb2dVertex
 10
423.805054
 20
503.889343
 30
0.0
  0
VERTEX
  5
1B0
330
1A3
100
AcDbEntity
  8
0
370
     0
100
AcDbVertex
100
AcDb2dVertex
 10
423.805054
 20
507.050659
 30
0.0
  0
VERTEX
  5
1B1
330
1A3
100
AcDbEntity
  8
0
370
     0
100
AcDbVertex
100
AcDb2dVertex
 10
423.127655
 20
509.308716
 30
0.0
  0
VERTEX
  5
1B2
330
1A3
100
AcDbEntity
  8
0
370
     0
100
AcDbVertex
100
AcDb2dVertex
 10
421.546997
 20
511.566772
 30
0.0
  0
VERTEX
  5
1B3
330
1A3
100
AcDbEntity
  8
0
370
     0
100
AcDbVertex
100
AcDb2dVertex
 10
419.063141
 20
512.244202
 30
0.0
  0
SEQEND
  5
1B4
330
1A3
100
AcDbEntity
  8
0
 62
     7
370
    13
  0
POLYLINE
  5
1B5
330
1F
100
AcDbEntity
  8
0
 62
     7
370
    13
100
AcDb2dPolyline
 66
     1
 10
0.0
 20
0.0
 30
0.0
  0
VERTEX
  5
1B6
330
1B5
100
AcDbEntity
  8
0
370
     0
100
AcDbVertex
100
AcDb2dVertex
 10
448.824432
 20
510.437744
 30
0.0
  0
VERTEX
  5
1B7
330
1B5
100
AcDbEntity
  8
0
370
     0
100
AcDbVertex
100
AcDb2dVertex
 10
451.308289
 20
512.244202
 30
0.0
  0
VERTEX
  5
1B8
330
1B5
100
AcDbEntity
  8
0
370
     0
100
AcDbVertex
100
AcDb2dVertex
 10
451.308289
 20
498.244202
 30
0.0
  0
SEQEND
  5
1B9
330
1B5
100
AcDbEntity
  8
0
 62
     7
370
    13
  0
POLYLINE
  5
1BA
330
1F
100
AcDbEntity
  8
0
 62
     7
370
    13
100
AcDb2dPolyline
 66
     1
 10
0.0
 20
0.0
 30
0.0
  0
VERTEX
  5
1BB
330
1BA
100
AcDbEntity
  8
0
370
     0
100
AcDbVertex
100
AcDb2dVertex
 10
447.469574
 20
509.760315
 30
0.0
  0
VERTEX
  5
1BC
330
1BA
100
AcDbEntity
  8
0
370
     0
100
AcDbVertex
100
AcDb2dVertex
 10
448.824432
 20
510.437744
 30
0.0
  0
SEQEND
  5
1BD
330
1BA
100
AcDbEntity
  8
0
 62
     7
370
    13
  0
POLYLINE
  5
1BE
330
1F
100
AcDbEntity
  8
0
 62
     7
370
    13
100
AcDb2dPolyline
 66
     1
 10
0.0
 20
0.0
 30
0.0
  0
VERTEX
  5
1BF
330
1BE
100
AcDbEntity
  8
0
370
     0
100
AcDbVertex
100
AcDb2dVertex
 10
461.108307
 20
493.728088
 30
0.0
  0
VERTEX
  5
1C0
330
1BE
100
AcDbEntity
  8
0
370
     0
100
AcDbVertex
100
AcDb2dVertex
 10
467.430878
 20
503.437744
 30
0.0
  0
VERTEX
  5
1C1
330
1BE
100
AcDbEntity
  8
0
370
     0
100
AcDbVertex
100
AcDb2dVertex
 10
473.753448
 20
513.37323
 30
0.0
  0
SEQEND
  5
1C2
330
1BE
100
AcDbEntity
  8
0
 62
     7
370
    13
  0
POLYLINE
  5
1C3
330
1F
100
AcDbEntity
  8
0
 62
     7
370
    13
100
AcDb2dPolyline
 66
     1
 10
0.0
 20
0.0
 30
0.0
  0
VERTEX
  5
1C4
330
1C3
100
AcDbEntity
  8
0
370
     0
100
AcDbVertex
100
AcDb2dVertex
 10
478.811523
 20
499.824829
 30
0.0
  0
VERTEX
  5
1C5
330
1C3
100
AcDbEntity
  8
0
370
     0
100
AcDbVertex
100
AcDb2dVertex
 10
480.166351
 20
498.921631
 30
0.0
  0
VERTEX
  5
1C6
330
1C3
100
AcDbEntity
  8
0
370
     0
100
AcDbVertex
100
AcDb2dVertex
 10
482.424438
 20
498.244202
 30
0.0
  0
VERTEX
  5
1C7
330
1C3
100
AcDbEntity
  8
0
370
     0
100
AcDbVertex
100
AcDb2dVertex
 10
484.230896
 20
498.244202
 30
0.0
  0
VERTEX
  5
1C8
330
1C3
100
AcDbEntity
  8
0
370
     0
100
AcDbVertex
100
AcDb2dVertex
 10
486.488953
 20
498.921631
 30
0.0
  0
SEQEND
  5
1C9
330
1C3
100
AcDbEntity
  8
0
 62
     7
370
    13
  0
POLYLINE
  5
1CA
330
1F
100
AcDbEntity
  8
0
 62
     7
370
    13
100
AcDb2dPolyline
 66
     1
 10
0.0
 20
0.0
 30
0.0
  0
VERTEX
  5
1CB
330
1CA
100
AcDbEntity
  8
0
370
     0
100
AcDbVertex
100
AcDb2dVertex
 10
486.488953
 20
511.566772
 30
0.0
  0
VERTEX
  5
1CC
330
1CA
100
AcDbEntity
  8
0
370
     0
100
AcDbVertex
100
AcDb2dVertex
 10
484.230896
 20
512.244202
 30
0.0
  0
VERTEX
  5
1CD
330
1CA
100
AcDbEntity
  8
0
370
     0
100
AcDbVertex
100
AcDb2dVertex
 10
482.424438
 20
512.244202
 30
0.0
  0
VERTEX
  5
1CE
330
1CA
100
AcDbEntity
  8
0
370
     0
100
AcDbVertex
100
AcDb2dVertex
 10
480.166351
 20
511.566772
 30
0.0
  0
SEQEND
  5
1CF
330
1CA
100
AcDbEntity
  8
0
 62
     7
370
    13
  0
POLYLINE
  5
1D0
330
1F
100
AcDbEntity
  8
0
 62
     7
370
    13
100
AcDb2dPolyline
 66
     1
 10
0.0
 20
0.0
 30
0.0
  0
VERTEX
  5
1D1
330
1D0
100
AcDbEntity
  8
0
370
     0
100
AcDbVertex
100
AcDb2dVertex
 10
478.811523
 20
499.824829
 30
0.0
  0
VERTEX
  5
1D2
330
1D0
100
AcDbEntity
  8
0
370
     0
100
AcDbVertex
100
AcDb2dVertex
 10
478.134094
 20
501.179688
 30
0.0
  0
VERTEX
  5
1D3
330
1D0
100
AcDbEntity
  8
0
370
     0
100
AcDbVertex
100
AcDb2dVertex
 10
478.134094
 20
502.534546
 30
0.0
  0
VERTEX
  5
1D4
330
1D0
100
AcDbEntity
  8
0
370
     0
100
AcDbVertex
100
AcDb2dVertex
 10
478.811523
 20
503.889343
 30
0.0
  0
VERTEX
  5
1D5
330
1D0
100
AcDbEntity
  8
0
370
     0
100
AcDbVertex
100
AcDb2dVertex
 10
480.392151
 20
505.244202
 30
0.0
  0
VERTEX
  5
1D6
330
1D0
100
AcDbEntity
  8
0
370
     0
100
AcDbVertex
100
AcDb2dVertex
 10
485.134094
 20
506.59906
 30
0.0
  0
VERTEX
  5
1D7
330
1D0
100
AcDbEntity
  8
0
370
     0
100
AcDbVertex
100
AcDb2dVertex
 10
486.263123
 20
507.050659
 30
0.0
  0
VERTEX
  5
1D8
330
1D0
100
AcDbEntity
  8
0
370
     0
100
AcDbVertex
100
AcDb2dVertex
 10
486.940552
 20
507.728088
 30
0.0
  0
VERTEX
  5
1D9
330
1D0
100
AcDbEntity
  8
0
370
     0
100
AcDbVertex
100
AcDb2dVertex
 10
487.392151
 20
508.857117
 30
0.0
  0
VERTEX
  5
1DA
330
1D0
100
AcDbEntity
  8
0
370
     0
100
AcDbVertex
100
AcDb2dVertex
 10
487.392151
 20
510.437744
 30
0.0
  0
VERTEX
  5
1DB
330
1D0
100
AcDbEntity
  8
0
370
     0
100
AcDbVertex
100
AcDb2dVertex
 10
486.488953
 20
511.566772
 30
0.0
  0
SEQEND
  5
1DC
330
1D0
100
AcDbEntity
  8
0
 62
     7
370
    13
  0
POLYLINE
  5
1DD
330
1F
100
AcDbEntity
  8
0
 62
     7
370
    13
100
AcDb2dPolyline
 66
     1
 10
0.0
 20
0.0
 30
0.0
  0
VERTEX
  5
1DE
330
1DD
100
AcDbEntity
  8
0
370
     0
100
AcDbVertex
100
AcDb2dVertex
 10
480.166351
 20
511.566772
 30
0.0
  0
VERTEX
  5
1DF
330
1DD
100
AcDbEntity
  8
0
370
     0
100
AcDbVertex
100
AcDb2dVertex
 10
479.263123
 20
510.437744
 30
0.0
  0
VERTEX
  5
1E0
330
1DD
100
AcDbEntity
  8
0
370
     0
100
AcDbVertex
100
AcDb2dVertex
 10
479.263123
 20
508.857117
 30
0.0
  0
VERTEX
  5
1E1
330
1DD
100
AcDbEntity
  8
0
370
     0
100
AcDbVertex
100
AcDb2dVertex
 10
479.714752
 20
507.728088
 30
0.0
  0
VERTEX
  5
1E2
330
1DD
100
AcDbEntity
  8
0
370
     0
100
AcDbVertex
100
AcDb2dVertex
 10
480.392151
 20
507.050659
 30
0.0
  0
VERTEX
  5
1E3
330
1DD
100
AcDbEntity
  8
0
370
     0
100
AcDbVertex
100
AcDb2dVertex
 10
481.52121
 20
506.59906
 30
0.0
  0
VERTEX
  5
1E4
330
1DD
100
AcDbEntity
  8
0
370
     0
100
AcDbVertex
100
AcDb2dVertex
 10
486.488953
 20
505.244202
 30
0.0
  0
SEQEND
  5
1E5
330
1DD
100
AcDbEntity
  8
0
 62
     7
370
    13
  0
POLYLINE
  5
1E6
330
1F
100
AcDbEntity
  8
0
 62
     7
370
    13
100
AcDb2dPolyline
 66
     1
 10
0.0
 20
0.0
 30
0.0
  0
VERTEX
  5
1E7
330
1E6
100
AcDbEntity
  8
0
370
     0
100
AcDbVertex
100
AcDb2dVertex
 10
488.06958
 20
503.889343
 30
0.0
  0
VERTEX
  5
1E8
330
1E6
100
AcDbEntity
  8
0
370
     0
100
AcDbVertex
100
AcDb2dVertex
 10
488.747009
 20
502.534546
 30
0.0
  0
VERTEX
  5
1E9
330
1E6
100
AcDbEntity
  8
0
370
     0
100
AcDbVertex
100
AcDb2dVertex
 10
488.747009
 20
501.179688
 30
0.0
  0
VERTEX
  5
1EA
330
1E6
100
AcDbEntity
  8
0
370
     0
100
AcDbVertex
100
AcDb2dVertex
 10
488.06958
 20
499.824829
 30
0.0
  0
VERTEX
  5
1EB
330
1E6
100
AcDbEntity
  8
0
370
     0
100
AcDbVertex
100
AcDb2dVertex
 10
486.488953
 20
498.921631
 30
0.0
  0
SEQEND
  5
1EC
330
1E6
100
AcDbEntity
  8
0
 62
     7
370
    13
  0
POLYLINE
  5
1ED
330
1F
100
AcDbEntity
  8
0
 62
     7
370
    13
100
AcDb2dPolyline
 66
     1
 10
0.0
 20
0.0
 30
0.0
  0
VERTEX
  5
1EE
330
1ED
100
AcDbEntity
  8
0
370
     0
100
AcDbVertex
100
AcDb2dVertex
 10
488.06958
 20
503.889343
 30
0.0
  0
VERTEX
  5
1EF
330
1ED
100
AcDbEntity
  8
0
370
     0
100
AcDbVertex
100
AcDb2dVertex
 10
486.488953
 20
505.244202
 30
0.0
  0
SEQEND
  5
1F0
330
1ED
100
AcDbEntity
  8
0
 62
     7
370
    13
  0
POLYLINE
  5
1F1
330
1F
100
AcDbEntity
  8
0
 62
     7
370
    13
100
AcDb2dPolyline
 66
     1
 10
0.0
 20
0.0
 30
0.0
  0
VERTEX
  5
1F2
330
1F1
100
AcDbEntity
  8
0
370
     0
100
AcDbVertex
100
AcDb2dVertex
 10
498.095398
 20
512.244202
 30
0.0
  0
VERTEX
  5
1F3
330
1F1
100
AcDbEntity
  8
0
370
     0
100
AcDbVertex
100
AcDb2dVertex
 10
498.095398
 20
507.953857
 30
0.0
  0
SEQEND
  5
1F4
330
1F1
100
AcDbEntity
  8
0
 62
     7
370
    13
  0
POLYLINE
  5
1F5
330
1F
100
AcDbEntity
  8
0
 62
     7
370
    13
100
AcDb2dPolyline
 66
     1
 10
0.0
 20
0.0
 30
0.0
  0
VERTEX
  5
1F6
330
1F5
100
AcDbEntity
  8
0
370
     0
100
AcDbVertex
100
AcDb2dVertex
 10
502.611511
 20
512.244202
 30
0.0
  0
VERTEX
  5
1F7
330
1F5
100
AcDbEntity
  8
0
370
     0
100
AcDbVertex
100
AcDb2dVertex
 10
502.611511
 20
507.953857
 30
0.0
  0
SEQEND
  5
1F8
330
1F5
100
AcDbEntity
  8
0
 62
     7
370
    13
  0
LINE
  5
1F9
330
1F
100
AcDbEntity
  8
0
 62
     7
370
    13
100
AcDbLine
 10
194.213135
 20
399.221191
 30
0.0
 11
194.213135
 21
498.244202
 31
0.0
  0
LINE
  5
1FA
330
1F
100
AcDbEntity
  8
0
 62
     7
370
    13
100
AcDbLine
 10
576.713135
 20
399.221191
 30
0.0
 11
576.713135
 21
498.244202
 31
0.0
  0
POLYLINE
  5
1FB
330
1F
100
AcDbEntity
  8
0
 62
     7
370
    13
100
AcDb2dPolyline
 66
     1
 10
0.0
 20
0.0
 30
0.0
  0
VERTEX
  5
1FC
330
1FB
100
AcDbEntity
  8
0
370
     0
100
AcDbVertex
100
AcDb2dVertex
 10
196.144989
 20
496.761841
 30
0.0
  0
VERTEX
  5
1FD
330
1FB
100
AcDbEntity
  8
0
370
     0
100
AcDbVertex
100
AcDb2dVertex
 10
194.213135
 20
496.244202
 30
0.0
  0
VERTEX
  5
1FE
330
1FB
100
AcDbEntity
  8
0
370
     0
100
AcDbVertex
100
AcDb2dVertex
 10
196.144989
 20
495.726562
 30
0.0
  0
SEQEND
  5
1FF
330
1FB
100
AcDbEntity
  8
0
 62
     7
370
    13
  0
POLYLINE
  5
200
330
1F
100
AcDbEntity
  8
0
 62
     7
370
    13
100
AcDb2dPolyline
 66
     1
 10
0.0
 20
0.0
 30
0.0
  0
VERTEX
  5
201
330
200
100
AcDbEntity
  8
0
370
     0
100
AcDbVertex
100
AcDb2dVertex
 10
574.78125
 20
495.726562
 30
0.0
  0
VERTEX
  5
202
330
200
100
AcDbEntity
  8
0
370
     0
100
AcDbVertex
100
AcDb2dVertex
 10
576.713135
 20
496.244202
 30
0.0
  0
VERTEX
  5
203
330
200
100
AcDbEntity
  8
0
370
     0
100
AcDbVertex
100
AcDb2dVertex
 10
574.78125
 20
496.761841
 30
0.0
  0
SEQEND
  5
204
330
200
100
AcDbEntity
  8
0
 62
     7
370
    13
  0
LINE
  5
205
330
1F
100
AcDbEntity
  8
0
 62
     7
370
    13
100
AcDbLine
 10
194.213135
 20
496.244202
 30
0.0
 11
576.713135
 21
496.244202
 31
0.0
  0
POLYLINE
  5
206
330
1F
100
AcDbEntity
  8
0
 62
     7
370
    13
100
AcDb2dPolyline
 66
     1
 10
0.0
 20
0.0
 30
0.0
  0
VERTEX
  5
207
330
206
100
AcDbEntity
  8
0
370
     0
100
AcDbVertex
100
AcDb2dVertex
 10
166.935913
 20
259.871185
 30
0.0
  0
VERTEX
  5
208
330
206
100
AcDbEntity
  8
0
370
     0
100
AcDbVertex
100
AcDb2dVertex
 10
166.935913
 20
249.484085
 30
0.0
  0
VERTEX
  5
209
330
206
100
AcDbEntity
  8
0
370
     0
100
AcDbVertex
100
AcDb2dVertex
 10
157.903656
 20
257.161499
 30
0.0
  0
VERTEX
  5
20A
330
206
100
AcDbEntity
  8
0
370
     0
100
AcDbVertex
100
AcDb2dVertex
 10
164.677856
 20
257.161499
 30
0.0
  0
VERTEX
  5
20B
330
206
100
AcDbEntity
  8
0
370
     0
100
AcDbVertex
100
AcDb2dVertex
 10
171.903656
 20
257.161499
 30
0.0
  0
SEQEND
  5
20C
330
206
100
AcDbEntity
  8
0
 62
     7
370
    13
  0
POLYLINE
  5
20D
330
1F
100
AcDbEntity
  8
0
 62
     7
370
    13
100
AcDb2dPolyline
 66
     1
 10
0.0
 20
0.0
 30
0.0
 70
     1
  0
VERTEX
  5
20E
330
20D
100
AcDbEntity
  8
0
370
     0
100
AcDbVertex
100
AcDb2dVertex
 10
157.903656
 20
270.348602
 30
0.0
  0
VERTEX
  5
20F
330
20D
100
AcDbEntity
  8
0
370
     0
100
AcDbVertex
100
AcDb2dVertex
 10
158.58107
 20
267.864746
 30
0.0
  0
VERTEX
  5
210
330
20D
100
AcDbEntity
  8
0
370
     0
100
AcDbVertex
100
AcDb2dVertex
 10
160.839142
 20
266.284088
 30
0.0
  0
VERTEX
  5
211
330
20D
100
AcDbEntity
  8
0
370
     0
100
AcDbVertex
100
AcDb2dVertex
 10
163.097198
 20
265.606659
 30
0.0
  0
VERTEX
  5
212
330
20D
100
AcDbEntity
  8
0
370
     0
100
AcDbVertex
100
AcDb2dVertex
 10
166.032684
 20
265.606659
 30
0.0
  0
VERTEX
  5
213
330
20D
100
AcDbEntity
  8
0
370
     0
100
AcDbVertex
100
AcDb2dVertex
 10
168.96817
 20
266.284088
 30
0.0
  0
VERTEX
  5
214
330
20D
100
AcDbEntity
  8
0
370
     0
100
AcDbVertex
100
AcDb2dVertex
 10
171.226242
 20
267.864746
 30
0.0
  0
VERTEX
  5
215
330
20D
100
AcDbEntity
  8
0
370
     0
100
AcDbVertex
100
AcDb2dVertex
 10
171.903656
 20
270.348602
 30
0.0
  0
VERTEX
  5
216
330
20D
100
AcDbEntity
  8
0
370
     0
100
AcDbVertex
100
AcDb2dVertex
 10
171.903656
 20
272.15506
 30
0.0
  0
VERTEX
  5
217
330
20D
100
AcDbEntity
  8
0
370
     0
100
AcDbVertex
100
AcDb2dVertex
 10
171.226242
 20
274.638916
 30
0.0
  0
VERTEX
  5
218
330
20D
100
AcDbEntity
  8
0
370
     0
100
AcDbVertex
100
AcDb2dVertex
 10
168.96817
 20
276.219574
 30
0.0
  0
VERTEX
  5
219
330
20D
100
AcDbEntity
  8
0
370
     0
100
AcDbVertex
100
AcDb2dVertex
 10
166.258499
 20
276.897003
 30
0.0
  0
VERTEX
  5
21A
330
20D
100
AcDbEntity
  8
0
370
     0
100
AcDbVertex
100
AcDb2dVertex
 10
163.097198
 20
276.897003
 30
0.0
  0
VERTEX
  5
21B
330
20D
100
AcDbEntity
  8
0
370
     0
100
AcDbVertex
100
AcDb2dVertex
 10
160.839142
 20
276.219574
 30
0.0
  0
VERTEX
  5
21C
330
20D
100
AcDbEntity
  8
0
370
     0
100
AcDbVertex
100
AcDb2dVertex
 10
158.58107
 20
274.638916
 30
0.0
  0
VERTEX
  5
21D
330
20D
100
AcDbEntity
  8
0
370
     0
100
AcDbVertex
100
AcDb2dVertex
 10
157.903656
 20
272.15506
 30
0.0
  0
SEQEND
  5
21E
330
20D
100
AcDbEntity
  8
0
 62
     7
370
    13
  0
POLYLINE
  5
21F
330
1F
100
AcDbEntity
  8
0
 62
     7
370
    13
100
AcDb2dPolyline
 66
     1
 10
0.0
 20
0.0
 30
0.0
  0
VERTEX
  5
220
330
21F
100
AcDbEntity
  8
0
370
     0
100
AcDbVertex
100
AcDb2dVertex
 10
171.903656
 20
287.60022
 30
0.0
  0
VERTEX
  5
221
330
21F
100
AcDbEntity
  8
0
370
     0
100
AcDbVertex
100
AcDb2dVertex
 10
171.903656
 20
288.051819
 30
0.0
  0
SEQEND
  5
222
330
21F
100
AcDbEntity
  8
0
 62
     7
370
    13
  0
POLYLINE
  5
223
330
1F
100
AcDbEntity
  8
0
 62
     7
370
    13
100
AcDb2dPolyline
 66
     1
 10
0.0
 20
0.0
 30
0.0
  0
VERTEX
  5
224
330
223
100
AcDbEntity
  8
0
370
     0
100
AcDbVertex
100
AcDb2dVertex
 10
170.774628
 20
288.729248
 30
0.0
  0
VERTEX
  5
225
330
223
100
AcDbEntity
  8
0
370
     0
100
AcDbVertex
100
AcDb2dVertex
 10
170.097198
 20
288.051819
 30
0.0
  0
SEQEND
  5
226
330
223
100
AcDbEntity
  8
0
 62
     7
370
    13
  0
POLYLINE
  5
227
330
1F
100
AcDbEntity
  8
0
 62
     7
370
    13
100
AcDb2dPolyline
 66
     1
 10
0.0
 20
0.0
 30
0.0
  0
VERTEX
  5
228
330
227
100
AcDbEntity
  8
0
370
     0
100
AcDbVertex
100
AcDb2dVertex
 10
170.097198
 20
287.60022
 30
0.0
  0
VERTEX
  5
229
330
227
100
AcDbEntity
  8
0
370
     0
100
AcDbVertex
100
AcDb2dVertex
 10
170.774628
 20
286.922791
 30
0.0
  0
SEQEND
  5
22A
330
227
100
AcDbEntity
  8
0
 62
     7
370
    13
  0
POLYLINE
  5
22B
330
1F
100
AcDbEntity
  8
0
 62
     7
370
    13
100
AcDb2dPolyline
 66
     1
 10
0.0
 20
0.0
 30
0.0
  0
VERTEX
  5
22C
330
22B
100
AcDbEntity
  8
0
370
     0
100
AcDbVertex
100
AcDb2dVertex
 10
171.226242
 20
286.922791
 30
0.0
  0
VERTEX
  5
22D
330
22B
100
AcDbEntity
  8
0
370
     0
100
AcDbVertex
100
AcDb2dVertex
 10
171.903656
 20
287.60022
 30
0.0
  0
SEQEND
  5
22E
330
22B
100
AcDbEntity
  8
0
 62
     7
370
    13
  0
POLYLINE
  5
22F
330
1F
100
AcDbEntity
  8
0
 62
     7
370
    13
100
AcDb2dPolyline
 66
     1
 10
0.0
 20
0.0
 30
0.0
  0
VERTEX
  5
230
330
22F
100
AcDbEntity
  8
0
370
     0
100
AcDbVertex
100
AcDb2dVertex
 10
171.903656
 20
288.051819
 30
0.0
  0
VERTEX
  5
231
330
22F
100
AcDbEntity
  8
0
370
     0
100
AcDbVertex
100
AcDb2dVertex
 10
171.226242
 20
288.729248
 30
0.0
  0
SEQEND
  5
232
330
22F
100
AcDbEntity
  8
0
 62
     7
370
    13
  0
POLYLINE
  5
233
330
1F
100
AcDbEntity
  8
0
 62
     7
370
    13
100
AcDb2dPolyline
 66
     1
 10
0.0
 20
0.0
 30
0.0
  0
VERTEX
  5
234
330
233
100
AcDbEntity
  8
0
370
     0
100
AcDbVertex
100
AcDb2dVertex
 10
170.774628
 20
286.922791
 30
0.0
  0
VERTEX
  5
235
330
233
100
AcDbEntity
  8
0
370
     0
100
AcDbVertex
100
AcDb2dVertex
 10
171.226242
 20
286.922791
 30
0.0
  0
SEQEND
  5
236
330
233
100
AcDbEntity
  8
0
 62
     7
370
    13
  0
POLYLINE
  5
237
330
1F
100
AcDbEntity
  8
0
 62
     7
370
    13
100
AcDb2dPolyline
 66
     1
 10
0.0
 20
0.0
 30
0.0
  0
VERTEX
  5
238
330
237
100
AcDbEntity
  8
0
370
     0
100
AcDbVertex
100
AcDb2dVertex
 10
170.097198
 20
287.60022
 30
0.0
  0
VERTEX
  5
239
330
237
100
AcDbEntity
  8
0
370
     0
100
AcDbVertex
100
AcDb2dVertex
 10
170.097198
 20
288.051819
 30
0.0
  0
SEQEND
  5
23A
330
237
100
AcDbEntity
  8
0
 62
     7
370
    13
  0
POLYLINE
  5
23B
330
1F
100
AcDbEntity
  8
0
 62
     7
370
    13
100
AcDb2dPolyline
 66
     1
 10
0.0
 20
0.0
 30
0.0
  0
VERTEX
  5
23C
330
23B
100
AcDbEntity
  8
0
370
     0
100
AcDbVertex
100
AcDb2dVertex
 10
170.774628
 20
288.729248
 30
0.0
  0
VERTEX
  5
23D
330
23B
100
AcDbEntity
  8
0
370
     0
100
AcDbVertex
100
AcDb2dVertex
 10
171.226242
 20
288.729248
 30
0.0
  0
SEQEND
  5
23E
330
23B
100
AcDbEntity
  8
0
 62
     7
370
    13
  0
POLYLINE
  5
23F
330
1F
100
AcDbEntity
  8
0
 62
     7
370
    13
100
AcDb2dPolyline
 66
     1
 10
0.0
 20
0.0
 30
0.0
  0
VERTEX
  5
240
330
23F
100
AcDbEntity
  8
0
370
     0
100
AcDbVertex
100
AcDb2dVertex
 10
169.419785
 20
298.529236
 30
0.0
  0
VERTEX
  5
241
330
23F
100
AcDbEntity
  8
0
370
     0
100
AcDbVertex
100
AcDb2dVertex
 10
170.548813
 20
299.206665
 30
0.0
  0
VERTEX
  5
242
330
23F
100
AcDbEntity
  8
0
370
     0
100
AcDbVertex
100
AcDb2dVertex
 10
171.226242
 20
299.884094
 30
0.0
  0
VERTEX
  5
243
330
23F
100
AcDbEntity
  8
0
370
     0
100
AcDbVertex
100
AcDb2dVertex
 10
171.903656
 20
302.36795
 30
0.0
  0
VERTEX
  5
244
330
23F
100
AcDbEntity
  8
0
370
     0
100
AcDbVertex
100
AcDb2dVertex
 10
171.903656
 20
304.851837
 30
0.0
  0
VERTEX
  5
245
330
23F
100
AcDbEntity
  8
0
370
     0
100
AcDbVertex
100
AcDb2dVertex
 10
171.226242
 20
307.561523
 30
0.0
  0
VERTEX
  5
246
330
23F
100
AcDbEntity
  8
0
370
     0
100
AcDbVertex
100
AcDb2dVertex
 10
169.871399
 20
308.916351
 30
0.0
  0
VERTEX
  5
247
330
23F
100
AcDbEntity
  8
0
370
     0
100
AcDbVertex
100
AcDb2dVertex
 10
167.839142
 20
309.593781
 30
0.0
  0
VERTEX
  5
248
330
23F
100
AcDbEntity
  8
0
370
     0
100
AcDbVertex
100
AcDb2dVertex
 10
166.484299
 20
309.593781
 30
0.0
  0
VERTEX
  5
249
330
23F
100
AcDbEntity
  8
0
370
     0
100
AcDbVertex
100
AcDb2dVertex
 10
164.452042
 20
308.916351
 30
0.0
  0
VERTEX
  5
24A
330
23F
100
AcDbEntity
  8
0
370
     0
100
AcDbVertex
100
AcDb2dVertex
 10
163.323013
 20
307.561523
 30
0.0
  0
VERTEX
  5
24B
330
23F
100
AcDbEntity
  8
0
370
     0
100
AcDbVertex
100
AcDb2dVertex
 10
162.645599
 20
304.851837
 30
0.0
  0
VERTEX
  5
24C
330
23F
100
AcDbEntity
  8
0
370
     0
100
AcDbVertex
100
AcDb2dVertex
 10
162.645599
 20
302.36795
 30
0.0
  0
VERTEX
  5
24D
330
23F
100
AcDbEntity
  8
0
370
     0
100
AcDbVertex
100
AcDb2dVertex
 10
163.323013
 20
300.335693
 30
0.0
  0
VERTEX
  5
24E
330
23F
100
AcDbEntity
  8
0
370
     0
100
AcDbVertex
100
AcDb2dVertex
 10
164.000427
 20
299.658295
 30
0.0
  0
VERTEX
  5
24F
330
23F
100
AcDbEntity
  8
0
370
     0
100
AcDbVertex
100
AcDb2dVertex
 10
157.903656
 20
300.335693
 30
0.0
  0
VERTEX
  5
250
330
23F
100
AcDbEntity
  8
0
370
     0
100
AcDbVertex
100
AcDb2dVertex
 10
157.903656
 20
308.690552
 30
0.0
  0
SEQEND
  5
251
330
23F
100
AcDbEntity
  8
0
 62
     7
370
    13
  0
POLYLINE
  5
252
330
1F
100
AcDbEntity
  8
0
 62
     7
370
    13
100
AcDb2dPolyline
 66
     1
 10
0.0
 20
0.0
 30
0.0
  0
VERTEX
  5
253
330
252
100
AcDbEntity
  8
0
370
     0
100
AcDbVertex
100
AcDb2dVertex
 10
164.903656
 20
324.135712
 30
0.0
  0
VERTEX
  5
254
330
252
100
AcDbEntity
  8
0
370
     0
100
AcDbVertex
100
AcDb2dVertex
 10
163.323013
 20
322.329254
 30
0.0
  0
VERTEX
  5
255
330
252
100
AcDbEntity
  8
0
370
     0
100
AcDbVertex
100
AcDb2dVertex
 10
162.871399
 20
320.974426
 30
0.0
  0
VERTEX
  5
256
330
252
100
AcDbEntity
  8
0
370
     0
100
AcDbVertex
100
AcDb2dVertex
 10
162.871399
 20
318.49054
 30
0.0
  0
VERTEX
  5
257
330
252
100
AcDbEntity
  8
0
370
     0
100
AcDbVertex
100
AcDb2dVertex
 10
163.323013
 20
316.909912
 30
0.0
  0
VERTEX
  5
258
330
252
100
AcDbEntity
  8
0
370
     0
100
AcDbVertex
100
AcDb2dVertex
 10
164.903656
 20
315.103455
 30
0.0
  0
VERTEX
  5
259
330
252
100
AcDbEntity
  8
0
370
     0
100
AcDbVertex
100
AcDb2dVertex
 10
166.710114
 20
314.651825
 30
0.0
  0
SEQEND
  5
25A
330
252
100
AcDbEntity
  8
0
 62
     7
370
    13
  0
POLYLINE
  5
25B
330
1F
100
AcDbEntity
  8
0
 62
     7
370
    13
100
AcDb2dPolyline
 66
     1
 10
0.0
 20
0.0
 30
0.0
  0
VERTEX
  5
25C
330
25B
100
AcDbEntity
  8
0
370
     0
100
AcDbVertex
100
AcDb2dVertex
 10
171.903656
 20
320.974426
 30
0.0
  0
VERTEX
  5
25D
330
25B
100
AcDbEntity
  8
0
370
     0
100
AcDbVertex
100
AcDb2dVertex
 10
171.452042
 20
322.329254
 30
0.0
  0
VERTEX
  5
25E
330
25B
100
AcDbEntity
  8
0
370
     0
100
AcDbVertex
100
AcDb2dVertex
 10
169.871399
 20
324.135712
 30
0.0
  0
SEQEND
  5
25F
330
25B
100
AcDbEntity
  8
0
 62
     7
370
    13
  0
POLYLINE
  5
260
330
1F
100
AcDbEntity
  8
0
 62
     7
370
    13
100
AcDb2dPolyline
 66
     1
 10
0.0
 20
0.0
 30
0.0
  0
VERTEX
  5
261
330
260
100
AcDbEntity
  8
0
370
     0
100
AcDbVertex
100
AcDb2dVertex
 10
171.903656
 20
318.49054
 30
0.0
  0
VERTEX
  5
262
330
260
100
AcDbEntity
  8
0
370
     0
100
AcDbVertex
100
AcDb2dVertex
 10
171.903656
 20
320.974426
 30
0.0
  0
SEQEND
  5
263
330
260
100
AcDbEntity
  8
0
 62
     7
370
    13
  0
POLYLINE
  5
264
330
1F
100
AcDbEntity
  8
0
 62
     7
370
    13
100
AcDb2dPolyline
 66
     1
 10
0.0
 20
0.0
 30
0.0
  0
VERTEX
  5
265
330
264
100
AcDbEntity
  8
0
370
     0
100
AcDbVertex
100
AcDb2dVertex
 10
169.871399
 20
315.103455
 30
0.0
  0
VERTEX
  5
266
330
264
100
AcDbEntity
  8
0
370
     0
100
AcDbVertex
100
AcDb2dVertex
 10
168.064941
 20
314.651825
 30
0.0
  0
SEQEND
  5
267
330
264
100
AcDbEntity
  8
0
 62
     7
370
    13
  0
POLYLINE
  5
268
330
1F
100
AcDbEntity
  8
0
 62
     7
370
    13
100
AcDb2dPolyline
 66
     1
 10
0.0
 20
0.0
 30
0.0
  0
VERTEX
  5
269
330
268
100
AcDbEntity
  8
0
370
     0
100
AcDbVertex
100
AcDb2dVertex
 10
166.710114
 20
314.651825
 30
0.0
  0
VERTEX
  5
26A
330
268
100
AcDbEntity
  8
0
370
     0
100
AcDbVertex
100
AcDb2dVertex
 10
168.064941
 20
314.651825
 30
0.0
  0
SEQEND
  5
26B
330
268
100
AcDbEntity
  8
0
 62
     7
370
    13
  0
POLYLINE
  5
26C
330
1F
100
AcDbEntity
  8
0
 62
     7
370
    13
100
AcDb2dPolyline
 66
     1
 10
0.0
 20
0.0
 30
0.0
  0
VERTEX
  5
26D
330
26C
100
AcDbEntity
  8
0
370
     0
100
AcDbVertex
100
AcDb2dVertex
 10
171.903656
 20
318.49054
 30
0.0
  0
VERTEX
  5
26E
330
26C
100
AcDbEntity
  8
0
370
     0
100
AcDbVertex
100
AcDb2dVertex
 10
171.452042
 20
316.909912
 30
0.0
  0
VERTEX
  5
26F
330
26C
100
AcDbEntity
  8
0
370
     0
100
AcDbVertex
100
AcDb2dVertex
 10
169.871399
 20
315.103455
 30
0.0
  0
SEQEND
  5
270
330
26C
100
AcDbEntity
  8
0
 62
     7
370
    13
  0
POLYLINE
  5
271
330
1F
100
AcDbEntity
  8
0
 62
     7
370
    13
100
AcDb2dPolyline
 66
     1
 10
0.0
 20
0.0
 30
0.0
  0
VERTEX
  5
272
330
271
100
AcDbEntity
  8
0
370
     0
100
AcDbVertex
100
AcDb2dVertex
 10
171.903656
 20
330.548615
 30
0.0
  0
VERTEX
  5
273
330
271
100
AcDbEntity
  8
0
370
     0
100
AcDbVertex
100
AcDb2dVertex
 10
162.871399
 20
330.548615
 30
0.0
  0
SEQEND
  5
274
330
271
100
AcDbEntity
  8
0
 62
     7
370
    13
  0
POLYLINE
  5
275
330
1F
100
AcDbEntity
  8
0
 62
     7
370
    13
100
AcDb2dPolyline
 66
     1
 10
0.0
 20
0.0
 30
0.0
  0
VERTEX
  5
276
330
275
100
AcDbEntity
  8
0
370
     0
100
AcDbVertex
100
AcDb2dVertex
 10
165.35527
 20
336.645386
 30
0.0
  0
VERTEX
  5
277
330
275
100
AcDbEntity
  8
0
370
     0
100
AcDbVertex
100
AcDb2dVertex
 10
171.903656
 20
336.645386
 30
0.0
  0
SEQEND
  5
278
330
275
100
AcDbEntity
  8
0
 62
     7
370
    13
  0
POLYLINE
  5
279
330
1F
100
AcDbEntity
  8
0
 62
     7
370
    13
100
AcDb2dPolyline
 66
     1
 10
0.0
 20
0.0
 30
0.0
  0
VERTEX
  5
27A
330
279
100
AcDbEntity
  8
0
370
     0
100
AcDbVertex
100
AcDb2dVertex
 10
165.35527
 20
342.742157
 30
0.0
  0
VERTEX
  5
27B
330
279
100
AcDbEntity
  8
0
370
     0
100
AcDbVertex
100
AcDb2dVertex
 10
171.903656
 20
342.742157
 30
0.0
  0
SEQEND
  5
27C
330
279
100
AcDbEntity
  8
0
 62
     7
370
    13
  0
POLYLINE
  5
27D
330
1F
100
AcDbEntity
  8
0
 62
     7
370
    13
100
AcDb2dPolyline
 66
     1
 10
0.0
 20
0.0
 30
0.0
  0
VERTEX
  5
27E
330
27D
100
AcDbEntity
  8
0
370
     0
100
AcDbVertex
100
AcDb2dVertex
 10
165.35527
 20
330.548615
 30
0.0
  0
VERTEX
  5
27F
330
27D
100
AcDbEntity
  8
0
370
     0
100
AcDbVertex
100
AcDb2dVertex
 10
163.548813
 20
332.129242
 30
0.0
  0
VERTEX
  5
280
330
27D
100
AcDbEntity
  8
0
370
     0
100
AcDbVertex
100
AcDb2dVertex
 10
162.871399
 20
333.7099
 30
0.0
  0
VERTEX
  5
281
330
27D
100
AcDbEntity
  8
0
370
     0
100
AcDbVertex
100
AcDb2dVertex
 10
162.871399
 20
335.064728
 30
0.0
  0
VERTEX
  5
282
330
27D
100
AcDbEntity
  8
0
370
     0
100
AcDbVertex
100
AcDb2dVertex
 10
163.548813
 20
335.967957
 30
0.0
  0
VERTEX
  5
283
330
27D
100
AcDbEntity
  8
0
370
     0
100
AcDbVertex
100
AcDb2dVertex
 10
165.35527
 20
336.645386
 30
0.0
  0
VERTEX
  5
284
330
27D
100
AcDbEntity
  8
0
370
     0
100
AcDbVertex
100
AcDb2dVertex
 10
163.548813
 20
338.226013
 30
0.0
  0
VERTEX
  5
285
330
27D
100
AcDbEntity
  8
0
370
     0
100
AcDbVertex
100
AcDb2dVertex
 10
162.871399
 20
339.806671
 30
0.0
  0
VERTEX
  5
286
330
27D
100
AcDbEntity
  8
0
370
     0
100
AcDbVertex
100
AcDb2dVertex
 10
162.871399
 20
341.161499
 30
0.0
  0
VERTEX
  5
287
330
27D
100
AcDbEntity
  8
0
370
     0
100
AcDbVertex
100
AcDb2dVertex
 10
163.548813
 20
342.064728
 30
0.0
  0
VERTEX
  5
288
330
27D
100
AcDbEntity
  8
0
370
     0
100
AcDbVertex
100
AcDb2dVertex
 10
165.35527
 20
342.742157
 30
0.0
  0
SEQEND
  5
289
330
27D
100
AcDbEntity
  8
0
 62
     7
370
    13
  0
POLYLINE
  5
28A
330
1F
100
AcDbEntity
  8
0
 62
     7
370
    13
100
AcDb2dPolyline
 66
     1
 10
0.0
 20
0.0
 30
0.0
  0
VERTEX
  5
28B
330
28A
100
AcDbEntity
  8
0
370
     0
100
AcDbVertex
100
AcDb2dVertex
 10
159.710114
 20
367.309906
 30
0.0
  0
VERTEX
  5
28C
330
28A
100
AcDbEntity
  8
0
370
     0
100
AcDbVertex
100
AcDb2dVertex
 10
157.903656
 20
369.793762
 30
0.0
  0
VERTEX
  5
28D
330
28A
100
AcDbEntity
  8
0
370
     0
100
AcDbVertex
100
AcDb2dVertex
 10
171.903656
 20
369.793762
 30
0.0
  0
SEQEND
  5
28E
330
28A
100
AcDbEntity
  8
0
 62
     7
370
    13
  0
POLYLINE
  5
28F
330
1F
100
AcDbEntity
  8
0
 62
     7
370
    13
100
AcDb2dPolyline
 66
     1
 10
0.0
 20
0.0
 30
0.0
  0
VERTEX
  5
290
330
28F
100
AcDbEntity
  8
0
370
     0
100
AcDbVertex
100
AcDb2dVertex
 10
160.387527
 20
365.955048
 30
0.0
  0
VERTEX
  5
291
330
28F
100
AcDbEntity
  8
0
370
     0
100
AcDbVertex
100
AcDb2dVertex
 10
159.710114
 20
367.309906
 30
0.0
  0
SEQEND
  5
292
330
28F
100
AcDbEntity
  8
0
 62
     7
370
    13
  0
POLYLINE
  5
293
330
1F
100
AcDbEntity
  8
0
 62
     7
370
    13
100
AcDb2dPolyline
 66
     1
 10
0.0
 20
0.0
 30
0.0
  0
VERTEX
  5
294
330
293
100
AcDbEntity
  8
0
370
     0
100
AcDbVertex
100
AcDb2dVertex
 10
159.710114
 20
390.206665
 30
0.0
  0
VERTEX
  5
295
330
293
100
AcDbEntity
  8
0
370
     0
100
AcDbVertex
100
AcDb2dVertex
 10
158.58107
 20
389.529266
 30
0.0
  0
VERTEX
  5
296
330
293
100
AcDbEntity
  8
0
370
     0
100
AcDbVertex
100
AcDb2dVertex
 10
157.903656
 20
387.04538
 30
0.0
  0
VERTEX
  5
297
330
293
100
AcDbEntity
  8
0
370
     0
100
AcDbVertex
100
AcDb2dVertex
 10
157.903656
 20
385.690552
 30
0.0
  0
VERTEX
  5
298
330
293
100
AcDbEntity
  8
0
370
     0
100
AcDbVertex
100
AcDb2dVertex
 10
158.58107
 20
383.206665
 30
0.0
  0
VERTEX
  5
299
330
293
100
AcDbEntity
  8
0
370
     0
100
AcDbVertex
100
AcDb2dVertex
 10
160.387527
 20
381.626038
 30
0.0
  0
VERTEX
  5
29A
330
293
100
AcDbEntity
  8
0
370
     0
100
AcDbVertex
100
AcDb2dVertex
 10
163.548813
 20
380.948608
 30
0.0
  0
VERTEX
  5
29B
330
293
100
AcDbEntity
  8
0
370
     0
100
AcDbVertex
100
AcDb2dVertex
 10
166.710114
 20
380.948608
 30
0.0
  0
VERTEX
  5
29C
330
293
100
AcDbEntity
  8
0
370
     0
100
AcDbVertex
100
AcDb2dVertex
 10
169.193985
 20
381.626038
 30
0.0
  0
VERTEX
  5
29D
330
293
100
AcDbEntity
  8
0
370
     0
100
AcDbVertex
100
AcDb2dVertex
 10
170.774628
 20
382.980865
 30
0.0
  0
VERTEX
  5
29E
330
293
100
AcDbEntity
  8
0
370
     0
100
AcDbVertex
100
AcDb2dVertex
 10
171.903656
 20
385.464722
 30
0.0
  0
VERTEX
  5
29F
330
293
100
AcDbEntity
  8
0
370
     0
100
AcDbVertex
100
AcDb2dVertex
 10
171.903656
 20
386.36795
 30
0.0
  0
VERTEX
  5
2A0
330
293
100
AcDbEntity
  8
0
370
     0
100
AcDbVertex
100
AcDb2dVertex
 10
171.226242
 20
388.851837
 30
0.0
  0
VERTEX
  5
2A1
330
293
100
AcDbEntity
  8
0
370
     0
100
AcDbVertex
100
AcDb2dVertex
 10
169.871399
 20
390.206665
 30
0.0
  0
VERTEX
  5
2A2
330
293
100
AcDbEntity
  8
0
370
     0
100
AcDbVertex
100
AcDb2dVertex
 10
168.064941
 20
390.884094
 30
0.0
  0
VERTEX
  5
2A3
330
293
100
AcDbEntity
  8
0
370
     0
100
AcDbVertex
100
AcDb2dVertex
 10
167.387527
 20
390.884094
 30
0.0
  0
VERTEX
  5
2A4
330
293
100
AcDbEntity
  8
0
370
     0
100
AcDbVertex
100
AcDb2dVertex
 10
165.58107
 20
390.206665
 30
0.0
  0
VERTEX
  5
2A5
330
293
100
AcDbEntity
  8
0
370
     0
100
AcDbVertex
100
AcDb2dVertex
 10
164.226242
 20
388.851837
 30
0.0
  0
VERTEX
  5
2A6
330
293
100
AcDbEntity
  8
0
370
     0
100
AcDbVertex
100
AcDb2dVertex
 10
163.548813
 20
386.36795
 30
0.0
  0
VERTEX
  5
2A7
330
293
100
AcDbEntity
  8
0
370
     0
100
AcDbVertex
100
AcDb2dVertex
 10
163.548813
 20
385.464722
 30
0.0
  0
VERTEX
  5
2A8
330
293
100
AcDbEntity
  8
0
370
     0
100
AcDbVertex
100
AcDb2dVertex
 10
164.226242
 20
382.980865
 30
0.0
  0
VERTEX
  5
2A9
330
293
100
AcDbEntity
  8
0
370
     0
100
AcDbVertex
100
AcDb2dVertex
 10
165.35527
 20
381.626038
 30
0.0
  0
VERTEX
  5
2AA
330
293
100
AcDbEntity
  8
0
370
     0
100
AcDbVertex
100
AcDb2dVertex
 10
166.935913
 20
380.948608
 30
0.0
  0
SEQEND
  5
2AB
330
293
100
AcDbEntity
  8
0
 62
     7
370
    13
  0
POLYLINE
  5
2AC
330
1F
100
AcDbEntity
  8
0
 62
     7
370
    13
100
AcDb2dPolyline
 66
     1
 10
0.0
 20
0.0
 30
0.0
  0
VERTEX
  5
2AD
330
2AC
100
AcDbEntity
  8
0
370
     0
100
AcDbVertex
100
AcDb2dVertex
 10
157.903656
 20
400.232483
 30
0.0
  0
VERTEX
  5
2AE
330
2AC
100
AcDbEntity
  8
0
370
     0
100
AcDbVertex
100
AcDb2dVertex
 10
162.193985
 20
400.232483
 30
0.0
  0
SEQEND
  5
2AF
330
2AC
100
AcDbEntity
  8
0
 62
     7
370
    13
  0
POLYLINE
  5
2B0
330
1F
100
AcDbEntity
  8
0
 62
     7
370
    13
100
AcDb2dPolyline
 66
     1
 10
0.0
 20
0.0
 30
0.0
  0
VERTEX
  5
2B1
330
2B0
100
AcDbEntity
  8
0
370
     0
100
AcDbVertex
100
AcDb2dVertex
 10
157.903656
 20
404.748596
 30
0.0
  0
VERTEX
  5
2B2
330
2B0
100
AcDbEntity
  8
0
370
     0
100
AcDbVertex
100
AcDb2dVertex
 10
162.193985
 20
404.748596
 30
0.0
  0
SEQEND
  5
2B3
330
2B0
100
AcDbEntity
  8
0
 62
     7
370
    13
  0
LINE
  5
2B4
330
1F
100
AcDbEntity
  8
0
 62
     7
370
    13
100
AcDbLine
 10
237.713135
 20
227.221191
 30
0.0
 11
171.903656
 21
227.221191
 31
0.0
  0
LINE
  5
2B5
330
1F
100
AcDbEntity
  8
0
 62
     7
370
    13
100
AcDbLine
 10
237.713135
 20
429.721191
 30
0.0
 11
171.903656
 21
429.721191
 31
0.0
  0
POLYLINE
  5
2B6
330
1F
100
AcDbEntity
  8
0
 62
     7
370
    13
100
AcDb2dPolyline
 66
     1
 10
0.0
 20
0.0
 30
0.0
  0
VERTEX
  5
2B7
330
2B6
100
AcDbEntity
  8
0
370
     0
100
AcDbVertex
100
AcDb2dVertex
 10
174.421295
 20
427.789337
 30
0.0
  0
VERTEX
  5
2B8
330
2B6
100
AcDbEntity
  8
0
370
     0
100
AcDbVertex
100
AcDb2dVertex
 10
173.903656
 20
429.721191
 30
0.0
  0
VERTEX
  5
2B9
330
2B6
100
AcDbEntity
  8
0
370
     0
100
AcDbVertex
100
AcDb2dVertex
 10
173.386017
 20
427.789337
 30
0.0
  0
SEQEND
  5
2BA
330
2B6
100
AcDbEntity
  8
0
 62
     7
370
    13
  0
POLYLINE
  5
2BB
330
1F
100
AcDbEntity
  8
0
 62
     7
370
    13
100
AcDb2dPolyline
 66
     1
 10
0.0
 20
0.0
 30
0.0
  0
VERTEX
  5
2BC
330
2BB
100
AcDbEntity
  8
0
370
     0
100
AcDbVertex
100
AcDb2dVertex
 10
173.386017
 20
229.153046
 30
0.0
  0
VERTEX
  5
2BD
330
2BB
100
AcDbEntity
  8
0
370
     0
100
AcDbVertex
100
AcDb2dVertex
 10
173.903656
 20
227.221191
 30
0.0
  0
VERTEX
  5
2BE
330
2BB
100
AcDbEntity
  8
0
370
     0
100
AcDbVertex
100
AcDb2dVertex
 10
174.421295
 20
229.153046
 30
0.0
  0
SEQEND
  5
2BF
330
2BB
100
AcDbEntity
  8
0
 62
     7
370
    13
  0
LINE
  5
2C0
330
1F
100
AcDbEntity
  8
0
 62
     7
370
    13
100
AcDbLine
 10
173.903656
 20
227.221191
 30
0.0
 11
173.903656
 21
429.721191
 31
0.0
  0
POLYLINE
  5
2C1
330
1F
100
AcDbEntity
  8
0
 62
     7
370
    13
100
AcDb2dPolyline
 66
     1
 10
0.0
 20
0.0
 30
0.0
  0
VERTEX
  5
2C2
330
2C1
100
AcDbEntity
  8
0
370
     0
100
AcDbVertex
100
AcDb2dVertex
 10
138.202576
 20
268.04538
 30
0.0
  0
VERTEX
  5
2C3
330
2C1
100
AcDbEntity
  8
0
370
     0
100
AcDbVertex
100
AcDb2dVertex
 10
138.202576
 20
257.658264
 30
0.0
  0
VERTEX
  5
2C4
330
2C1
100
AcDbEntity
  8
0
370
     0
100
AcDbVertex
100
AcDb2dVertex
 10
129.170319
 20
265.335693
 30
0.0
  0
VERTEX
  5
2C5
330
2C1
100
AcDbEntity
  8
0
370
     0
100
AcDbVertex
100
AcDb2dVertex
 10
135.944519
 20
265.335693
 30
0.0
  0
VERTEX
  5
2C6
330
2C1
100
AcDbEntity
  8
0
370
     0
100
AcDbVertex
100
AcDb2dVertex
 10
143.170319
 20
265.335693
 30
0.0
  0
SEQEND
  5
2C7
330
2C1
100
AcDbEntity
  8
0
 62
     7
370
    13
  0
POLYLINE
  5
2C8
330
1F
100
AcDbEntity
  8
0
 62
     7
370
    13
100
AcDb2dPolyline
 66
     1
 10
0.0
 20
0.0
 30
0.0
  0
VERTEX
  5
2C9
330
2C8
100
AcDbEntity
  8
0
370
     0
100
AcDbVertex
100
AcDb2dVertex
 10
140.686447
 20
274.006683
 30
0.0
  0
VERTEX
  5
2CA
330
2C8
100
AcDbEntity
  8
0
370
     0
100
AcDbVertex
100
AcDb2dVertex
 10
141.815475
 20
274.684082
 30
0.0
  0
VERTEX
  5
2CB
330
2C8
100
AcDbEntity
  8
0
370
     0
100
AcDbVertex
100
AcDb2dVertex
 10
142.492905
 20
275.361511
 30
0.0
  0
VERTEX
  5
2CC
330
2C8
100
AcDbEntity
  8
0
370
     0
100
AcDbVertex
100
AcDb2dVertex
 10
143.170319
 20
277.845367
 30
0.0
  0
VERTEX
  5
2CD
330
2C8
100
AcDbEntity
  8
0
370
     0
100
AcDbVertex
100
AcDb2dVertex
 10
143.170319
 20
280.329254
 30
0.0
  0
VERTEX
  5
2CE
330
2C8
100
AcDbEntity
  8
0
370
     0
100
AcDbVertex
100
AcDb2dVertex
 10
142.492905
 20
283.03894
 30
0.0
  0
VERTEX
  5
2CF
330
2C8
100
AcDbEntity
  8
0
370
     0
100
AcDbVertex
100
AcDb2dVertex
 10
141.138062
 20
284.393768
 30
0.0
  0
VERTEX
  5
2D0
330
2C8
100
AcDbEntity
  8
0
370
     0
100
AcDbVertex
100
AcDb2dVertex
 10
139.105804
 20
285.071198
 30
0.0
  0
VERTEX
  5
2D1
330
2C8
100
AcDbEntity
  8
0
370
     0
100
AcDbVertex
100
AcDb2dVertex
 10
137.750961
 20
285.071198
 30
0.0
  0
VERTEX
  5
2D2
330
2C8
100
AcDbEntity
  8
0
370
     0
100
AcDbVertex
100
AcDb2dVertex
 10
135.718704
 20
284.393768
 30
0.0
  0
VERTEX
  5
2D3
330
2C8
100
AcDbEntity
  8
0
370
     0
100
AcDbVertex
100
AcDb2dVertex
 10
134.589676
 20
283.03894
 30
0.0
  0
VERTEX
  5
2D4
330
2C8
100
AcDbEntity
  8
0
370
     0
100
AcDbVertex
100
AcDb2dVertex
 10
133.912262
 20
280.329254
 30
0.0
  0
VERTEX
  5
2D5
330
2C8
100
AcDbEntity
  8
0
370
     0
100
AcDbVertex
100
AcDb2dVertex
 10
133.912262
 20
277.845367
 30
0.0
  0
VERTEX
  5
2D6
330
2C8
100
AcDbEntity
  8
0
370
     0
100
AcDbVertex
100
AcDb2dVertex
 10
134.589676
 20
275.81311
 30
0.0
  0
VERTEX
  5
2D7
330
2C8
100
AcDbEntity
  8
0
370
     0
100
AcDbVertex
100
AcDb2dVertex
 10
135.26709
 20
275.135712
 30
0.0
  0
VERTEX
  5
2D8
330
2C8
100
AcDbEntity
  8
0
370
     0
100
AcDbVertex
100
AcDb2dVertex
 10
129.170319
 20
275.81311
 30
0.0
  0
VERTEX
  5
2D9
330
2C8
100
AcDbEntity
  8
0
370
     0
100
AcDbVertex
100
AcDb2dVertex
 10
129.170319
 20
284.167969
 30
0.0
  0
SEQEND
  5
2DA
330
2C8
100
AcDbEntity
  8
0
 62
     7
370
    13
  0
POLYLINE
  5
2DB
330
1F
100
AcDbEntity
  8
0
 62
     7
370
    13
100
AcDb2dPolyline
 66
     1
 10
0.0
 20
0.0
 30
0.0
  0
VERTEX
  5
2DC
330
2DB
100
AcDbEntity
  8
0
370
     0
100
AcDbVertex
100
AcDb2dVertex
 10
136.170319
 20
315.961517
 30
0.0
  0
VERTEX
  5
2DD
330
2DB
100
AcDbEntity
  8
0
370
     0
100
AcDbVertex
100
AcDb2dVertex
 10
134.589676
 20
314.15506
 30
0.0
  0
VERTEX
  5
2DE
330
2DB
100
AcDbEntity
  8
0
370
     0
100
AcDbVertex
100
AcDb2dVertex
 10
134.138062
 20
312.800232
 30
0.0
  0
VERTEX
  5
2DF
330
2DB
100
AcDbEntity
  8
0
370
     0
100
AcDbVertex
100
AcDb2dVertex
 10
134.138062
 20
310.316345
 30
0.0
  0
VERTEX
  5
2E0
330
2DB
100
AcDbEntity
  8
0
370
     0
100
AcDbVertex
100
AcDb2dVertex
 10
134.589676
 20
308.735718
 30
0.0
  0
VERTEX
  5
2E1
330
2DB
100
AcDbEntity
  8
0
370
     0
100
AcDbVertex
100
AcDb2dVertex
 10
136.170319
 20
306.92926
 30
0.0
  0
VERTEX
  5
2E2
330
2DB
100
AcDbEntity
  8
0
370
     0
100
AcDbVertex
100
AcDb2dVertex
 10
137.976776
 20
306.477631
 30
0.0
  0
SEQEND
  5
2E3
330
2DB
100
AcDbEntity
  8
0
 62
     7
370
    13
  0
POLYLINE
  5
2E4
330
1F
100
AcDbEntity
  8
0
 62
     7
370
    13
100
AcDb2dPolyline
 66
     1
 10
0.0
 20
0.0
 30
0.0
  0
VERTEX
  5
2E5
330
2E4
100
AcDbEntity
  8
0
370
     0
100
AcDbVertex
100
AcDb2dVertex
 10
143.170319
 20
312.800232
 30
0.0
  0
VERTEX
  5
2E6
330
2E4
100
AcDbEntity
  8
0
370
     0
100
AcDbVertex
100
AcDb2dVertex
 10
142.718704
 20
314.15506
 30
0.0
  0
VERTEX
  5
2E7
330
2E4
100
AcDbEntity
  8
0
370
     0
100
AcDbVertex
100
AcDb2dVertex
 10
141.138062
 20
315.961517
 30
0.0
  0
SEQEND
  5
2E8
330
2E4
100
AcDbEntity
  8
0
 62
     7
370
    13
  0
POLYLINE
  5
2E9
330
1F
100
AcDbEntity
  8
0
 62
     7
370
    13
100
AcDb2dPolyline
 66
     1
 10
0.0
 20
0.0
 30
0.0
  0
VERTEX
  5
2EA
330
2E9
100
AcDbEntity
  8
0
370
     0
100
AcDbVertex
100
AcDb2dVertex
 10
143.170319
 20
310.316345
 30
0.0
  0
VERTEX
  5
2EB
330
2E9
100
AcDbEntity
  8
0
370
     0
100
AcDbVertex
100
AcDb2dVertex
 10
143.170319
 20
312.800232
 30
0.0
  0
SEQEND
  5
2EC
330
2E9
100
AcDbEntity
  8
0
 62
     7
370
    13
  0
POLYLINE
  5
2ED
330
1F
100
AcDbEntity
  8
0
 62
     7
370
    13
100
AcDb2dPolyline
 66
     1
 10
0.0
 20
0.0
 30
0.0
  0
VERTEX
  5
2EE
330
2ED
100
AcDbEntity
  8
0
370
     0
100
AcDbVertex
100
AcDb2dVertex
 10
141.138062
 20
306.92926
 30
0.0
  0
VERTEX
  5
2EF
330
2ED
100
AcDbEntity
  8
0
370
     0
100
AcDbVertex
100
AcDb2dVertex
 10
139.331604
 20
306.477631
 30
0.0
  0
SEQEND
  5
2F0
330
2ED
100
AcDbEntity
  8
0
 62
     7
370
    13
  0
POLYLINE
  5
2F1
330
1F
100
AcDbEntity
  8
0
 62
     7
370
    13
100
AcDb2dPolyline
 66
     1
 10
0.0
 20
0.0
 30
0.0
  0
VERTEX
  5
2F2
330
2F1
100
AcDbEntity
  8
0
370
     0
100
AcDbVertex
100
AcDb2dVertex
 10
137.976776
 20
306.477631
 30
0.0
  0
VERTEX
  5
2F3
330
2F1
100
AcDbEntity
  8
0
370
     0
100
AcDbVertex
100
AcDb2dVertex
 10
139.331604
 20
306.477631
 30
0.0
  0
SEQEND
  5
2F4
330
2F1
100
AcDbEntity
  8
0
 62
     7
370
    13
  0
POLYLINE
  5
2F5
330
1F
100
AcDbEntity
  8
0
 62
     7
370
    13
100
AcDb2dPolyline
 66
     1
 10
0.0
 20
0.0
 30
0.0
  0
VERTEX
  5
2F6
330
2F5
100
AcDbEntity
  8
0
370
     0
100
AcDbVertex
100
AcDb2dVertex
 10
143.170319
 20
310.316345
 30
0.0
  0
VERTEX
  5
2F7
330
2F5
100
AcDbEntity
  8
0
370
     0
100
AcDbVertex
100
AcDb2dVertex
 10
142.718704
 20
308.735718
 30
0.0
  0
VERTEX
  5
2F8
330
2F5
100
AcDbEntity
  8
0
370
     0
100
AcDbVertex
100
AcDb2dVertex
 10
141.138062
 20
306.92926
 30
0.0
  0
SEQEND
  5
2F9
330
2F5
100
AcDbEntity
  8
0
 62
     7
370
    13
  0
POLYLINE
  5
2FA
330
1F
100
AcDbEntity
  8
0
 62
     7
370
    13
100
AcDb2dPolyline
 66
     1
 10
0.0
 20
0.0
 30
0.0
  0
VERTEX
  5
2FB
330
2FA
100
AcDbEntity
  8
0
370
     0
100
AcDbVertex
100
AcDb2dVertex
 10
143.170319
 20
322.37442
 30
0.0
  0
VERTEX
  5
2FC
330
2FA
100
AcDbEntity
  8
0
370
     0
100
AcDbVertex
100
AcDb2dVertex
 10
134.138062
 20
322.37442
 30
0.0
  0
SEQEND
  5
2FD
330
2FA
100
AcDbEntity
  8
0
 62
     7
370
    13
  0
POLYLINE
  5
2FE
330
1F
100
AcDbEntity
  8
0
 62
     7
370
    13
100
AcDb2dPolyline
 66
     1
 10
0.0
 20
0.0
 30
0.0
  0
VERTEX
  5
2FF
330
2FE
100
AcDbEntity
  8
0
370
     0
100
AcDbVertex
100
AcDb2dVertex
 10
136.621933
 20
328.471191
 30
0.0
  0
VERTEX
  5
300
330
2FE
100
AcDbEntity
  8
0
370
     0
100
AcDbVertex
100
AcDb2dVertex
 10
143.170319
 20
328.471191
 30
0.0
  0
SEQEND
  5
301
330
2FE
100
AcDbEntity
  8
0
 62
     7
370
    13
  0
POLYLINE
  5
302
330
1F
100
AcDbEntity
  8
0
 62
     7
370
    13
100
AcDb2dPolyline
 66
     1
 10
0.0
 20
0.0
 30
0.0
  0
VERTEX
  5
303
330
302
100
AcDbEntity
  8
0
370
     0
100
AcDbVertex
100
AcDb2dVertex
 10
136.621933
 20
334.567963
 30
0.0
  0
VERTEX
  5
304
330
302
100
AcDbEntity
  8
0
370
     0
100
AcDbVertex
100
AcDb2dVertex
 10
143.170319
 20
334.567963
 30
0.0
  0
SEQEND
  5
305
330
302
100
AcDbEntity
  8
0
 62
     7
370
    13
  0
POLYLINE
  5
306
330
1F
100
AcDbEntity
  8
0
 62
     7
370
    13
100
AcDb2dPolyline
 66
     1
 10
0.0
 20
0.0
 30
0.0
  0
VERTEX
  5
307
330
306
100
AcDbEntity
  8
0
370
     0
100
AcDbVertex
100
AcDb2dVertex
 10
136.621933
 20
322.37442
 30
0.0
  0
VERTEX
  5
308
330
306
100
AcDbEntity
  8
0
370
     0
100
AcDbVertex
100
AcDb2dVertex
 10
134.815475
 20
323.955048
 30
0.0
  0
VERTEX
  5
309
330
306
100
AcDbEntity
  8
0
370
     0
100
AcDbVertex
100
AcDb2dVertex
 10
134.138062
 20
325.535706
 30
0.0
  0
VERTEX
  5
30A
330
306
100
AcDbEntity
  8
0
370
     0
100
AcDbVertex
100
AcDb2dVertex
 10
134.138062
 20
326.890533
 30
0.0
  0
VERTEX
  5
30B
330
306
100
AcDbEntity
  8
0
370
     0
100
AcDbVertex
100
AcDb2dVertex
 10
134.815475
 20
327.793762
 30
0.0
  0
VERTEX
  5
30C
330
306
100
AcDbEntity
  8
0
370
     0
100
AcDbVertex
100
AcDb2dVertex
 10
136.621933
 20
328.471191
 30
0.0
  0
VERTEX
  5
30D
330
306
100
AcDbEntity
  8
0
370
     0
100
AcDbVertex
100
AcDb2dVertex
 10
134.815475
 20
330.051819
 30
0.0
  0
VERTEX
  5
30E
330
306
100
AcDbEntity
  8
0
370
     0
100
AcDbVertex
100
AcDb2dVertex
 10
134.138062
 20
331.632477
 30
0.0
  0
VERTEX
  5
30F
330
306
100
AcDbEntity
  8
0
370
     0
100
AcDbVertex
100
AcDb2dVertex
 10
134.138062
 20
332.987305
 30
0.0
  0
VERTEX
  5
310
330
306
100
AcDbEntity
  8
0
370
     0
100
AcDbVertex
100
AcDb2dVertex
 10
134.815475
 20
333.890533
 30
0.0
  0
VERTEX
  5
311
330
306
100
AcDbEntity
  8
0
370
     0
100
AcDbVertex
100
AcDb2dVertex
 10
136.621933
 20
334.567963
 30
0.0
  0
SEQEND
  5
312
330
306
100
AcDbEntity
  8
0
 62
     7
370
    13
  0
POLYLINE
  5
313
330
1F
100
AcDbEntity
  8
0
 62
     7
370
    13
100
AcDb2dPolyline
 66
     1
 10
0.0
 20
0.0
 30
0.0
  0
VERTEX
  5
314
330
313
100
AcDbEntity
  8
0
370
     0
100
AcDbVertex
100
AcDb2dVertex
 10
130.976776
 20
359.135712
 30
0.0
  0
VERTEX
  5
315
330
313
100
AcDbEntity
  8
0
370
     0
100
AcDbVertex
100
AcDb2dVertex
 10
129.170319
 20
361.619568
 30
0.0
  0
VERTEX
  5
316
330
313
100
AcDbEntity
  8
0
370
     0
100
AcDbVertex
100
AcDb2dVertex
 10
143.170319
 20
361.619568
 30
0.0
  0
SEQEND
  5
317
330
313
100
AcDbEntity
  8
0
 62
     7
370
    13
  0
POLYLINE
  5
318
330
1F
100
AcDbEntity
  8
0
 62
     7
370
    13
100
AcDb2dPolyline
 66
     1
 10
0.0
 20
0.0
 30
0.0
  0
VERTEX
  5
319
330
318
100
AcDbEntity
  8
0
370
     0
100
AcDbVertex
100
AcDb2dVertex
 10
131.65419
 20
357.780853
 30
0.0
  0
VERTEX
  5
31A
330
318
100
AcDbEntity
  8
0
370
     0
100
AcDbVertex
100
AcDb2dVertex
 10
130.976776
 20
359.135712
 30
0.0
  0
SEQEND
  5
31B
330
318
100
AcDbEntity
  8
0
 62
     7
370
    13
  0
POLYLINE
  5
31C
330
1F
100
AcDbEntity
  8
0
 62
     7
370
    13
100
AcDb2dPolyline
 66
     1
 10
0.0
 20
0.0
 30
0.0
  0
VERTEX
  5
31D
330
31C
100
AcDbEntity
  8
0
370
     0
100
AcDbVertex
100
AcDb2dVertex
 10
141.589676
 20
372.774414
 30
0.0
  0
VERTEX
  5
31E
330
31C
100
AcDbEntity
  8
0
370
     0
100
AcDbVertex
100
AcDb2dVertex
 10
142.492905
 20
374.129242
 30
0.0
  0
VERTEX
  5
31F
330
31C
100
AcDbEntity
  8
0
370
     0
100
AcDbVertex
100
AcDb2dVertex
 10
143.170319
 20
376.387329
 30
0.0
  0
VERTEX
  5
320
330
31C
100
AcDbEntity
  8
0
370
     0
100
AcDbVertex
100
AcDb2dVertex
 10
143.170319
 20
378.193756
 30
0.0
  0
VERTEX
  5
321
330
31C
100
AcDbEntity
  8
0
370
     0
100
AcDbVertex
100
AcDb2dVertex
 10
142.492905
 20
380.451843
 30
0.0
  0
SEQEND
  5
322
330
31C
100
AcDbEntity
  8
0
 62
     7
370
    13
  0
POLYLINE
  5
323
330
1F
100
AcDbEntity
  8
0
 62
     7
370
    13
100
AcDb2dPolyline
 66
     1
 10
0.0
 20
0.0
 30
0.0
  0
VERTEX
  5
324
330
323
100
AcDbEntity
  8
0
370
     0
100
AcDbVertex
100
AcDb2dVertex
 10
129.847733
 20
380.451843
 30
0.0
  0
VERTEX
  5
325
330
323
100
AcDbEntity
  8
0
370
     0
100
AcDbVertex
100
AcDb2dVertex
 10
129.170319
 20
378.193756
 30
0.0
  0
VERTEX
  5
326
330
323
100
AcDbEntity
  8
0
370
     0
100
AcDbVertex
100
AcDb2dVertex
 10
129.170319
 20
376.387329
 30
0.0
  0
VERTEX
  5
327
330
323
100
AcDbEntity
  8
0
370
     0
100
AcDbVertex
100
AcDb2dVertex
 10
129.847733
 20
374.129242
 30
0.0
  0
SEQEND
  5
328
330
323
100
AcDbEntity
  8
0
 62
     7
370
    13
  0
POLYLINE
  5
329
330
1F
100
AcDbEntity
  8
0
 62
     7
370
    13
100
AcDb2dPolyline
 66
     1
 10
0.0
 20
0.0
 30
0.0
  0
VERTEX
  5
32A
330
329
100
AcDbEntity
  8
0
370
     0
100
AcDbVertex
100
AcDb2dVertex
 10
141.589676
 20
372.774414
 30
0.0
  0
VERTEX
  5
32B
330
329
100
AcDbEntity
  8
0
370
     0
100
AcDbVertex
100
AcDb2dVertex
 10
140.234833
 20
372.096985
 30
0.0
  0
VERTEX
  5
32C
330
329
100
AcDbEntity
  8
0
370
     0
100
AcDbVertex
100
AcDb2dVertex
 10
138.87999
 20
372.096985
 30
0.0
  0
VERTEX
  5
32D
330
329
100
AcDbEntity
  8
0
370
     0
100
AcDbVertex
100
AcDb2dVertex
 10
137.525162
 20
372.774414
 30
0.0
  0
VERTEX
  5
32E
330
329
100
AcDbEntity
  8
0
370
     0
100
AcDbVertex
100
AcDb2dVertex
 10
136.170319
 20
374.355072
 30
0.0
  0
VERTEX
  5
32F
330
329
100
AcDbEntity
  8
0
370
     0
100
AcDbVertex
100
AcDb2dVertex
 10
134.815475
 20
379.096985
 30
0.0
  0
VERTEX
  5
330
330
329
100
AcDbEntity
  8
0
370
     0
100
AcDbVertex
100
AcDb2dVertex
 10
134.363861
 20
380.226013
 30
0.0
  0
VERTEX
  5
331
330
329
100
AcDbEntity
  8
0
370
     0
100
AcDbVertex
100
AcDb2dVertex
 10
133.686447
 20
380.903442
 30
0.0
  0
VERTEX
  5
332
330
329
100
AcDbEntity
  8
0
370
     0
100
AcDbVertex
100
AcDb2dVertex
 10
132.557419
 20
381.355072
 30
0.0
  0
VERTEX
  5
333
330
329
100
AcDbEntity
  8
0
370
     0
100
AcDbVertex
100
AcDb2dVertex
 10
130.976776
 20
381.355072
 30
0.0
  0
VERTEX
  5
334
330
329
100
AcDbEntity
  8
0
370
     0
100
AcDbVertex
100
AcDb2dVertex
 10
129.847733
 20
380.451843
 30
0.0
  0
SEQEND
  5
335
330
329
100
AcDbEntity
  8
0
 62
     7
370
    13
  0
POLYLINE
  5
336
330
1F
100
AcDbEntity
  8
0
 62
     7
370
    13
100
AcDb2dPolyline
 66
     1
 10
0.0
 20
0.0
 30
0.0
  0
VERTEX
  5
337
330
336
100
AcDbEntity
  8
0
370
     0
100
AcDbVertex
100
AcDb2dVertex
 10
129.847733
 20
374.129242
 30
0.0
  0
VERTEX
  5
338
330
336
100
AcDbEntity
  8
0
370
     0
100
AcDbVertex
100
AcDb2dVertex
 10
130.976776
 20
373.226013
 30
0.0
  0
VERTEX
  5
339
330
336
100
AcDbEntity
  8
0
370
     0
100
AcDbVertex
100
AcDb2dVertex
 10
132.557419
 20
373.226013
 30
0.0
  0
VERTEX
  5
33A
330
336
100
AcDbEntity
  8
0
370
     0
100
AcDbVertex
100
AcDb2dVertex
 10
133.686447
 20
373.677643
 30
0.0
  0
VERTEX
  5
33B
330
336
100
AcDbEntity
  8
0
370
     0
100
AcDbVertex
100
AcDb2dVertex
 10
134.363861
 20
374.355072
 30
0.0
  0
VERTEX
  5
33C
330
336
100
AcDbEntity
  8
0
370
     0
100
AcDbVertex
100
AcDb2dVertex
 10
134.815475
 20
375.4841
 30
0.0
  0
VERTEX
  5
33D
330
336
100
AcDbEntity
  8
0
370
     0
100
AcDbVertex
100
AcDb2dVertex
 10
136.170319
 20
380.451843
 30
0.0
  0
SEQEND
  5
33E
330
336
100
AcDbEntity
  8
0
 62
     7
370
    13
  0
POLYLINE
  5
33F
330
1F
100
AcDbEntity
  8
0
 62
     7
370
    13
100
AcDb2dPolyline
 66
     1
 10
0.0
 20
0.0
 30
0.0
  0
VERTEX
  5
340
330
33F
100
AcDbEntity
  8
0
370
     0
100
AcDbVertex
100
AcDb2dVertex
 10
137.525162
 20
382.032471
 30
0.0
  0
VERTEX
  5
341
330
33F
100
AcDbEntity
  8
0
370
     0
100
AcDbVertex
100
AcDb2dVertex
 10
138.87999
 20
382.7099
 30
0.0
  0
VERTEX
  5
342
330
33F
100
AcDbEntity
  8
0
370
     0
100
AcDbVertex
100
AcDb2dVertex
 10
140.234833
 20
382.7099
 30
0.0
  0
VERTEX
  5
343
330
33F
100
AcDbEntity
  8
0
370
     0
100
AcDbVertex
100
AcDb2dVertex
 10
141.589676
 20
382.032471
 30
0.0
  0
VERTEX
  5
344
330
33F
100
AcDbEntity
  8
0
370
     0
100
AcDbVertex
100
AcDb2dVertex
 10
142.492905
 20
380.451843
 30
0.0
  0
SEQEND
  5
345
330
33F
100
AcDbEntity
  8
0
 62
     7
370
    13
  0
POLYLINE
  5
346
330
1F
100
AcDbEntity
  8
0
 62
     7
370
    13
100
AcDb2dPolyline
 66
     1
 10
0.0
 20
0.0
 30
0.0
  0
VERTEX
  5
347
330
346
100
AcDbEntity
  8
0
370
     0
100
AcDbVertex
100
AcDb2dVertex
 10
137.525162
 20
382.032471
 30
0.0
  0
VERTEX
  5
348
330
346
100
AcDbEntity
  8
0
370
     0
100
AcDbVertex
100
AcDb2dVertex
 10
136.170319
 20
380.451843
 30
0.0
  0
SEQEND
  5
349
330
346
100
AcDbEntity
  8
0
 62
     7
370
    13
  0
POLYLINE
  5
34A
330
1F
100
AcDbEntity
  8
0
 62
     7
370
    13
100
AcDb2dPolyline
 66
     1
 10
0.0
 20
0.0
 30
0.0
  0
VERTEX
  5
34B
330
34A
100
AcDbEntity
  8
0
370
     0
100
AcDbVertex
100
AcDb2dVertex
 10
129.170319
 20
392.058289
 30
0.0
  0
VERTEX
  5
34C
330
34A
100
AcDbEntity
  8
0
370
     0
100
AcDbVertex
100
AcDb2dVertex
 10
133.460648
 20
392.058289
 30
0.0
  0
SEQEND
  5
34D
330
34A
100
AcDbEntity
  8
0
 62
     7
370
    13
  0
POLYLINE
  5
34E
330
1F
100
AcDbEntity
  8
0
 62
     7
370
    13
100
AcDb2dPolyline
 66
     1
 10
0.0
 20
0.0
 30
0.0
  0
VERTEX
  5
34F
330
34E
100
AcDbEntity
  8
0
370
     0
100
AcDbVertex
100
AcDb2dVertex
 10
129.170319
 20
396.574402
 30
0.0
  0
VERTEX
  5
350
330
34E
100
AcDbEntity
  8
0
370
     0
100
AcDbVertex
100
AcDb2dVertex
 10
133.460648
 20
396.574402
 30
0.0
  0
SEQEND
  5
351
330
34E
100
AcDbEntity
  8
0
 62
     7
370
    13
  0
LINE
  5
352
330
1F
100
AcDbEntity
  8
0
 62
     7
370
    13
100
AcDbLine
 10
237.713135
 20
214.221191
 30
0.0
 11
143.170319
 21
214.221191
 31
0.0
  0
LINE
  5
353
330
1F
100
AcDbEntity
  8
0
 62
     7
370
    13
100
AcDbLine
 10
237.713135
 20
442.721191
 30
0.0
 11
143.170319
 21
442.721191
 31
0.0
  0
POLYLINE
  5
354
330
1F
100
AcDbEntity
  8
0
 62
     7
370
    13
100
AcDb2dPolyline
 66
     1
 10
0.0
 20
0.0
 30
0.0
  0
VERTEX
  5
355
330
354
100
AcDbEntity
  8
0
370
     0
100
AcDbVertex
100
AcDb2dVertex
 10
145.687958
 20
440.789337
 30
0.0
  0
VERTEX
  5
356
330
354
100
AcDbEntity
  8
0
370
     0
100
AcDbVertex
100
AcDb2dVertex
 10
145.170319
 20
442.721191
 30
0.0
  0
VERTEX
  5
357
330
354
100
AcDbEntity
  8
0
370
     0
100
AcDbVertex
100
AcDb2dVertex
 10
144.652679
 20
440.789337
 30
0.0
  0
SEQEND
  5
358
330
354
100
AcDbEntity
  8
0
 62
     7
370
    13
  0
POLYLINE
  5
359
330
1F
100
AcDbEntity
  8
0
 62
     7
370
    13
100
AcDb2dPolyline
 66
     1
 10
0.0
 20
0.0
 30
0.0
  0
VERTEX
  5
35A
330
359
100
AcDbEntity
  8
0
370
     0
100
AcDbVertex
100
AcDb2dVertex
 10
144.652679
 20
216.153046
 30
0.0
  0
VERTEX
  5
35B
330
359
100
AcDbEntity
  8
0
370
     0
100
AcDbVertex
100
AcDb2dVertex
 10
145.170319
 20
214.221191
 30
0.0
  0
VERTEX
  5
35C
330
359
100
AcDbEntity
  8
0
370
     0
100
AcDbVertex
100
AcDb2dVertex
 10
145.687958
 20
216.153046
 30
0.0
  0
SEQEND
  5
35D
330
359
100
AcDbEntity
  8
0
 62
     7
370
    13
  0
LINE
  5
35E
330
1F
100
AcDbEntity
  8
0
 62
     7
370
    13
100
AcDbLine
 10
145.170319
 20
214.221191
 30
0.0
 11
145.170319
 21
442.721191
 31
0.0
  0
POLYLINE
  5
35F
330
1F
100
AcDbEntity
  8
0
 62
     7
370
    13
100
AcDb2dPolyline
 66
     1
 10
0.0
 20
0.0
 30
0.0
  0
VERTEX
  5
360
330
35F
100
AcDbEntity
  8
0
370
     0
100
AcDbVertex
100
AcDb2dVertex
 10
511.2453
 20
305.643066
 30
0.0
  0
VERTEX
  5
361
330
35F
100
AcDbEntity
  8
0
370
     0
100
AcDbVertex
100
AcDb2dVertex
 10
511.675476
 20
306.887482
 30
0.0
  0
VERTEX
  5
362
330
35F
100
AcDbEntity
  8
0
370
     0
100
AcDbVertex
100
AcDb2dVertex
 10
510.599182
 20
309.226288
 30
0.0
  0
VERTEX
  5
363
330
35F
100
AcDbEntity
  8
0
370
     0
100
AcDbVertex
100
AcDb2dVertex
 10
509.728912
 20
310.264679
 30
0.0
  0
VERTEX
  5
364
330
35F
100
AcDbEntity
  8
0
370
     0
100
AcDbVertex
100
AcDb2dVertex
 10
507.614258
 20
311.733246
 30
0.0
  0
VERTEX
  5
365
330
35F
100
AcDbEntity
  8
0
370
     0
100
AcDbVertex
100
AcDb2dVertex
 10
505.214417
 20
311.784332
 30
0.0
  0
VERTEX
  5
366
330
35F
100
AcDbEntity
  8
0
370
     0
100
AcDbVertex
100
AcDb2dVertex
 10
502.356415
 20
310.272888
 30
0.0
  0
VERTEX
  5
367
330
35F
100
AcDbEntity
  8
0
370
     0
100
AcDbVertex
100
AcDb2dVertex
 10
499.933533
 20
308.242279
 30
0.0
  0
VERTEX
  5
368
330
35F
100
AcDbEntity
  8
0
370
     0
100
AcDbVertex
100
AcDb2dVertex
 10
498.464966
 20
306.127625
 30
0.0
  0
VERTEX
  5
369
330
35F
100
AcDbEntity
  8
0
370
     0
100
AcDbVertex
100
AcDb2dVertex
 10
498.12381
 20
304.073914
 30
0.0
  0
VERTEX
  5
36A
330
35F
100
AcDbEntity
  8
0
370
     0
100
AcDbVertex
100
AcDb2dVertex
 10
498.853973
 20
301.445007
 30
0.0
  0
VERTEX
  5
36B
330
35F
100
AcDbEntity
  8
0
370
     0
100
AcDbVertex
100
AcDb2dVertex
 10
499.434143
 20
300.752777
 30
0.0
  0
VERTEX
  5
36C
330
35F
100
AcDbEntity
  8
0
370
     0
100
AcDbVertex
100
AcDb2dVertex
 10
501.548828
 20
299.28421
 30
0.0
  0
VERTEX
  5
36D
330
35F
100
AcDbEntity
  8
0
370
     0
100
AcDbVertex
100
AcDb2dVertex
 10
503.457458
 20
299.116089
 30
0.0
  0
VERTEX
  5
36E
330
35F
100
AcDbEntity
  8
0
370
     0
100
AcDbVertex
100
AcDb2dVertex
 10
505.2771
 20
299.757263
 30
0.0
  0
VERTEX
  5
36F
330
35F
100
AcDbEntity
  8
0
370
     0
100
AcDbVertex
100
AcDb2dVertex
 10
505.796265
 20
300.192383
 30
0.0
  0
VERTEX
  5
370
330
35F
100
AcDbEntity
  8
0
370
     0
100
AcDbVertex
100
AcDb2dVertex
 10
506.745667
 20
301.871918
 30
0.0
  0
VERTEX
  5
371
330
35F
100
AcDbEntity
  8
0
370
     0
100
AcDbVertex
100
AcDb2dVertex
 10
506.913757
 20
303.780579
 30
0.0
  0
VERTEX
  5
372
330
35F
100
AcDbEntity
  8
0
370
     0
100
AcDbVertex
100
AcDb2dVertex
 10
505.837463
 20
306.119385
 30
0.0
  0
VERTEX
  5
373
330
35F
100
AcDbEntity
  8
0
370
     0
100
AcDbVertex
100
AcDb2dVertex
 10
505.257294
 20
306.811646
 30
0.0
  0
VERTEX
  5
374
330
35F
100
AcDbEntity
  8
0
370
     0
100
AcDbVertex
100
AcDb2dVertex
 10
503.142639
 20
308.280212
 30
0.0
  0
VERTEX
  5
375
330
35F
100
AcDbEntity
  8
0
370
     0
100
AcDbVertex
100
AcDb2dVertex
 10
501.407043
 20
308.593353
 30
0.0
  0
VERTEX
  5
376
330
35F
100
AcDbEntity
  8
0
370
     0
100
AcDbVertex
100
AcDb2dVertex
 10
499.760468
 20
308.097229
 30
0.0
  0
SEQEND
  5
377
330
35F
100
AcDbEntity
  8
0
 62
     7
370
    13
  0
POLYLINE
  5
378
330
1F
100
AcDbEntity
  8
0
 62
     7
370
    13
100
AcDb2dPolyline
 66
     1
 10
0.0
 20
0.0
 30
0.0
  0
VERTEX
  5
379
330
378
100
AcDbEntity
  8
0
370
     0
100
AcDbVertex
100
AcDb2dVertex
 10
507.922821
 20
294.49118
 30
0.0
  0
VERTEX
  5
37A
330
378
100
AcDbEntity
  8
0
370
     0
100
AcDbVertex
100
AcDb2dVertex
 10
507.492645
 20
293.246765
 30
0.0
  0
VERTEX
  5
37B
330
378
100
AcDbEntity
  8
0
370
     0
100
AcDbVertex
100
AcDb2dVertex
 10
507.408569
 20
292.29245
 30
0.0
  0
VERTEX
  5
37C
330
378
100
AcDbEntity
  8
0
370
     0
100
AcDbVertex
100
AcDb2dVertex
 10
508.484894
 20
289.953613
 30
0.0
  0
VERTEX
  5
37D
330
378
100
AcDbEntity
  8
0
370
     0
100
AcDbVertex
100
AcDb2dVertex
 10
510.080383
 20
288.049927
 30
0.0
  0
VERTEX
  5
37E
330
378
100
AcDbEntity
  8
0
370
     0
100
AcDbVertex
100
AcDb2dVertex
 10
512.340088
 20
286.408325
 30
0.0
  0
VERTEX
  5
37F
330
378
100
AcDbEntity
  8
0
370
     0
100
AcDbVertex
100
AcDb2dVertex
 10
514.248718
 20
286.240204
 30
0.0
  0
VERTEX
  5
380
330
378
100
AcDbEntity
  8
0
370
     0
100
AcDbVertex
100
AcDb2dVertex
 10
516.241455
 20
287.026398
 30
0.0
  0
VERTEX
  5
381
330
378
100
AcDbEntity
  8
0
370
     0
100
AcDbVertex
100
AcDb2dVertex
 10
517.279785
 20
287.896667
 30
0.0
  0
VERTEX
  5
382
330
378
100
AcDbEntity
  8
0
370
     0
100
AcDbVertex
100
AcDb2dVertex
 10
518.402222
 20
289.721252
 30
0.0
  0
VERTEX
  5
383
330
378
100
AcDbEntity
  8
0
370
     0
100
AcDbVertex
100
AcDb2dVertex
 10
518.397278
 20
291.484863
 30
0.0
  0
VERTEX
  5
384
330
378
100
AcDbEntity
  8
0
370
     0
100
AcDbVertex
100
AcDb2dVertex
 10
517.175964
 20
293.996735
 30
0.0
  0
VERTEX
  5
385
330
378
100
AcDbEntity
  8
0
370
     0
100
AcDbVertex
100
AcDb2dVertex
 10
515.580444
 20
295.900421
 30
0.0
  0
VERTEX
  5
386
330
378
100
AcDbEntity
  8
0
370
     0
100
AcDbVertex
100
AcDb2dVertex
 10
513.755859
 20
297.022858
 30
0.0
  0
VERTEX
  5
387
330
378
100
AcDbEntity
  8
0
370
     0
100
AcDbVertex
100
AcDb2dVertex
 10
512.801575
 20
297.106934
 30
0.0
  0
VERTEX
  5
388
330
378
100
AcDbEntity
  8
0
370
     0
100
AcDbVertex
100
AcDb2dVertex
 10
517.909424
 20
300.503906
 30
0.0
  0
VERTEX
  5
389
330
378
100
AcDbEntity
  8
0
370
     0
100
AcDbVertex
100
AcDb2dVertex
 10
523.276001
 20
294.100586
 30
0.0
  0
SEQEND
  5
38A
330
378
100
AcDbEntity
  8
0
 62
     7
370
    13
  0
POLYLINE
  5
38B
330
1F
100
AcDbEntity
  8
0
 62
     7
370
    13
100
AcDb2dPolyline
 66
     1
 10
0.0
 20
0.0
 30
0.0
  0
VERTEX
  5
38C
330
38B
100
AcDbEntity
  8
0
370
     0
100
AcDbVertex
100
AcDb2dVertex
 10
501.544312
 20
320.030365
 30
0.0
  0
VERTEX
  5
38D
330
38B
100
AcDbEntity
  8
0
370
     0
100
AcDbVertex
100
AcDb2dVertex
 10
496.612793
 20
325.91452
 30
0.0
  0
SEQEND
  5
38E
330
38B
100
AcDbEntity
  8
0
 62
     7
370
    13
  0
POLYLINE
  5
38F
330
1F
100
AcDbEntity
  8
0
 62
     7
370
    13
100
AcDb2dPolyline
 66
     1
 10
0.0
 20
0.0
 30
0.0
  0
VERTEX
  5
390
330
38F
100
AcDbEntity
  8
0
370
     0
100
AcDbVertex
100
AcDb2dVertex
 10
491.420898
 20
321.563202
 30
0.0
  0
VERTEX
  5
391
330
38F
100
AcDbEntity
  8
0
370
     0
100
AcDbVertex
100
AcDb2dVertex
 10
496.642487
 20
315.332916
 30
0.0
  0
SEQEND
  5
392
330
38F
100
AcDbEntity
  8
0
 62
     7
370
    13
  0
POLYLINE
  5
393
330
1F
100
AcDbEntity
  8
0
 62
     7
370
    13
100
AcDb2dPolyline
 66
     1
 10
0.0
 20
0.0
 30
0.0
  0
VERTEX
  5
394
330
393
100
AcDbEntity
  8
0
370
     0
100
AcDbVertex
100
AcDb2dVertex
 10
496.612793
 20
325.91452
 30
0.0
  0
VERTEX
  5
395
330
393
100
AcDbEntity
  8
0
370
     0
100
AcDbVertex
100
AcDb2dVertex
 10
485.882874
 20
316.921783
 30
0.0
  0
SEQEND
  5
396
330
393
100
AcDbEntity
  8
0
 62
     7
370
    13
  0
POLYLINE
  5
397
330
1F
100
AcDbEntity
  8
0
 62
     7
370
    13
100
AcDb2dPolyline
 66
     1
 10
0.0
 20
0.0
 30
0.0
  0
VERTEX
  5
398
330
397
100
AcDbEntity
  8
0
370
     0
100
AcDbVertex
100
AcDb2dVertex
 10
501.544312
 20
320.030365
 30
0.0
  0
VERTEX
  5
399
330
397
100
AcDbEntity
  8
0
370
     0
100
AcDbVertex
100
AcDb2dVertex
 10
502.040405
 20
318.383789
 30
0.0
  0
VERTEX
  5
39A
330
397
100
AcDbEntity
  8
0
370
     0
100
AcDbVertex
100
AcDb2dVertex
 10
501.844269
 20
316.157043
 30
0.0
  0
VERTEX
  5
39B
330
397
100
AcDbEntity
  8
0
370
     0
100
AcDbVertex
100
AcDb2dVertex
 10
500.113647
 20
314.706604
 30
0.0
  0
VERTEX
  5
39C
330
397
100
AcDbEntity
  8
0
370
     0
100
AcDbVertex
100
AcDb2dVertex
 10
498.350037
 20
314.70166
 30
0.0
  0
VERTEX
  5
39D
330
397
100
AcDbEntity
  8
0
370
     0
100
AcDbVertex
100
AcDb2dVertex
 10
496.642487
 20
315.332916
 30
0.0
  0
SEQEND
  5
39E
330
397
100
AcDbEntity
  8
0
 62
     7
370
    13
  0
POLYLINE
  5
39F
330
1F
100
AcDbEntity
  8
0
 62
     7
370
    13
100
AcDb2dPolyline
 66
     1
 10
0.0
 20
0.0
 30
0.0
  0
VERTEX
  5
3A0
330
39F
100
AcDbEntity
  8
0
370
     0
100
AcDbVertex
100
AcDb2dVertex
 10
495.482117
 20
316.717438
 30
0.0
  0
VERTEX
  5
3A1
330
39F
100
AcDbEntity
  8
0
370
     0
100
AcDbVertex
100
AcDb2dVertex
 10
492.845001
 20
308.614777
 30
0.0
  0
SEQEND
  5
3A2
330
39F
100
AcDbEntity
  8
0
 62
     7
370
    13
  0
POLYLINE
  5
3A3
330
1F
100
AcDbEntity
  8
0
 62
     7
370
    13
100
AcDb2dPolyline
 66
     1
 10
0.0
 20
0.0
 30
0.0
  0
VERTEX
  5
3A4
330
3A3
100
AcDbEntity
  8
0
370
     0
100
AcDbVertex
100
AcDb2dVertex
 10
550.451477
 20
235.960602
 30
0.0
  0
VERTEX
  5
3A5
330
3A3
100
AcDbEntity
  8
0
370
     0
100
AcDbVertex
100
AcDb2dVertex
 10
552.089111
 20
234.812469
 30
0.0
  0
VERTEX
  5
3A6
330
3A3
100
AcDbEntity
  8
0
370
     0
100
AcDbVertex
100
AcDb2dVertex
 10
551.244934
 20
236.625595
 30
0.0
  0
SEQEND
  5
3A7
330
3A3
100
AcDbEntity
  8
0
 62
     7
370
    13
  0
LINE
  5
3A8
330
1F
100
AcDbEntity
  8
0
 62
     7
370
    13
100
AcDbLine
 10
552.089111
 20
234.812469
 30
0.0
 11
483.769867
 21
316.329376
 31
0.0
  0
POLYLINE
  5
3A9
330
1F
100
AcDbEntity
  8
0
 62
     7
370
    13
100
AcDb2dPolyline
 66
     1
 10
0.0
 20
0.0
 30
0.0
  0
VERTEX
  5
3AA
330
3A9
100
AcDbEntity
  8
0
370
     0
100
AcDbVertex
100
AcDb2dVertex
 10
385.914734
 20
209.366364
 30
0.0
  0
VERTEX
  5
3AB
330
3A9
100
AcDbEntity
  8
0
370
     0
100
AcDbVertex
100
AcDb2dVertex
 10
388.398621
 20
209.366364
 30
0.0
  0
SEQEND
  5
3AC
330
3A9
100
AcDbEntity
  8
0
 62
     7
370
    13
  0
POLYLINE
  5
3AD
330
1F
100
AcDbEntity
  8
0
 62
     7
370
    13
100
AcDb2dPolyline
 66
     1
 10
0.0
 20
0.0
 30
0.0
  0
VERTEX
  5
3AE
330
3AD
100
AcDbEntity
  8
0
370
     0
100
AcDbVertex
100
AcDb2dVertex
 10
387.608307
 20
207.729263
 30
0.0
  0
VERTEX
  5
3AF
330
3AD
100
AcDbEntity
  8
0
370
     0
100
AcDbVertex
100
AcDb2dVertex
 10
385.914734
 20
207.729263
 30
0.0
  0
SEQEND
  5
3B0
330
3AD
100
AcDbEntity
  8
0
 62
     7
370
    13
  0
POLYLINE
  5
3B1
330
1F
100
AcDbEntity
  8
0
 62
     7
370
    13
100
AcDb2dPolyline
 66
     1
 10
0.0
 20
0.0
 30
0.0
  0
VERTEX
  5
3B2
330
3B1
100
AcDbEntity
  8
0
370
     0
100
AcDbVertex
100
AcDb2dVertex
 10
385.914734
 20
209.366364
 30
0.0
  0
VERTEX
  5
3B3
330
3B1
100
AcDbEntity
  8
0
370
     0
100
AcDbVertex
100
AcDb2dVertex
 10
385.914734
 20
205.866364
 30
0.0
  0
SEQEND
  5
3B4
330
3B1
100
AcDbEntity
  8
0
 62
     7
370
    13
  0
POLYLINE
  5
3B5
330
1F
100
AcDbEntity
  8
0
 62
     7
370
    13
100
AcDb2dPolyline
 66
     1
 10
0.0
 20
0.0
 30
0.0
  0
VERTEX
  5
3B6
330
3B5
100
AcDbEntity
  8
0
370
     0
100
AcDbVertex
100
AcDb2dVertex
 10
390.035706
 20
208.124435
 30
0.0
  0
VERTEX
  5
3B7
330
3B5
100
AcDbEntity
  8
0
370
     0
100
AcDbVertex
100
AcDb2dVertex
 10
390.035706
 20
205.866364
 30
0.0
  0
SEQEND
  5
3B8
330
3B5
100
AcDbEntity
  8
0
 62
     7
370
    13
  0
POLYLINE
  5
3B9
330
1F
100
AcDbEntity
  8
0
 62
     7
370
    13
100
AcDb2dPolyline
 66
     1
 10
0.0
 20
0.0
 30
0.0
  0
VERTEX
  5
3BA
330
3B9
100
AcDbEntity
  8
0
370
     0
100
AcDbVertex
100
AcDb2dVertex
 10
390.035706
 20
207.164749
 30
0.0
  0
VERTEX
  5
3BB
330
3B9
100
AcDbEntity
  8
0
370
     0
100
AcDbVertex
100
AcDb2dVertex
 10
390.205078
 20
207.616364
 30
0.0
  0
VERTEX
  5
3BC
330
3B9
100
AcDbEntity
  8
0
370
     0
100
AcDbVertex
100
AcDb2dVertex
 10
390.60022
 20
207.955078
 30
0.0
  0
VERTEX
  5
3BD
330
3B9
100
AcDbEntity
  8
0
370
     0
100
AcDbVertex
100
AcDb2dVertex
 10
390.938934
 20
208.124435
 30
0.0
  0
VERTEX
  5
3BE
330
3B9
100
AcDbEntity
  8
0
370
     0
100
AcDbVertex
100
AcDb2dVertex
 10
391.559906
 20
208.124435
 30
0.0
  0
SEQEND
  5
3BF
330
3B9
100
AcDbEntity
  8
0
 62
     7
370
    13
  0
POLYLINE
  5
3C0
330
1F
100
AcDbEntity
  8
0
 62
     7
370
    13
100
AcDb2dPolyline
 66
     1
 10
0.0
 20
0.0
 30
0.0
 70
     1
  0
VERTEX
  5
3C1
330
3C0
100
AcDbEntity
  8
0
370
     0
100
AcDbVertex
100
AcDb2dVertex
 10
393.479279
 20
208.124435
 30
0.0
  0
VERTEX
  5
3C2
330
3C0
100
AcDbEntity
  8
0
370
     0
100
AcDbVertex
100
AcDb2dVertex
 10
393.084106
 20
208.01152
 30
0.0
  0
VERTEX
  5
3C3
330
3C0
100
AcDbEntity
  8
0
370
     0
100
AcDbVertex
100
AcDb2dVertex
 10
392.632477
 20
207.616364
 30
0.0
  0
VERTEX
  5
3C4
330
3C0
100
AcDbEntity
  8
0
370
     0
100
AcDbVertex
100
AcDb2dVertex
 10
392.519592
 20
207.164749
 30
0.0
  0
VERTEX
  5
3C5
330
3C0
100
AcDbEntity
  8
0
370
     0
100
AcDbVertex
100
AcDb2dVertex
 10
392.519592
 20
206.826035
 30
0.0
  0
VERTEX
  5
3C6
330
3C0
100
AcDbEntity
  8
0
370
     0
100
AcDbVertex
100
AcDb2dVertex
 10
392.632477
 20
206.374435
 30
0.0
  0
VERTEX
  5
3C7
330
3C0
100
AcDbEntity
  8
0
370
     0
100
AcDbVertex
100
AcDb2dVertex
 10
393.084106
 20
205.979263
 30
0.0
  0
VERTEX
  5
3C8
330
3C0
100
AcDbEntity
  8
0
370
     0
100
AcDbVertex
100
AcDb2dVertex
 10
393.479279
 20
205.866364
 30
0.0
  0
VERTEX
  5
3C9
330
3C0
100
AcDbEntity
  8
0
370
     0
100
AcDbVertex
100
AcDb2dVertex
 10
394.10022
 20
205.866364
 30
0.0
  0
VERTEX
  5
3CA
330
3C0
100
AcDbEntity
  8
0
370
     0
100
AcDbVertex
100
AcDb2dVertex
 10
394.438934
 20
205.979263
 30
0.0
  0
VERTEX
  5
3CB
330
3C0
100
AcDbEntity
  8
0
370
     0
100
AcDbVertex
100
AcDb2dVertex
 10
394.890564
 20
206.374435
 30
0.0
  0
VERTEX
  5
3CC
330
3C0
100
AcDbEntity
  8
0
370
     0
100
AcDbVertex
100
AcDb2dVertex
 10
395.059906
 20
206.826035
 30
0.0
  0
VERTEX
  5
3CD
330
3C0
100
AcDbEntity
  8
0
370
     0
100
AcDbVertex
100
AcDb2dVertex
 10
395.059906
 20
207.164749
 30
0.0
  0
VERTEX
  5
3CE
330
3C0
100
AcDbEntity
  8
0
370
     0
100
AcDbVertex
100
AcDb2dVertex
 10
394.890564
 20
207.616364
 30
0.0
  0
VERTEX
  5
3CF
330
3C0
100
AcDbEntity
  8
0
370
     0
100
AcDbVertex
100
AcDb2dVertex
 10
394.438934
 20
208.01152
 30
0.0
  0
VERTEX
  5
3D0
330
3C0
100
AcDbEntity
  8
0
370
     0
100
AcDbVertex
100
AcDb2dVertex
 10
394.10022
 20
208.124435
 30
0.0
  0
SEQEND
  5
3D1
330
3C0
100
AcDbEntity
  8
0
 62
     7
370
    13
  0
POLYLINE
  5
3D2
330
1F
100
AcDbEntity
  8
0
 62
     7
370
    13
100
AcDb2dPolyline
 66
     1
 10
0.0
 20
0.0
 30
0.0
  0
VERTEX
  5
3D3
330
3D2
100
AcDbEntity
  8
0
370
     0
100
AcDbVertex
100
AcDb2dVertex
 10
398.164734
 20
205.866364
 30
0.0
  0
VERTEX
  5
3D4
330
3D2
100
AcDbEntity
  8
0
370
     0
100
AcDbVertex
100
AcDb2dVertex
 10
398.164734
 20
207.503464
 30
0.0
  0
VERTEX
  5
3D5
330
3D2
100
AcDbEntity
  8
0
370
     0
100
AcDbVertex
100
AcDb2dVertex
 10
397.995392
 20
207.955078
 30
0.0
  0
VERTEX
  5
3D6
330
3D2
100
AcDbEntity
  8
0
370
     0
100
AcDbVertex
100
AcDb2dVertex
 10
397.60022
 20
208.124435
 30
0.0
  0
VERTEX
  5
3D7
330
3D2
100
AcDbEntity
  8
0
370
     0
100
AcDbVertex
100
AcDb2dVertex
 10
396.979248
 20
208.124435
 30
0.0
  0
VERTEX
  5
3D8
330
3D2
100
AcDbEntity
  8
0
370
     0
100
AcDbVertex
100
AcDb2dVertex
 10
396.640564
 20
208.01152
 30
0.0
  0
VERTEX
  5
3D9
330
3D2
100
AcDbEntity
  8
0
370
     0
100
AcDbVertex
100
AcDb2dVertex
 10
396.019592
 20
207.559906
 30
0.0
  0
SEQEND
  5
3DA
330
3D2
100
AcDbEntity
  8
0
 62
     7
370
    13
  0
POLYLINE
  5
3DB
330
1F
100
AcDbEntity
  8
0
 62
     7
370
    13
100
AcDb2dPolyline
 66
     1
 10
0.0
 20
0.0
 30
0.0
  0
VERTEX
  5
3DC
330
3DB
100
AcDbEntity
  8
0
370
     0
100
AcDbVertex
100
AcDb2dVertex
 10
396.019592
 20
205.866364
 30
0.0
  0
VERTEX
  5
3DD
330
3DB
100
AcDbEntity
  8
0
370
     0
100
AcDbVertex
100
AcDb2dVertex
 10
396.019592
 20
208.124435
 30
0.0
  0
SEQEND
  5
3DE
330
3DB
100
AcDbEntity
  8
0
 62
     7
370
    13
  0
POLYLINE
  5
3DF
330
1F
100
AcDbEntity
  8
0
 62
     7
370
    13
100
AcDb2dPolyline
 66
     1
 10
0.0
 20
0.0
 30
0.0
  0
VERTEX
  5
3E0
330
3DF
100
AcDbEntity
  8
0
370
     0
100
AcDbVertex
100
AcDb2dVertex
 10
401.32605
 20
205.866364
 30
0.0
  0
VERTEX
  5
3E1
330
3DF
100
AcDbEntity
  8
0
370
     0
100
AcDbVertex
100
AcDb2dVertex
 10
400.930878
 20
205.866364
 30
0.0
  0
VERTEX
  5
3E2
330
3DF
100
AcDbEntity
  8
0
370
     0
100
AcDbVertex
100
AcDb2dVertex
 10
400.535706
 20
206.035721
 30
0.0
  0
VERTEX
  5
3E3
330
3DF
100
AcDbEntity
  8
0
370
     0
100
AcDbVertex
100
AcDb2dVertex
 10
400.366364
 20
206.487335
 30
0.0
  0
VERTEX
  5
3E4
330
3DF
100
AcDbEntity
  8
0
370
     0
100
AcDbVertex
100
AcDb2dVertex
 10
400.366364
 20
209.366364
 30
0.0
  0
SEQEND
  5
3E5
330
3DF
100
AcDbEntity
  8
0
 62
     7
370
    13
  0
POLYLINE
  5
3E6
330
1F
100
AcDbEntity
  8
0
 62
     7
370
    13
100
AcDb2dPolyline
 66
     1
 10
0.0
 20
0.0
 30
0.0
  0
VERTEX
  5
3E7
330
3E6
100
AcDbEntity
  8
0
370
     0
100
AcDbVertex
100
AcDb2dVertex
 10
399.745392
 20
208.237335
 30
0.0
  0
VERTEX
  5
3E8
330
3E6
100
AcDbEntity
  8
0
370
     0
100
AcDbVertex
100
AcDb2dVertex
 10
401.156677
 20
208.237335
 30
0.0
  0
SEQEND
  5
3E9
330
3E6
100
AcDbEntity
  8
0
 62
     7
370
    13
  0
POLYLINE
  5
3EA
330
1F
100
AcDbEntity
  8
0
 62
     7
370
    13
100
AcDb2dPolyline
 66
     1
 10
0.0
 20
0.0
 30
0.0
  0
VERTEX
  5
3EB
330
3EA
100
AcDbEntity
  8
0
370
     0
100
AcDbVertex
100
AcDb2dVertex
 10
406.12442
 20
208.124435
 30
0.0
  0
VERTEX
  5
3EC
330
3EA
100
AcDbEntity
  8
0
370
     0
100
AcDbVertex
100
AcDb2dVertex
 10
407.309906
 20
205.866364
 30
0.0
  0
VERTEX
  5
3ED
330
3EA
100
AcDbEntity
  8
0
370
     0
100
AcDbVertex
100
AcDb2dVertex
 10
408.495392
 20
208.124435
 30
0.0
  0
SEQEND
  5
3EE
330
3EA
100
AcDbEntity
  8
0
 62
     7
370
    13
  0
POLYLINE
  5
3EF
330
1F
100
AcDbEntity
  8
0
 62
     7
370
    13
100
AcDb2dPolyline
 66
     1
 10
0.0
 20
0.0
 30
0.0
  0
VERTEX
  5
3F0
330
3EF
100
AcDbEntity
  8
0
370
     0
100
AcDbVertex
100
AcDb2dVertex
 10
410.753448
 20
205.866364
 30
0.0
  0
VERTEX
  5
3F1
330
3EF
100
AcDbEntity
  8
0
370
     0
100
AcDbVertex
100
AcDb2dVertex
 10
410.753448
 20
207.955078
 30
0.0
  0
SEQEND
  5
3F2
330
3EF
100
AcDbEntity
  8
0
 62
     7
370
    13
  0
POLYLINE
  5
3F3
330
1F
100
AcDbEntity
  8
0
 62
     7
370
    13
100
AcDb2dPolyline
 66
     1
 10
0.0
 20
0.0
 30
0.0
 70
     1
  0
VERTEX
  5
3F4
330
3F3
100
AcDbEntity
  8
0
370
     0
100
AcDbVertex
100
AcDb2dVertex
 10
410.753448
 20
209.027649
 30
0.0
  0
VERTEX
  5
3F5
330
3F3
100
AcDbEntity
  8
0
370
     0
100
AcDbVertex
100
AcDb2dVertex
 10
410.866364
 20
208.914749
 30
0.0
  0
VERTEX
  5
3F6
330
3F3
100
AcDbEntity
  8
0
370
     0
100
AcDbVertex
100
AcDb2dVertex
 10
410.753448
 20
208.801849
 30
0.0
  0
VERTEX
  5
3F7
330
3F3
100
AcDbEntity
  8
0
370
     0
100
AcDbVertex
100
AcDb2dVertex
 10
410.640564
 20
208.914749
 30
0.0
  0
SEQEND
  5
3F8
330
3F3
100
AcDbEntity
  8
0
 62
     7
370
    13
  0
POLYLINE
  5
3F9
330
1F
100
AcDbEntity
  8
0
 62
     7
370
    13
100
AcDb2dPolyline
 66
     1
 10
0.0
 20
0.0
 30
0.0
  0
VERTEX
  5
3FA
330
3F9
100
AcDbEntity
  8
0
370
     0
100
AcDbVertex
100
AcDb2dVertex
 10
414.761536
 20
208.01152
 30
0.0
  0
VERTEX
  5
3FB
330
3F9
100
AcDbEntity
  8
0
370
     0
100
AcDbVertex
100
AcDb2dVertex
 10
414.422821
 20
208.124435
 30
0.0
  0
VERTEX
  5
3FC
330
3F9
100
AcDbEntity
  8
0
370
     0
100
AcDbVertex
100
AcDb2dVertex
 10
413.801849
 20
208.124435
 30
0.0
  0
VERTEX
  5
3FD
330
3F9
100
AcDbEntity
  8
0
370
     0
100
AcDbVertex
100
AcDb2dVertex
 10
413.406677
 20
208.01152
 30
0.0
  0
VERTEX
  5
3FE
330
3F9
100
AcDbEntity
  8
0
370
     0
100
AcDbVertex
100
AcDb2dVertex
 10
412.955078
 20
207.616364
 30
0.0
  0
VERTEX
  5
3FF
330
3F9
100
AcDbEntity
  8
0
370
     0
100
AcDbVertex
100
AcDb2dVertex
 10
412.842163
 20
207.164749
 30
0.0
  0
SEQEND
  5
400
330
3F9
100
AcDbEntity
  8
0
 62
     7
370
    13
  0
POLYLINE
  5
401
330
1F
100
AcDbEntity
  8
0
 62
     7
370
    13
100
AcDb2dPolyline
 66
     1
 10
0.0
 20
0.0
 30
0.0
  0
VERTEX
  5
402
330
401
100
AcDbEntity
  8
0
370
     0
100
AcDbVertex
100
AcDb2dVertex
 10
414.422821
 20
205.866364
 30
0.0
  0
VERTEX
  5
403
330
401
100
AcDbEntity
  8
0
370
     0
100
AcDbVertex
100
AcDb2dVertex
 10
414.761536
 20
205.979263
 30
0.0
  0
VERTEX
  5
404
330
401
100
AcDbEntity
  8
0
370
     0
100
AcDbVertex
100
AcDb2dVertex
 10
415.213135
 20
206.374435
 30
0.0
  0
SEQEND
  5
405
330
401
100
AcDbEntity
  8
0
 62
     7
370
    13
  0
POLYLINE
  5
406
330
1F
100
AcDbEntity
  8
0
 62
     7
370
    13
100
AcDb2dPolyline
 66
     1
 10
0.0
 20
0.0
 30
0.0
  0
VERTEX
  5
407
330
406
100
AcDbEntity
  8
0
370
     0
100
AcDbVertex
100
AcDb2dVertex
 10
413.801849
 20
205.866364
 30
0.0
  0
VERTEX
  5
408
330
406
100
AcDbEntity
  8
0
370
     0
100
AcDbVertex
100
AcDb2dVertex
 10
414.422821
 20
205.866364
 30
0.0
  0
SEQEND
  5
409
330
406
100
AcDbEntity
  8
0
 62
     7
370
    13
  0
POLYLINE
  5
40A
330
1F
100
AcDbEntity
  8
0
 62
     7
370
    13
100
AcDb2dPolyline
 66
     1
 10
0.0
 20
0.0
 30
0.0
  0
VERTEX
  5
40B
330
40A
100
AcDbEntity
  8
0
370
     0
100
AcDbVertex
100
AcDb2dVertex
 10
412.955078
 20
206.374435
 30
0.0
  0
VERTEX
  5
40C
330
40A
100
AcDbEntity
  8
0
370
     0
100
AcDbVertex
100
AcDb2dVertex
 10
412.842163
 20
206.826035
 30
0.0
  0
SEQEND
  5
40D
330
40A
100
AcDbEntity
  8
0
 62
     7
370
    13
  0
POLYLINE
  5
40E
330
1F
100
AcDbEntity
  8
0
 62
     7
370
    13
100
AcDb2dPolyline
 66
     1
 10
0.0
 20
0.0
 30
0.0
  0
VERTEX
  5
40F
330
40E
100
AcDbEntity
  8
0
370
     0
100
AcDbVertex
100
AcDb2dVertex
 10
412.842163
 20
207.164749
 30
0.0
  0
VERTEX
  5
410
330
40E
100
AcDbEntity
  8
0
370
     0
100
AcDbVertex
100
AcDb2dVertex
 10
412.842163
 20
206.826035
 30
0.0
  0
SEQEND
  5
411
330
40E
100
AcDbEntity
  8
0
 62
     7
370
    13
  0
POLYLINE
  5
412
330
1F
100
AcDbEntity
  8
0
 62
     7
370
    13
100
AcDb2dPolyline
 66
     1
 10
0.0
 20
0.0
 30
0.0
  0
VERTEX
  5
413
330
412
100
AcDbEntity
  8
0
370
     0
100
AcDbVertex
100
AcDb2dVertex
 10
413.801849
 20
205.866364
 30
0.0
  0
VERTEX
  5
414
330
412
100
AcDbEntity
  8
0
370
     0
100
AcDbVertex
100
AcDb2dVertex
 10
413.406677
 20
205.979263
 30
0.0
  0
VERTEX
  5
415
330
412
100
AcDbEntity
  8
0
370
     0
100
AcDbVertex
100
AcDb2dVertex
 10
412.955078
 20
206.374435
 30
0.0
  0
SEQEND
  5
416
330
412
100
AcDbEntity
  8
0
 62
     7
370
    13
  0
POLYLINE
  5
417
330
1F
100
AcDbEntity
  8
0
 62
     7
370
    13
100
AcDb2dPolyline
 66
     1
 10
0.0
 20
0.0
 30
0.0
  0
VERTEX
  5
418
330
417
100
AcDbEntity
  8
0
370
     0
100
AcDbVertex
100
AcDb2dVertex
 10
415.213135
 20
207.051849
 30
0.0
  0
VERTEX
  5
419
330
417
100
AcDbEntity
  8
0
370
     0
100
AcDbVertex
100
AcDb2dVertex
 10
415.213135
 20
207.447006
 30
0.0
  0
VERTEX
  5
41A
330
417
100
AcDbEntity
  8
0
370
     0
100
AcDbVertex
100
AcDb2dVertex
 10
415.043793
 20
207.785721
 30
0.0
  0
SEQEND
  5
41B
330
417
100
AcDbEntity
  8
0
 62
     7
370
    13
  0
POLYLINE
  5
41C
330
1F
100
AcDbEntity
  8
0
 62
     7
370
    13
100
AcDb2dPolyline
 66
     1
 10
0.0
 20
0.0
 30
0.0
  0
VERTEX
  5
41D
330
41C
100
AcDbEntity
  8
0
370
     0
100
AcDbVertex
100
AcDb2dVertex
 10
414.761536
 20
208.01152
 30
0.0
  0
VERTEX
  5
41E
330
41C
100
AcDbEntity
  8
0
370
     0
100
AcDbVertex
100
AcDb2dVertex
 10
415.043793
 20
207.785721
 30
0.0
  0
SEQEND
  5
41F
330
41C
100
AcDbEntity
  8
0
 62
     7
370
    13
  0
POLYLINE
  5
420
330
1F
100
AcDbEntity
  8
0
 62
     7
370
    13
100
AcDb2dPolyline
 66
     1
 10
0.0
 20
0.0
 30
0.0
  0
VERTEX
  5
421
330
420
100
AcDbEntity
  8
0
370
     0
100
AcDbVertex
100
AcDb2dVertex
 10
415.213135
 20
207.051849
 30
0.0
  0
VERTEX
  5
422
330
420
100
AcDbEntity
  8
0
370
     0
100
AcDbVertex
100
AcDb2dVertex
 10
412.842163
 20
207.051849
 30
0.0
  0
SEQEND
  5
423
330
420
100
AcDbEntity
  8
0
 62
     7
370
    13
  0
POLYLINE
  5
424
330
1F
100
AcDbEntity
  8
0
 62
     7
370
    13
100
AcDb2dPolyline
 66
     1
 10
0.0
 20
0.0
 30
0.0
  0
VERTEX
  5
425
330
424
100
AcDbEntity
  8
0
370
     0
100
AcDbVertex
100
AcDb2dVertex
 10
415.946991
 20
208.124435
 30
0.0
  0
VERTEX
  5
426
330
424
100
AcDbEntity
  8
0
370
     0
100
AcDbVertex
100
AcDb2dVertex
 10
416.737335
 20
205.866364
 30
0.0
  0
VERTEX
  5
427
330
424
100
AcDbEntity
  8
0
370
     0
100
AcDbVertex
100
AcDb2dVertex
 10
417.471191
 20
208.124435
 30
0.0
  0
VERTEX
  5
428
330
424
100
AcDbEntity
  8
0
370
     0
100
AcDbVertex
100
AcDb2dVertex
 10
418.205078
 20
205.866364
 30
0.0
  0
VERTEX
  5
429
330
424
100
AcDbEntity
  8
0
370
     0
100
AcDbVertex
100
AcDb2dVertex
 10
418.995392
 20
208.124435
 30
0.0
  0
SEQEND
  5
42A
330
424
100
AcDbEntity
  8
0
 62
     7
370
    13
  0
POLYLINE
  5
42B
330
1F
100
AcDbEntity
  8
0
 62
     7
370
    13
100
AcDb2dPolyline
 66
     1
 10
0.0
 20
0.0
 30
0.0
  0
VERTEX
  5
42C
330
42B
100
AcDbEntity
  8
0
370
     0
100
AcDbVertex
100
AcDb2dVertex
 10
388.62442
 20
202.648621
 30
0.0
  0
VERTEX
  5
42D
330
42B
100
AcDbEntity
  8
0
370
     0
100
AcDbVertex
100
AcDb2dVertex
 10
388.172821
 20
203.043777
 30
0.0
  0
VERTEX
  5
42E
330
42B
100
AcDbEntity
  8
0
370
     0
100
AcDbVertex
100
AcDb2dVertex
 10
387.495392
 20
203.213135
 30
0.0
  0
VERTEX
  5
42F
330
42B
100
AcDbEntity
  8
0
370
     0
100
AcDbVertex
100
AcDb2dVertex
 10
386.817963
 20
203.213135
 30
0.0
  0
VERTEX
  5
430
330
42B
100
AcDbEntity
  8
0
370
     0
100
AcDbVertex
100
AcDb2dVertex
 10
386.140564
 20
203.043777
 30
0.0
  0
VERTEX
  5
431
330
42B
100
AcDbEntity
  8
0
370
     0
100
AcDbVertex
100
AcDb2dVertex
 10
385.688934
 20
202.592163
 30
0.0
  0
VERTEX
  5
432
330
42B
100
AcDbEntity
  8
0
370
     0
100
AcDbVertex
100
AcDb2dVertex
 10
385.688934
 20
202.197006
 30
0.0
  0
VERTEX
  5
433
330
42B
100
AcDbEntity
  8
0
370
     0
100
AcDbVertex
100
AcDb2dVertex
 10
386.084106
 20
201.801849
 30
0.0
  0
SEQEND
  5
434
330
42B
100
AcDbEntity
  8
0
 62
     7
370
    13
  0
POLYLINE
  5
435
330
1F
100
AcDbEntity
  8
0
 62
     7
370
    13
100
AcDb2dPolyline
 66
     1
 10
0.0
 20
0.0
 30
0.0
  0
VERTEX
  5
436
330
435
100
AcDbEntity
  8
0
370
     0
100
AcDbVertex
100
AcDb2dVertex
 10
387.156677
 20
201.519592
 30
0.0
  0
VERTEX
  5
437
330
435
100
AcDbEntity
  8
0
370
     0
100
AcDbVertex
100
AcDb2dVertex
 10
387.664734
 20
201.406677
 30
0.0
  0
SEQEND
  5
438
330
435
100
AcDbEntity
  8
0
 62
     7
370
    13
  0
POLYLINE
  5
439
330
1F
100
AcDbEntity
  8
0
 62
     7
370
    13
100
AcDb2dPolyline
 66
     1
 10
0.0
 20
0.0
 30
0.0
  0
VERTEX
  5
43A
330
439
100
AcDbEntity
  8
0
370
     0
100
AcDbVertex
100
AcDb2dVertex
 10
388.172821
 20
199.826035
 30
0.0
  0
VERTEX
  5
43B
330
439
100
AcDbEntity
  8
0
370
     0
100
AcDbVertex
100
AcDb2dVertex
 10
387.495392
 20
199.713135
 30
0.0
  0
VERTEX
  5
43C
330
439
100
AcDbEntity
  8
0
370
     0
100
AcDbVertex
100
AcDb2dVertex
 10
386.817963
 20
199.713135
 30
0.0
  0
VERTEX
  5
43D
330
439
100
AcDbEntity
  8
0
370
     0
100
AcDbVertex
100
AcDb2dVertex
 10
386.140564
 20
199.938934
 30
0.0
  0
VERTEX
  5
43E
330
439
100
AcDbEntity
  8
0
370
     0
100
AcDbVertex
100
AcDb2dVertex
 10
385.688934
 20
200.334106
 30
0.0
  0
SEQEND
  5
43F
330
439
100
AcDbEntity
  8
0
 62
     7
370
    13
  0
POLYLINE
  5
440
330
1F
100
AcDbEntity
  8
0
 62
     7
370
    13
100
AcDb2dPolyline
 66
     1
 10
0.0
 20
0.0
 30
0.0
  0
VERTEX
  5
441
330
440
100
AcDbEntity
  8
0
370
     0
100
AcDbVertex
100
AcDb2dVertex
 10
386.705078
 20
201.576035
 30
0.0
  0
VERTEX
  5
442
330
440
100
AcDbEntity
  8
0
370
     0
100
AcDbVertex
100
AcDb2dVertex
 10
387.156677
 20
201.519592
 30
0.0
  0
SEQEND
  5
443
330
440
100
AcDbEntity
  8
0
 62
     7
370
    13
  0
POLYLINE
  5
444
330
1F
100
AcDbEntity
  8
0
 62
     7
370
    13
100
AcDb2dPolyline
 66
     1
 10
0.0
 20
0.0
 30
0.0
  0
VERTEX
  5
445
330
444
100
AcDbEntity
  8
0
370
     0
100
AcDbVertex
100
AcDb2dVertex
 10
386.084106
 20
201.801849
 30
0.0
  0
VERTEX
  5
446
330
444
100
AcDbEntity
  8
0
370
     0
100
AcDbVertex
100
AcDb2dVertex
 10
386.705078
 20
201.576035
 30
0.0
  0
SEQEND
  5
447
330
444
100
AcDbEntity
  8
0
 62
     7
370
    13
  0
POLYLINE
  5
448
330
1F
100
AcDbEntity
  8
0
 62
     7
370
    13
100
AcDb2dPolyline
 66
     1
 10
0.0
 20
0.0
 30
0.0
  0
VERTEX
  5
449
330
448
100
AcDbEntity
  8
0
370
     0
100
AcDbVertex
100
AcDb2dVertex
 10
388.62442
 20
200.277649
 30
0.0
  0
VERTEX
  5
44A
330
448
100
AcDbEntity
  8
0
370
     0
100
AcDbVertex
100
AcDb2dVertex
 10
388.172821
 20
199.826035
 30
0.0
  0
SEQEND
  5
44B
330
448
100
AcDbEntity
  8
0
 62
     7
370
    13
  0
POLYLINE
  5
44C
330
1F
100
AcDbEntity
  8
0
 62
     7
370
    13
100
AcDb2dPolyline
 66
     1
 10
0.0
 20
0.0
 30
0.0
  0
VERTEX
  5
44D
330
44C
100
AcDbEntity
  8
0
370
     0
100
AcDbVertex
100
AcDb2dVertex
 10
388.62442
 20
200.785721
 30
0.0
  0
VERTEX
  5
44E
330
44C
100
AcDbEntity
  8
0
370
     0
100
AcDbVertex
100
AcDb2dVertex
 10
388.62442
 20
200.277649
 30
0.0
  0
SEQEND
  5
44F
330
44C
100
AcDbEntity
  8
0
 62
     7
370
    13
  0
POLYLINE
  5
450
330
1F
100
AcDbEntity
  8
0
 62
     7
370
    13
100
AcDb2dPolyline
 66
     1
 10
0.0
 20
0.0
 30
0.0
  0
VERTEX
  5
451
330
450
100
AcDbEntity
  8
0
370
     0
100
AcDbVertex
100
AcDb2dVertex
 10
387.664734
 20
201.406677
 30
0.0
  0
VERTEX
  5
452
330
450
100
AcDbEntity
  8
0
370
     0
100
AcDbVertex
100
AcDb2dVertex
 10
388.172821
 20
201.180878
 30
0.0
  0
VERTEX
  5
453
330
450
100
AcDbEntity
  8
0
370
     0
100
AcDbVertex
100
AcDb2dVertex
 10
388.62442
 20
200.785721
 30
0.0
  0
SEQEND
  5
454
330
450
100
AcDbEntity
  8
0
 62
     7
370
    13
  0
POLYLINE
  5
455
330
1F
100
AcDbEntity
  8
0
 62
     7
370
    13
100
AcDb2dPolyline
 66
     1
 10
0.0
 20
0.0
 30
0.0
  0
VERTEX
  5
456
330
455
100
AcDbEntity
  8
0
370
     0
100
AcDbVertex
100
AcDb2dVertex
 10
391.503448
 20
201.463135
 30
0.0
  0
VERTEX
  5
457
330
455
100
AcDbEntity
  8
0
370
     0
100
AcDbVertex
100
AcDb2dVertex
 10
391.051849
 20
201.858292
 30
0.0
  0
VERTEX
  5
458
330
455
100
AcDbEntity
  8
0
370
     0
100
AcDbVertex
100
AcDb2dVertex
 10
390.713135
 20
201.971207
 30
0.0
  0
VERTEX
  5
459
330
455
100
AcDbEntity
  8
0
370
     0
100
AcDbVertex
100
AcDb2dVertex
 10
390.092163
 20
201.971207
 30
0.0
  0
VERTEX
  5
45A
330
455
100
AcDbEntity
  8
0
370
     0
100
AcDbVertex
100
AcDb2dVertex
 10
389.696991
 20
201.858292
 30
0.0
  0
VERTEX
  5
45B
330
455
100
AcDbEntity
  8
0
370
     0
100
AcDbVertex
100
AcDb2dVertex
 10
389.245392
 20
201.463135
 30
0.0
  0
VERTEX
  5
45C
330
455
100
AcDbEntity
  8
0
370
     0
100
AcDbVertex
100
AcDb2dVertex
 10
389.132477
 20
201.01152
 30
0.0
  0
SEQEND
  5
45D
330
455
100
AcDbEntity
  8
0
 62
     7
370
    13
  0
POLYLINE
  5
45E
330
1F
100
AcDbEntity
  8
0
 62
     7
370
    13
100
AcDb2dPolyline
 66
     1
 10
0.0
 20
0.0
 30
0.0
  0
VERTEX
  5
45F
330
45E
100
AcDbEntity
  8
0
370
     0
100
AcDbVertex
100
AcDb2dVertex
 10
390.713135
 20
199.713135
 30
0.0
  0
VERTEX
  5
460
330
45E
100
AcDbEntity
  8
0
370
     0
100
AcDbVertex
100
AcDb2dVertex
 10
391.051849
 20
199.826035
 30
0.0
  0
VERTEX
  5
461
330
45E
100
AcDbEntity
  8
0
370
     0
100
AcDbVertex
100
AcDb2dVertex
 10
391.503448
 20
200.221207
 30
0.0
  0
SEQEND
  5
462
330
45E
100
AcDbEntity
  8
0
 62
     7
370
    13
  0
POLYLINE
  5
463
330
1F
100
AcDbEntity
  8
0
 62
     7
370
    13
100
AcDb2dPolyline
 66
     1
 10
0.0
 20
0.0
 30
0.0
  0
VERTEX
  5
464
330
463
100
AcDbEntity
  8
0
370
     0
100
AcDbVertex
100
AcDb2dVertex
 10
390.092163
 20
199.713135
 30
0.0
  0
VERTEX
  5
465
330
463
100
AcDbEntity
  8
0
370
     0
100
AcDbVertex
100
AcDb2dVertex
 10
390.713135
 20
199.713135
 30
0.0
  0
SEQEND
  5
466
330
463
100
AcDbEntity
  8
0
 62
     7
370
    13
  0
POLYLINE
  5
467
330
1F
100
AcDbEntity
  8
0
 62
     7
370
    13
100
AcDb2dPolyline
 66
     1
 10
0.0
 20
0.0
 30
0.0
  0
VERTEX
  5
468
330
467
100
AcDbEntity
  8
0
370
     0
100
AcDbVertex
100
AcDb2dVertex
 10
389.245392
 20
200.221207
 30
0.0
  0
VERTEX
  5
469
330
467
100
AcDbEntity
  8
0
370
     0
100
AcDbVertex
100
AcDb2dVertex
 10
389.132477
 20
200.672806
 30
0.0
  0
SEQEND
  5
46A
330
467
100
AcDbEntity
  8
0
 62
     7
370
    13
  0
POLYLINE
  5
46B
330
1F
100
AcDbEntity
  8
0
 62
     7
370
    13
100
AcDb2dPolyline
 66
     1
 10
0.0
 20
0.0
 30
0.0
  0
VERTEX
  5
46C
330
46B
100
AcDbEntity
  8
0
370
     0
100
AcDbVertex
100
AcDb2dVertex
 10
389.132477
 20
201.01152
 30
0.0
  0
VERTEX
  5
46D
330
46B
100
AcDbEntity
  8
0
370
     0
100
AcDbVertex
100
AcDb2dVertex
 10
389.132477
 20
200.672806
 30
0.0
  0
SEQEND
  5
46E
330
46B
100
AcDbEntity
  8
0
 62
     7
370
    13
  0
POLYLINE
  5
46F
330
1F
100
AcDbEntity
  8
0
 62
     7
370
    13
100
AcDb2dPolyline
 66
     1
 10
0.0
 20
0.0
 30
0.0
  0
VERTEX
  5
470
330
46F
100
AcDbEntity
  8
0
370
     0
100
AcDbVertex
100
AcDb2dVertex
 10
390.092163
 20
199.713135
 30
0.0
  0
VERTEX
  5
471
330
46F
100
AcDbEntity
  8
0
370
     0
100
AcDbVertex
100
AcDb2dVertex
 10
389.696991
 20
199.826035
 30
0.0
  0
VERTEX
  5
472
330
46F
100
AcDbEntity
  8
0
370
     0
100
AcDbVertex
100
AcDb2dVertex
 10
389.245392
 20
200.221207
 30
0.0
  0
SEQEND
  5
473
330
46F
100
AcDbEntity
  8
0
 62
     7
370
    13
  0
POLYLINE
  5
474
330
1F
100
AcDbEntity
  8
0
 62
     7
370
    13
100
AcDb2dPolyline
 66
     1
 10
0.0
 20
0.0
 30
0.0
  0
VERTEX
  5
475
330
474
100
AcDbEntity
  8
0
370
     0
100
AcDbVertex
100
AcDb2dVertex
 10
394.890564
 20
201.463135
 30
0.0
  0
VERTEX
  5
476
330
474
100
AcDbEntity
  8
0
370
     0
100
AcDbVertex
100
AcDb2dVertex
 10
394.438934
 20
201.858292
 30
0.0
  0
VERTEX
  5
477
330
474
100
AcDbEntity
  8
0
370
     0
100
AcDbVertex
100
AcDb2dVertex
 10
394.10022
 20
201.971207
 30
0.0
  0
VERTEX
  5
478
330
474
100
AcDbEntity
  8
0
370
     0
100
AcDbVertex
100
AcDb2dVertex
 10
393.479279
 20
201.971207
 30
0.0
  0
VERTEX
  5
479
330
474
100
AcDbEntity
  8
0
370
     0
100
AcDbVertex
100
AcDb2dVertex
 10
393.084106
 20
201.858292
 30
0.0
  0
VERTEX
  5
47A
330
474
100
AcDbEntity
  8
0
370
     0
100
AcDbVertex
100
AcDb2dVertex
 10
392.632477
 20
201.463135
 30
0.0
  0
VERTEX
  5
47B
330
474
100
AcDbEntity
  8
0
370
     0
100
AcDbVertex
100
AcDb2dVertex
 10
392.519592
 20
201.01152
 30
0.0
  0
SEQEND
  5
47C
330
474
100
AcDbEntity
  8
0
 62
     7
370
    13
  0
POLYLINE
  5
47D
330
1F
100
AcDbEntity
  8
0
 62
     7
370
    13
100
AcDb2dPolyline
 66
     1
 10
0.0
 20
0.0
 30
0.0
  0
VERTEX
  5
47E
330
47D
100
AcDbEntity
  8
0
370
     0
100
AcDbVertex
100
AcDb2dVertex
 10
394.10022
 20
199.713135
 30
0.0
  0
VERTEX
  5
47F
330
47D
100
AcDbEntity
  8
0
370
     0
100
AcDbVertex
100
AcDb2dVertex
 10
394.438934
 20
199.826035
 30
0.0
  0
VERTEX
  5
480
330
47D
100
AcDbEntity
  8
0
370
     0
100
AcDbVertex
100
AcDb2dVertex
 10
394.890564
 20
200.221207
 30
0.0
  0
SEQEND
  5
481
330
47D
100
AcDbEntity
  8
0
 62
     7
370
    13
  0
POLYLINE
  5
482
330
1F
100
AcDbEntity
  8
0
 62
     7
370
    13
100
AcDb2dPolyline
 66
     1
 10
0.0
 20
0.0
 30
0.0
  0
VERTEX
  5
483
330
482
100
AcDbEntity
  8
0
370
     0
100
AcDbVertex
100
AcDb2dVertex
 10
393.479279
 20
199.713135
 30
0.0
  0
VERTEX
  5
484
330
482
100
AcDbEntity
  8
0
370
     0
100
AcDbVertex
100
AcDb2dVertex
 10
394.10022
 20
199.713135
 30
0.0
  0
SEQEND
  5
485
330
482
100
AcDbEntity
  8
0
 62
     7
370
    13
  0
POLYLINE
  5
486
330
1F
100
AcDbEntity
  8
0
 62
     7
370
    13
100
AcDb2dPolyline
 66
     1
 10
0.0
 20
0.0
 30
0.0
  0
VERTEX
  5
487
330
486
100
AcDbEntity
  8
0
370
     0
100
AcDbVertex
100
AcDb2dVertex
 10
392.632477
 20
200.221207
 30
0.0
  0
VERTEX
  5
488
330
486
100
AcDbEntity
  8
0
370
     0
100
AcDbVertex
100
AcDb2dVertex
 10
392.519592
 20
200.672806
 30
0.0
  0
SEQEND
  5
489
330
486
100
AcDbEntity
  8
0
 62
     7
370
    13
  0
POLYLINE
  5
48A
330
1F
100
AcDbEntity
  8
0
 62
     7
370
    13
100
AcDb2dPolyline
 66
     1
 10
0.0
 20
0.0
 30
0.0
  0
VERTEX
  5
48B
330
48A
100
AcDbEntity
  8
0
370
     0
100
AcDbVertex
100
AcDb2dVertex
 10
392.519592
 20
201.01152
 30
0.0
  0
VERTEX
  5
48C
330
48A
100
AcDbEntity
  8
0
370
     0
100
AcDbVertex
100
AcDb2dVertex
 10
392.519592
 20
200.672806
 30
0.0
  0
SEQEND
  5
48D
330
48A
100
AcDbEntity
  8
0
 62
     7
370
    13
  0
POLYLINE
  5
48E
330
1F
100
AcDbEntity
  8
0
 62
     7
370
    13
100
AcDb2dPolyline
 66
     1
 10
0.0
 20
0.0
 30
0.0
  0
VERTEX
  5
48F
330
48E
100
AcDbEntity
  8
0
370
     0
100
AcDbVertex
100
AcDb2dVertex
 10
393.479279
 20
199.713135
 30
0.0
  0
VERTEX
  5
490
330
48E
100
AcDbEntity
  8
0
370
     0
100
AcDbVertex
100
AcDb2dVertex
 10
393.084106
 20
199.826035
 30
0.0
  0
VERTEX
  5
491
330
48E
100
AcDbEntity
  8
0
370
     0
100
AcDbVertex
100
AcDb2dVertex
 10
392.632477
 20
200.221207
 30
0.0
  0
SEQEND
  5
492
330
48E
100
AcDbEntity
  8
0
 62
     7
370
    13
  0
POLYLINE
  5
493
330
1F
100
AcDbEntity
  8
0
 62
     7
370
    13
100
AcDb2dPolyline
 66
     1
 10
0.0
 20
0.0
 30
0.0
  0
VERTEX
  5
494
330
493
100
AcDbEntity
  8
0
370
     0
100
AcDbVertex
100
AcDb2dVertex
 10
394.890564
 20
199.713135
 30
0.0
  0
VERTEX
  5
495
330
493
100
AcDbEntity
  8
0
370
     0
100
AcDbVertex
100
AcDb2dVertex
 10
394.890564
 20
201.971207
 30
0.0
  0
SEQEND
  5
496
330
493
100
AcDbEntity
  8
0
 62
     7
370
    13
  0
POLYLINE
  5
497
330
1F
100
AcDbEntity
  8
0
 62
     7
370
    13
100
AcDb2dPolyline
 66
     1
 10
0.0
 20
0.0
 30
0.0
  0
VERTEX
  5
498
330
497
100
AcDbEntity
  8
0
370
     0
100
AcDbVertex
100
AcDb2dVertex
 10
397.317963
 20
203.213135
 30
0.0
  0
VERTEX
  5
499
330
497
100
AcDbEntity
  8
0
370
     0
100
AcDbVertex
100
AcDb2dVertex
 10
397.317963
 20
199.713135
 30
0.0
  0
SEQEND
  5
49A
330
497
100
AcDbEntity
  8
0
 62
     7
370
    13
  0
POLYLINE
  5
49B
330
1F
100
AcDbEntity
  8
0
 62
     7
370
    13
100
AcDb2dPolyline
 66
     1
 10
0.0
 20
0.0
 30
0.0
  0
VERTEX
  5
49C
330
49B
100
AcDbEntity
  8
0
370
     0
100
AcDbVertex
100
AcDb2dVertex
 10
401.213135
 20
201.858292
 30
0.0
  0
VERTEX
  5
49D
330
49B
100
AcDbEntity
  8
0
370
     0
100
AcDbVertex
100
AcDb2dVertex
 10
400.87442
 20
201.971207
 30
0.0
  0
VERTEX
  5
49E
330
49B
100
AcDbEntity
  8
0
370
     0
100
AcDbVertex
100
AcDb2dVertex
 10
400.253448
 20
201.971207
 30
0.0
  0
VERTEX
  5
49F
330
49B
100
AcDbEntity
  8
0
370
     0
100
AcDbVertex
100
AcDb2dVertex
 10
399.858307
 20
201.858292
 30
0.0
  0
VERTEX
  5
4A0
330
49B
100
AcDbEntity
  8
0
370
     0
100
AcDbVertex
100
AcDb2dVertex
 10
399.406677
 20
201.463135
 30
0.0
  0
VERTEX
  5
4A1
330
49B
100
AcDbEntity
  8
0
370
     0
100
AcDbVertex
100
AcDb2dVertex
 10
399.293793
 20
201.01152
 30
0.0
  0
SEQEND
  5
4A2
330
49B
100
AcDbEntity
  8
0
 62
     7
370
    13
  0
POLYLINE
  5
4A3
330
1F
100
AcDbEntity
  8
0
 62
     7
370
    13
100
AcDb2dPolyline
 66
     1
 10
0.0
 20
0.0
 30
0.0
  0
VERTEX
  5
4A4
330
4A3
100
AcDbEntity
  8
0
370
     0
100
AcDbVertex
100
AcDb2dVertex
 10
400.87442
 20
199.713135
 30
0.0
  0
VERTEX
  5
4A5
330
4A3
100
AcDbEntity
  8
0
370
     0
100
AcDbVertex
100
AcDb2dVertex
 10
401.213135
 20
199.826035
 30
0.0
  0
VERTEX
  5
4A6
330
4A3
100
AcDbEntity
  8
0
370
     0
100
AcDbVertex
100
AcDb2dVertex
 10
401.664734
 20
200.221207
 30
0.0
  0
SEQEND
  5
4A7
330
4A3
100
AcDbEntity
  8
0
 62
     7
370
    13
  0
POLYLINE
  5
4A8
330
1F
100
AcDbEntity
  8
0
 62
     7
370
    13
100
AcDb2dPolyline
 66
     1
 10
0.0
 20
0.0
 30
0.0
  0
VERTEX
  5
4A9
330
4A8
100
AcDbEntity
  8
0
370
     0
100
AcDbVertex
100
AcDb2dVertex
 10
400.253448
 20
199.713135
 30
0.0
  0
VERTEX
  5
4AA
330
4A8
100
AcDbEntity
  8
0
370
     0
100
AcDbVertex
100
AcDb2dVertex
 10
400.87442
 20
199.713135
 30
0.0
  0
SEQEND
  5
4AB
330
4A8
100
AcDbEntity
  8
0
 62
     7
370
    13
  0
POLYLINE
  5
4AC
330
1F
100
AcDbEntity
  8
0
 62
     7
370
    13
100
AcDb2dPolyline
 66
     1
 10
0.0
 20
0.0
 30
0.0
  0
VERTEX
  5
4AD
330
4AC
100
AcDbEntity
  8
0
370
     0
100
AcDbVertex
100
AcDb2dVertex
 10
399.406677
 20
200.221207
 30
0.0
  0
VERTEX
  5
4AE
330
4AC
100
AcDbEntity
  8
0
370
     0
100
AcDbVertex
100
AcDb2dVertex
 10
399.293793
 20
200.672806
 30
0.0
  0
SEQEND
  5
4AF
330
4AC
100
AcDbEntity
  8
0
 62
     7
370
    13
  0
POLYLINE
  5
4B0
330
1F
100
AcDbEntity
  8
0
 62
     7
370
    13
100
AcDb2dPolyline
 66
     1
 10
0.0
 20
0.0
 30
0.0
  0
VERTEX
  5
4B1
330
4B0
100
AcDbEntity
  8
0
370
     0
100
AcDbVertex
100
AcDb2dVertex
 10
399.293793
 20
201.01152
 30
0.0
  0
VERTEX
  5
4B2
330
4B0
100
AcDbEntity
  8
0
370
     0
100
AcDbVertex
100
AcDb2dVertex
 10
399.293793
 20
200.672806
 30
0.0
  0
SEQEND
  5
4B3
330
4B0
100
AcDbEntity
  8
0
 62
     7
370
    13
  0
POLYLINE
  5
4B4
330
1F
100
AcDbEntity
  8
0
 62
     7
370
    13
100
AcDb2dPolyline
 66
     1
 10
0.0
 20
0.0
 30
0.0
  0
VERTEX
  5
4B5
330
4B4
100
AcDbEntity
  8
0
370
     0
100
AcDbVertex
100
AcDb2dVertex
 10
400.253448
 20
199.713135
 30
0.0
  0
VERTEX
  5
4B6
330
4B4
100
AcDbEntity
  8
0
370
     0
100
AcDbVertex
100
AcDb2dVertex
 10
399.858307
 20
199.826035
 30
0.0
  0
VERTEX
  5
4B7
330
4B4
100
AcDbEntity
  8
0
370
     0
100
AcDbVertex
100
AcDb2dVertex
 10
399.406677
 20
200.221207
 30
0.0
  0
SEQEND
  5
4B8
330
4B4
100
AcDbEntity
  8
0
 62
     7
370
    13
  0
POLYLINE
  5
4B9
330
1F
100
AcDbEntity
  8
0
 62
     7
370
    13
100
AcDb2dPolyline
 66
     1
 10
0.0
 20
0.0
 30
0.0
  0
VERTEX
  5
4BA
330
4B9
100
AcDbEntity
  8
0
370
     0
100
AcDbVertex
100
AcDb2dVertex
 10
401.664734
 20
200.898621
 30
0.0
  0
VERTEX
  5
4BB
330
4B9
100
AcDbEntity
  8
0
370
     0
100
AcDbVertex
100
AcDb2dVertex
 10
401.664734
 20
201.293777
 30
0.0
  0
VERTEX
  5
4BC
330
4B9
100
AcDbEntity
  8
0
370
     0
100
AcDbVertex
100
AcDb2dVertex
 10
401.495392
 20
201.632492
 30
0.0
  0
SEQEND
  5
4BD
330
4B9
100
AcDbEntity
  8
0
 62
     7
370
    13
  0
POLYLINE
  5
4BE
330
1F
100
AcDbEntity
  8
0
 62
     7
370
    13
100
AcDb2dPolyline
 66
     1
 10
0.0
 20
0.0
 30
0.0
  0
VERTEX
  5
4BF
330
4BE
100
AcDbEntity
  8
0
370
     0
100
AcDbVertex
100
AcDb2dVertex
 10
401.213135
 20
201.858292
 30
0.0
  0
VERTEX
  5
4C0
330
4BE
100
AcDbEntity
  8
0
370
     0
100
AcDbVertex
100
AcDb2dVertex
 10
401.495392
 20
201.632492
 30
0.0
  0
SEQEND
  5
4C1
330
4BE
100
AcDbEntity
  8
0
 62
     7
370
    13
  0
POLYLINE
  5
4C2
330
1F
100
AcDbEntity
  8
0
 62
     7
370
    13
100
AcDb2dPolyline
 66
     1
 10
0.0
 20
0.0
 30
0.0
  0
VERTEX
  5
4C3
330
4C2
100
AcDbEntity
  8
0
370
     0
100
AcDbVertex
100
AcDb2dVertex
 10
401.664734
 20
200.898621
 30
0.0
  0
VERTEX
  5
4C4
330
4C2
100
AcDbEntity
  8
0
370
     0
100
AcDbVertex
100
AcDb2dVertex
 10
399.293793
 20
200.898621
 30
0.0
  0
SEQEND
  5
4C5
330
4C2
100
AcDbEntity
  8
0
 62
     7
370
    13
  0
POLYLINE
  5
4C6
330
1F
100
AcDbEntity
  8
0
 62
     7
370
    13
100
AcDb2dPolyline
 66
     1
 10
0.0
 20
0.0
 30
0.0
  0
VERTEX
  5
4C7
330
4C6
100
AcDbEntity
  8
0
370
     0
100
AcDbVertex
100
AcDb2dVertex
 10
404.092163
 20
199.713135
 30
0.0
  0
VERTEX
  5
4C8
330
4C6
100
AcDbEntity
  8
0
370
     0
100
AcDbVertex
100
AcDb2dVertex
 10
404.205078
 20
199.713135
 30
0.0
  0
SEQEND
  5
4C9
330
4C6
100
AcDbEntity
  8
0
 62
     7
370
    13
  0
POLYLINE
  5
4CA
330
1F
100
AcDbEntity
  8
0
 62
     7
370
    13
100
AcDb2dPolyline
 66
     1
 10
0.0
 20
0.0
 30
0.0
  0
VERTEX
  5
4CB
330
4CA
100
AcDbEntity
  8
0
370
     0
100
AcDbVertex
100
AcDb2dVertex
 10
404.37442
 20
199.995392
 30
0.0
  0
VERTEX
  5
4CC
330
4CA
100
AcDbEntity
  8
0
370
     0
100
AcDbVertex
100
AcDb2dVertex
 10
404.205078
 20
200.164749
 30
0.0
  0
SEQEND
  5
4CD
330
4CA
100
AcDbEntity
  8
0
 62
     7
370
    13
  0
POLYLINE
  5
4CE
330
1F
100
AcDbEntity
  8
0
 62
     7
370
    13
100
AcDb2dPolyline
 66
     1
 10
0.0
 20
0.0
 30
0.0
  0
VERTEX
  5
4CF
330
4CE
100
AcDbEntity
  8
0
370
     0
100
AcDbVertex
100
AcDb2dVertex
 10
404.092163
 20
200.164749
 30
0.0
  0
VERTEX
  5
4D0
330
4CE
100
AcDbEntity
  8
0
370
     0
100
AcDbVertex
100
AcDb2dVertex
 10
403.922821
 20
199.995392
 30
0.0
  0
SEQEND
  5
4D1
330
4CE
100
AcDbEntity
  8
0
 62
     7
370
    13
  0
POLYLINE
  5
4D2
330
1F
100
AcDbEntity
  8
0
 62
     7
370
    13
100
AcDb2dPolyline
 66
     1
 10
0.0
 20
0.0
 30
0.0
  0
VERTEX
  5
4D3
330
4D2
100
AcDbEntity
  8
0
370
     0
100
AcDbVertex
100
AcDb2dVertex
 10
403.922821
 20
199.882492
 30
0.0
  0
VERTEX
  5
4D4
330
4D2
100
AcDbEntity
  8
0
370
     0
100
AcDbVertex
100
AcDb2dVertex
 10
404.092163
 20
199.713135
 30
0.0
  0
SEQEND
  5
4D5
330
4D2
100
AcDbEntity
  8
0
 62
     7
370
    13
  0
POLYLINE
  5
4D6
330
1F
100
AcDbEntity
  8
0
 62
     7
370
    13
100
AcDb2dPolyline
 66
     1
 10
0.0
 20
0.0
 30
0.0
  0
VERTEX
  5
4D7
330
4D6
100
AcDbEntity
  8
0
370
     0
100
AcDbVertex
100
AcDb2dVertex
 10
404.205078
 20
199.713135
 30
0.0
  0
VERTEX
  5
4D8
330
4D6
100
AcDbEntity
  8
0
370
     0
100
AcDbVertex
100
AcDb2dVertex
 10
404.37442
 20
199.882492
 30
0.0
  0
SEQEND
  5
4D9
330
4D6
100
AcDbEntity
  8
0
 62
     7
370
    13
  0
POLYLINE
  5
4DA
330
1F
100
AcDbEntity
  8
0
 62
     7
370
    13
100
AcDb2dPolyline
 66
     1
 10
0.0
 20
0.0
 30
0.0
  0
VERTEX
  5
4DB
330
4DA
100
AcDbEntity
  8
0
370
     0
100
AcDbVertex
100
AcDb2dVertex
 10
403.922821
 20
199.995392
 30
0.0
  0
VERTEX
  5
4DC
330
4DA
100
AcDbEntity
  8
0
370
     0
100
AcDbVertex
100
AcDb2dVertex
 10
403.922821
 20
199.882492
 30
0.0
  0
SEQEND
  5
4DD
330
4DA
100
AcDbEntity
  8
0
 62
     7
370
    13
  0
POLYLINE
  5
4DE
330
1F
100
AcDbEntity
  8
0
 62
     7
370
    13
100
AcDb2dPolyline
 66
     1
 10
0.0
 20
0.0
 30
0.0
  0
VERTEX
  5
4DF
330
4DE
100
AcDbEntity
  8
0
370
     0
100
AcDbVertex
100
AcDb2dVertex
 10
404.092163
 20
200.164749
 30
0.0
  0
VERTEX
  5
4E0
330
4DE
100
AcDbEntity
  8
0
370
     0
100
AcDbVertex
100
AcDb2dVertex
 10
404.205078
 20
200.164749
 30
0.0
  0
SEQEND
  5
4E1
330
4DE
100
AcDbEntity
  8
0
 62
     7
370
    13
  0
POLYLINE
  5
4E2
330
1F
100
AcDbEntity
  8
0
 62
     7
370
    13
100
AcDb2dPolyline
 66
     1
 10
0.0
 20
0.0
 30
0.0
 70
     1
  0
VERTEX
  5
4E3
330
4E2
100
AcDbEntity
  8
0
370
     0
100
AcDbVertex
100
AcDb2dVertex
 10
404.092163
 20
201.350235
 30
0.0
  0
VERTEX
  5
4E4
330
4E2
100
AcDbEntity
  8
0
370
     0
100
AcDbVertex
100
AcDb2dVertex
 10
404.205078
 20
201.350235
 30
0.0
  0
VERTEX
  5
4E5
330
4E2
100
AcDbEntity
  8
0
370
     0
100
AcDbVertex
100
AcDb2dVertex
 10
404.37442
 20
201.519592
 30
0.0
  0
VERTEX
  5
4E6
330
4E2
100
AcDbEntity
  8
0
370
     0
100
AcDbVertex
100
AcDb2dVertex
 10
404.37442
 20
201.632492
 30
0.0
  0
VERTEX
  5
4E7
330
4E2
100
AcDbEntity
  8
0
370
     0
100
AcDbVertex
100
AcDb2dVertex
 10
404.205078
 20
201.801849
 30
0.0
  0
VERTEX
  5
4E8
330
4E2
100
AcDbEntity
  8
0
370
     0
100
AcDbVertex
100
AcDb2dVertex
 10
404.092163
 20
201.801849
 30
0.0
  0
VERTEX
  5
4E9
330
4E2
100
AcDbEntity
  8
0
370
     0
100
AcDbVertex
100
AcDb2dVertex
 10
403.922821
 20
201.632492
 30
0.0
  0
VERTEX
  5
4EA
330
4E2
100
AcDbEntity
  8
0
370
     0
100
AcDbVertex
100
AcDb2dVertex
 10
403.922821
 20
201.519592
 30
0.0
  0
SEQEND
  5
4EB
330
4E2
100
AcDbEntity
  8
0
 62
     7
370
    13
  0
POLYLINE
  5
4EC
330
1F
100
AcDbEntity
  8
0
 62
     7
370
    13
100
AcDb2dPolyline
 66
     1
 10
0.0
 20
0.0
 30
0.0
  0
VERTEX
  5
4ED
330
4EC
100
AcDbEntity
  8
0
370
     0
100
AcDbVertex
100
AcDb2dVertex
 10
404.37442
 20
199.995392
 30
0.0
  0
VERTEX
  5
4EE
330
4EC
100
AcDbEntity
  8
0
370
     0
100
AcDbVertex
100
AcDb2dVertex
 10
404.37442
 20
199.882492
 30
0.0
  0
SEQEND
  5
4EF
330
4EC
100
AcDbEntity
  8
0
 62
     7
370
    13
  0
POLYLINE
  5
4F0
330
1F
100
AcDbEntity
  8
0
 62
     7
370
    13
100
AcDb2dPolyline
 66
     1
 10
0.0
 20
0.0
 30
0.0
  0
VERTEX
  5
4F1
330
4F0
100
AcDbEntity
  8
0
370
     0
100
AcDbVertex
100
AcDb2dVertex
 10
413.745392
 20
202.76152
 30
0.0
  0
VERTEX
  5
4F2
330
4F0
100
AcDbEntity
  8
0
370
     0
100
AcDbVertex
100
AcDb2dVertex
 10
414.366364
 20
203.213135
 30
0.0
  0
VERTEX
  5
4F3
330
4F0
100
AcDbEntity
  8
0
370
     0
100
AcDbVertex
100
AcDb2dVertex
 10
414.366364
 20
199.713135
 30
0.0
  0
SEQEND
  5
4F4
330
4F0
100
AcDbEntity
  8
0
 62
     7
370
    13
  0
POLYLINE
  5
4F5
330
1F
100
AcDbEntity
  8
0
 62
     7
370
    13
100
AcDb2dPolyline
 66
     1
 10
0.0
 20
0.0
 30
0.0
  0
VERTEX
  5
4F6
330
4F5
100
AcDbEntity
  8
0
370
     0
100
AcDbVertex
100
AcDb2dVertex
 10
413.406677
 20
202.592163
 30
0.0
  0
VERTEX
  5
4F7
330
4F5
100
AcDbEntity
  8
0
370
     0
100
AcDbVertex
100
AcDb2dVertex
 10
413.745392
 20
202.76152
 30
0.0
  0
SEQEND
  5
4F8
330
4F5
100
AcDbEntity
  8
0
 62
     7
370
    13
  0
POLYLINE
  5
4F9
330
1F
100
AcDbEntity
  8
0
 62
     7
370
    13
100
AcDb2dPolyline
 66
     1
 10
0.0
 20
0.0
 30
0.0
  0
VERTEX
  5
4FA
330
4F9
100
AcDbEntity
  8
0
370
     0
100
AcDbVertex
100
AcDb2dVertex
 10
417.640564
 20
199.713135
 30
0.0
  0
VERTEX
  5
4FB
330
4F9
100
AcDbEntity
  8
0
370
     0
100
AcDbVertex
100
AcDb2dVertex
 10
417.753448
 20
199.713135
 30
0.0
  0
SEQEND
  5
4FC
330
4F9
100
AcDbEntity
  8
0
 62
     7
370
    13
  0
POLYLINE
  5
4FD
330
1F
100
AcDbEntity
  8
0
 62
     7
370
    13
100
AcDb2dPolyline
 66
     1
 10
0.0
 20
0.0
 30
0.0
  0
VERTEX
  5
4FE
330
4FD
100
AcDbEntity
  8
0
370
     0
100
AcDbVertex
100
AcDb2dVertex
 10
417.922821
 20
199.995392
 30
0.0
  0
VERTEX
  5
4FF
330
4FD
100
AcDbEntity
  8
0
370
     0
100
AcDbVertex
100
AcDb2dVertex
 10
417.753448
 20
200.164749
 30
0.0
  0
SEQEND
  5
500
330
4FD
100
AcDbEntity
  8
0
 62
     7
370
    13
  0
POLYLINE
  5
501
330
1F
100
AcDbEntity
  8
0
 62
     7
370
    13
100
AcDb2dPolyline
 66
     1
 10
0.0
 20
0.0
 30
0.0
  0
VERTEX
  5
502
330
501
100
AcDbEntity
  8
0
370
     0
100
AcDbVertex
100
AcDb2dVertex
 10
417.640564
 20
200.164749
 30
0.0
  0
VERTEX
  5
503
330
501
100
AcDbEntity
  8
0
370
     0
100
AcDbVertex
100
AcDb2dVertex
 10
417.471191
 20
199.995392
 30
0.0
  0
SEQEND
  5
504
330
501
100
AcDbEntity
  8
0
 62
     7
370
    13
  0
POLYLINE
  5
505
330
1F
100
AcDbEntity
  8
0
 62
     7
370
    13
100
AcDb2dPolyline
 66
     1
 10
0.0
 20
0.0
 30
0.0
  0
VERTEX
  5
506
330
505
100
AcDbEntity
  8
0
370
     0
100
AcDbVertex
100
AcDb2dVertex
 10
417.471191
 20
199.882492
 30
0.0
  0
VERTEX
  5
507
330
505
100
AcDbEntity
  8
0
370
     0
100
AcDbVertex
100
AcDb2dVertex
 10
417.640564
 20
199.713135
 30
0.0
  0
SEQEND
  5
508
330
505
100
AcDbEntity
  8
0
 62
     7
370
    13
  0
POLYLINE
  5
509
330
1F
100
AcDbEntity
  8
0
 62
     7
370
    13
100
AcDb2dPolyline
 66
     1
 10
0.0
 20
0.0
 30
0.0
  0
VERTEX
  5
50A
330
509
100
AcDbEntity
  8
0
370
     0
100
AcDbVertex
100
AcDb2dVertex
 10
417.753448
 20
199.713135
 30
0.0
  0
VERTEX
  5
50B
330
509
100
AcDbEntity
  8
0
370
     0
100
AcDbVertex
100
AcDb2dVertex
 10
417.922821
 20
199.882492
 30
0.0
  0
SEQEND
  5
50C
330
509
100
AcDbEntity
  8
0
 62
     7
370
    13
  0
POLYLINE
  5
50D
330
1F
100
AcDbEntity
  8
0
 62
     7
370
    13
100
AcDb2dPolyline
 66
     1
 10
0.0
 20
0.0
 30
0.0
  0
VERTEX
  5
50E
330
50D
100
AcDbEntity
  8
0
370
     0
100
AcDbVertex
100
AcDb2dVertex
 10
417.471191
 20
199.995392
 30
0.0
  0
VERTEX
  5
50F
330
50D
100
AcDbEntity
  8
0
370
     0
100
AcDbVertex
100
AcDb2dVertex
 10
417.471191
 20
199.882492
 30
0.0
  0
SEQEND
  5
510
330
50D
100
AcDbEntity
  8
0
 62
     7
370
    13
  0
POLYLINE
  5
511
330
1F
100
AcDbEntity
  8
0
 62
     7
370
    13
100
AcDb2dPolyline
 66
     1
 10
0.0
 20
0.0
 30
0.0
  0
VERTEX
  5
512
330
511
100
AcDbEntity
  8
0
370
     0
100
AcDbVertex
100
AcDb2dVertex
 10
417.640564
 20
200.164749
 30
0.0
  0
VERTEX
  5
513
330
511
100
AcDbEntity
  8
0
370
     0
100
AcDbVertex
100
AcDb2dVertex
 10
417.753448
 20
200.164749
 30
0.0
  0
SEQEND
  5
514
330
511
100
AcDbEntity
  8
0
 62
     7
370
    13
  0
POLYLINE
  5
515
330
1F
100
AcDbEntity
  8
0
 62
     7
370
    13
100
AcDb2dPolyline
 66
     1
 10
0.0
 20
0.0
 30
0.0
 70
     1
  0
VERTEX
  5
516
330
515
100
AcDbEntity
  8
0
370
     0
100
AcDbVertex
100
AcDb2dVertex
 10
417.640564
 20
201.350235
 30
0.0
  0
VERTEX
  5
517
330
515
100
AcDbEntity
  8
0
370
     0
100
AcDbVertex
100
AcDb2dVertex
 10
417.753448
 20
201.350235
 30
0.0
  0
VERTEX
  5
518
330
515
100
AcDbEntity
  8
0
370
     0
100
AcDbVertex
100
AcDb2dVertex
 10
417.922821
 20
201.519592
 30
0.0
  0
VERTEX
  5
519
330
515
100
AcDbEntity
  8
0
370
     0
100
AcDbVertex
100
AcDb2dVertex
 10
417.922821
 20
201.632492
 30
0.0
  0
VERTEX
  5
51A
330
515
100
AcDbEntity
  8
0
370
     0
100
AcDbVertex
100
AcDb2dVertex
 10
417.753448
 20
201.801849
 30
0.0
  0
VERTEX
  5
51B
330
515
100
AcDbEntity
  8
0
370
     0
100
AcDbVertex
100
AcDb2dVertex
 10
417.640564
 20
201.801849
 30
0.0
  0
VERTEX
  5
51C
330
515
100
AcDbEntity
  8
0
370
     0
100
AcDbVertex
100
AcDb2dVertex
 10
417.471191
 20
201.632492
 30
0.0
  0
VERTEX
  5
51D
330
515
100
AcDbEntity
  8
0
370
     0
100
AcDbVertex
100
AcDb2dVertex
 10
417.471191
 20
201.519592
 30
0.0
  0
SEQEND
  5
51E
330
515
100
AcDbEntity
  8
0
 62
     7
370
    13
  0
POLYLINE
  5
51F
330
1F
100
AcDbEntity
  8
0
 62
     7
370
    13
100
AcDb2dPolyline
 66
     1
 10
0.0
 20
0.0
 30
0.0
  0
VERTEX
  5
520
330
51F
100
AcDbEntity
  8
0
370
     0
100
AcDbVertex
100
AcDb2dVertex
 10
417.922821
 20
199.995392
 30
0.0
  0
VERTEX
  5
521
330
51F
100
AcDbEntity
  8
0
370
     0
100
AcDbVertex
100
AcDb2dVertex
 10
417.922821
 20
199.882492
 30
0.0
  0
SEQEND
  5
522
330
51F
100
AcDbEntity
  8
0
 62
     7
370
    13
  0
POLYLINE
  5
523
330
1F
100
AcDbEntity
  8
0
 62
     7
370
    13
100
AcDb2dPolyline
 66
     1
 10
0.0
 20
0.0
 30
0.0
  0
VERTEX
  5
524
330
523
100
AcDbEntity
  8
0
370
     0
100
AcDbVertex
100
AcDb2dVertex
 10
422.382477
 20
199.713135
 30
0.0
  0
VERTEX
  5
525
330
523
100
AcDbEntity
  8
0
370
     0
100
AcDbVertex
100
AcDb2dVertex
 10
419.672821
 20
199.713135
 30
0.0
  0
VERTEX
  5
526
330
523
100
AcDbEntity
  8
0
370
     0
100
AcDbVertex
100
AcDb2dVertex
 10
421.592163
 20
201.293777
 30
0.0
  0
VERTEX
  5
527
330
523
100
AcDbEntity
  8
0
370
     0
100
AcDbVertex
100
AcDb2dVertex
 10
421.987335
 20
201.745392
 30
0.0
  0
VERTEX
  5
528
330
523
100
AcDbEntity
  8
0
370
     0
100
AcDbVertex
100
AcDb2dVertex
 10
422.156677
 20
202.084106
 30
0.0
  0
VERTEX
  5
529
330
523
100
AcDbEntity
  8
0
370
     0
100
AcDbVertex
100
AcDb2dVertex
 10
422.156677
 20
202.422806
 30
0.0
  0
VERTEX
  5
52A
330
523
100
AcDbEntity
  8
0
370
     0
100
AcDbVertex
100
AcDb2dVertex
 10
421.987335
 20
202.817978
 30
0.0
  0
VERTEX
  5
52B
330
523
100
AcDbEntity
  8
0
370
     0
100
AcDbVertex
100
AcDb2dVertex
 10
421.817963
 20
203.043777
 30
0.0
  0
VERTEX
  5
52C
330
523
100
AcDbEntity
  8
0
370
     0
100
AcDbVertex
100
AcDb2dVertex
 10
421.422821
 20
203.213135
 30
0.0
  0
VERTEX
  5
52D
330
523
100
AcDbEntity
  8
0
370
     0
100
AcDbVertex
100
AcDb2dVertex
 10
420.745392
 20
203.213135
 30
0.0
  0
VERTEX
  5
52E
330
523
100
AcDbEntity
  8
0
370
     0
100
AcDbVertex
100
AcDb2dVertex
 10
420.35022
 20
203.043777
 30
0.0
  0
VERTEX
  5
52F
330
523
100
AcDbEntity
  8
0
370
     0
100
AcDbVertex
100
AcDb2dVertex
 10
420.180878
 20
202.87442
 30
0.0
  0
VERTEX
  5
530
330
523
100
AcDbEntity
  8
0
370
     0
100
AcDbVertex
100
AcDb2dVertex
 10
419.955078
 20
202.535721
 30
0.0
  0
VERTEX
  5
531
330
523
100
AcDbEntity
  8
0
370
     0
100
AcDbVertex
100
AcDb2dVertex
 10
419.955078
 20
202.366364
 30
0.0
  0
SEQEND
  5
532
330
523
100
AcDbEntity
  8
0
 62
     7
370
    13
  0
LINE
  5
533
330
1F
100
AcDbEntity
  8
0
 62
     7
370
    35
100
AcDbLine
 10
239.713135
 20
227.221191
 30
0.0
 11
531.213135
 21
227.221191
 31
0.0
  0
ARC
  5
534
330
1F
100
AcDbEntity
  8
0
 62
     7
370
    35
100
AcDbCircle
 10
531.213135
 20
259.721191
 30
0.0
 40
32.5
100
AcDbArc
 50
269.999997
 51
360.0
  0
LINE
  5
535
330
1F
100
AcDbEntity
  8
0
 62
     7
370
    35
100
AcDbLine
 10
563.713135
 20
259.721191
 30
0.0
 11
563.713135
 21
397.221191
 31
0.0
  0
ARC
  5
536
330
1F
100
AcDbEntity
  8
0
 62
     7
370
    35
100
AcDbCircle
 10
531.213135
 20
397.221191
 30
0.0
 40
32.5
100
AcDbArc
 50
0.0
 51
90.000003
  0
ARC
  5
537
330
1F
100
AcDbEntity
  8
0
 62
     7
370
    35
100
AcDbCircle
 10
385.463135
 20
328.471191
 30
0.0
 40
22.50000000000001
100
AcDbArc
 50
180.000005
 51
360.0
  0
LINE
  5
538
330
1F
100
AcDbEntity
  8
0
 62
     7
370
    35
100
AcDbLine
 10
531.213135
 20
429.721191
 30
0.0
 11
239.713135
 21
429.721191
 31
0.0
  0
ARC
  5
539
330
1F
100
AcDbEntity
  8
0
 62
     7
370
    35
100
AcDbCircle
 10
385.463135
 20
328.471191
 30
0.0
 40
22.50000000000002
100
AcDbArc
 50
360.0
 51
179.999995
  0
ARC
  5
53A
330
1F
100
AcDbEntity
  8
0
 62
     7
370
    35
100
AcDbCircle
 10
239.713135
 20
397.221191
 30
0.0
 40
32.5
100
AcDbArc
 50
90.000003
 51
180.000005
  0
LINE
  5
53B
330
1F
100
AcDbEntity
  8
0
 62
     7
370
    35
100
AcDbLine
 10
207.213135
 20
397.221191
 30
0.0
 11
207.213135
 21
259.721191
 31
0.0
  0
ARC
  5
53C
330
1F
100
AcDbEntity
  8
0
 62
     7
370
    35
100
AcDbCircle
 10
239.713135
 20
259.721191
 30
0.0
 40
32.5
100
AcDbArc
 50
179.999995
 51
269.999997
  0
LINE
  5
53D
330
1F
100
AcDbEntity
  8
0
 62
     7
370
    35
100
AcDbLine
 10
239.713135
 20
214.221191
 30
0.0
 11
531.213135
 21
214.221191
 31
0.0
  0
ARC
  5
53E
330
1F
100
AcDbEntity
  8
0
 62
     7
370
    35
100
AcDbCircle
 10
531.21283
 20
259.721497
 30
0.0
 40
45.50028946464106
100
AcDbArc
 50
270.000366
 51
359.999635
  0
LINE
  5
53F
330
1F
100
AcDbEntity
  8
0
 62
     7
370
    35
100
AcDbLine
 10
576.713135
 20
259.721191
 30
0.0
 11
576.713135
 21
397.221191
 31
0.0
  0
ARC
  5
540
330
1F
100
AcDbEntity
  8
0
 62
     7
370
    35
100
AcDbCircle
 10
531.21283
 20
397.220886
 30
0.0
 40
45.50028946464261
100
AcDbArc
 50
0.000365
 51
89.999634
  0
LINE
  5
541
330
1F
100
AcDbEntity
  8
0
 62
     7
370
    35
100
AcDbLine
 10
531.213135
 20
442.721191
 30
0.0
 11
239.713135
 21
442.721191
 31
0.0
  0
ARC
  5
542
330
1F
100
AcDbEntity
  8
0
 62
     7
370
    35
100
AcDbCircle
 10
239.713425
 20
397.220886
 30
0.0
 40
45.5002894646599
100
AcDbArc
 50
90.000365
 51
179.999636
  0
LINE
  5
543
330
1F
100
AcDbEntity
  8
0
 62
     7
370
    35
100
AcDbLine
 10
194.213135
 20
397.221191
 30
0.0
 11
194.213135
 21
259.721191
 31
0.0
  0
ARC
  5
544
330
1F
100
AcDbEntity
  8
0
 62
     7
370
    35
100
AcDbCircle
 10
239.713425
 20
259.721497
 30
0.0
 40
45.50028946465494
100
AcDbArc
 50
180.000364
 51
269.999635
  0
POLYLINE
  5
545
330
1F
100
AcDbEntity
  8
0
 62
     7
370
    13
100
AcDb2dPolyline
 66
     1
 10
0.0
 20
0.0
 30
0.0
  0
VERTEX
  5
546
330
545
100
AcDbEntity
  8
0
370
     0
100
AcDbVertex
100
AcDb2dVertex
 10
146.762512
 20
599.309998
 30
0.0
  0
VERTEX
  5
547
330
545
100
AcDbEntity
  8
0
370
     0
100
AcDbVertex
100
AcDb2dVertex
 10
146.762512
 20
588.471313
 30
0.0
  0
VERTEX
  5
548
330
545
100
AcDbEntity
  8
0
370
     0
100
AcDbVertex
100
AcDb2dVertex
 10
140.439926
 20
596.148682
 30
0.0
  0
VERTEX
  5
549
330
545
100
AcDbEntity
  8
0
370
     0
100
AcDbVertex
100
AcDb2dVertex
 10
138.633484
 20
597.72937
 30
0.0
  0
VERTEX
  5
54A
330
545
100
AcDbEntity
  8
0
370
     0
100
AcDbVertex
100
AcDb2dVertex
 10
137.278641
 20
598.406738
 30
0.0
  0
VERTEX
  5
54B
330
545
100
AcDbEntity
  8
0
370
     0
100
AcDbVertex
100
AcDb2dVertex
 10
135.923798
 20
598.406738
 30
0.0
  0
VERTEX
  5
54C
330
545
100
AcDbEntity
  8
0
370
     0
100
AcDbVertex
100
AcDb2dVertex
 10
134.343155
 20
597.72937
 30
0.0
  0
VERTEX
  5
54D
330
545
100
AcDbEntity
  8
0
370
     0
100
AcDbVertex
100
AcDb2dVertex
 10
133.439926
 20
597.051941
 30
0.0
  0
VERTEX
  5
54E
330
545
100
AcDbEntity
  8
0
370
     0
100
AcDbVertex
100
AcDb2dVertex
 10
132.762512
 20
595.471313
 30
0.0
  0
VERTEX
  5
54F
330
545
100
AcDbEntity
  8
0
370
     0
100
AcDbVertex
100
AcDb2dVertex
 10
132.762512
 20
592.761597
 30
0.0
  0
VERTEX
  5
550
330
545
100
AcDbEntity
  8
0
370
     0
100
AcDbVertex
100
AcDb2dVertex
 10
133.439926
 20
591.180969
 30
0.0
  0
VERTEX
  5
551
330
545
100
AcDbEntity
  8
0
370
     0
100
AcDbVertex
100
AcDb2dVertex
 10
134.117355
 20
590.50354
 30
0.0
  0
VERTEX
  5
552
330
545
100
AcDbEntity
  8
0
370
     0
100
AcDbVertex
100
AcDb2dVertex
 10
135.472183
 20
589.600342
 30
0.0
  0
VERTEX
  5
553
330
545
100
AcDbEntity
  8
0
370
     0
100
AcDbVertex
100
AcDb2dVertex
 10
136.149612
 20
589.600342
 30
0.0
  0
SEQEND
  5
554
330
545
100
AcDbEntity
  8
0
 62
     7
370
    13
  0
POLYLINE
  5
555
330
1F
100
AcDbEntity
  8
0
 62
     7
370
    13
100
AcDb2dPolyline
 66
     1
 10
0.0
 20
0.0
 30
0.0
  0
VERTEX
  5
556
330
555
100
AcDbEntity
  8
0
370
     0
100
AcDbVertex
100
AcDb2dVertex
 10
144.278641
 20
604.819702
 30
0.0
  0
VERTEX
  5
557
330
555
100
AcDbEntity
  8
0
370
     0
100
AcDbVertex
100
AcDb2dVertex
 10
145.407669
 20
605.49707
 30
0.0
  0
VERTEX
  5
558
330
555
100
AcDbEntity
  8
0
370
     0
100
AcDbVertex
100
AcDb2dVertex
 10
146.085098
 20
606.1745
 30
0.0
  0
VERTEX
  5
559
330
555
100
AcDbEntity
  8
0
370
     0
100
AcDbVertex
100
AcDb2dVertex
 10
146.762512
 20
608.658386
 30
0.0
  0
VERTEX
  5
55A
330
555
100
AcDbEntity
  8
0
370
     0
100
AcDbVertex
100
AcDb2dVertex
 10
146.762512
 20
611.142273
 30
0.0
  0
VERTEX
  5
55B
330
555
100
AcDbEntity
  8
0
370
     0
100
AcDbVertex
100
AcDb2dVertex
 10
146.085098
 20
613.851929
 30
0.0
  0
VERTEX
  5
55C
330
555
100
AcDbEntity
  8
0
370
     0
100
AcDbVertex
100
AcDb2dVertex
 10
144.730255
 20
615.206787
 30
0.0
  0
VERTEX
  5
55D
330
555
100
AcDbEntity
  8
0
370
     0
100
AcDbVertex
100
AcDb2dVertex
 10
142.697998
 20
615.884216
 30
0.0
  0
VERTEX
  5
55E
330
555
100
AcDbEntity
  8
0
370
     0
100
AcDbVertex
100
AcDb2dVertex
 10
141.343155
 20
615.884216
 30
0.0
  0
VERTEX
  5
55F
330
555
100
AcDbEntity
  8
0
370
     0
100
AcDbVertex
100
AcDb2dVertex
 10
139.310898
 20
615.206787
 30
0.0
  0
VERTEX
  5
560
330
555
100
AcDbEntity
  8
0
370
     0
100
AcDbVertex
100
AcDb2dVertex
 10
138.18187
 20
613.851929
 30
0.0
  0
VERTEX
  5
561
330
555
100
AcDbEntity
  8
0
370
     0
100
AcDbVertex
100
AcDb2dVertex
 10
137.504456
 20
611.142273
 30
0.0
  0
VERTEX
  5
562
330
555
100
AcDbEntity
  8
0
370
     0
100
AcDbVertex
100
AcDb2dVertex
 10
137.504456
 20
608.658386
 30
0.0
  0
VERTEX
  5
563
330
555
100
AcDbEntity
  8
0
370
     0
100
AcDbVertex
100
AcDb2dVertex
 10
138.18187
 20
606.626099
 30
0.0
  0
VERTEX
  5
564
330
555
100
AcDbEntity
  8
0
370
     0
100
AcDbVertex
100
AcDb2dVertex
 10
138.859283
 20
605.94873
 30
0.0
  0
VERTEX
  5
565
330
555
100
AcDbEntity
  8
0
370
     0
100
AcDbVertex
100
AcDb2dVertex
 10
132.762512
 20
606.626099
 30
0.0
  0
VERTEX
  5
566
330
555
100
AcDbEntity
  8
0
370
     0
100
AcDbVertex
100
AcDb2dVertex
 10
132.762512
 20
614.980957
 30
0.0
  0
SEQEND
  5
567
330
555
100
AcDbEntity
  8
0
 62
     7
370
    13
  0
POLYLINE
  5
568
330
1F
100
AcDbEntity
  8
0
 62
     7
370
    13
100
AcDb2dPolyline
 66
     1
 10
0.0
 20
0.0
 30
0.0
  0
VERTEX
  5
569
330
568
100
AcDbEntity
  8
0
370
     0
100
AcDbVertex
100
AcDb2dVertex
 10
139.762512
 20
630.426147
 30
0.0
  0
VERTEX
  5
56A
330
568
100
AcDbEntity
  8
0
370
     0
100
AcDbVertex
100
AcDb2dVertex
 10
138.18187
 20
628.61969
 30
0.0
  0
VERTEX
  5
56B
330
568
100
AcDbEntity
  8
0
370
     0
100
AcDbVertex
100
AcDb2dVertex
 10
137.730255
 20
627.264832
 30
0.0
  0
VERTEX
  5
56C
330
568
100
AcDbEntity
  8
0
370
     0
100
AcDbVertex
100
AcDb2dVertex
 10
137.730255
 20
624.780945
 30
0.0
  0
VERTEX
  5
56D
330
568
100
AcDbEntity
  8
0
370
     0
100
AcDbVertex
100
AcDb2dVertex
 10
138.18187
 20
623.200317
 30
0.0
  0
VERTEX
  5
56E
330
568
100
AcDbEntity
  8
0
370
     0
100
AcDbVertex
100
AcDb2dVertex
 10
139.762512
 20
621.39386
 30
0.0
  0
VERTEX
  5
56F
330
568
100
AcDbEntity
  8
0
370
     0
100
AcDbVertex
100
AcDb2dVertex
 10
141.56897
 20
620.942261
 30
0.0
  0
SEQEND
  5
570
330
568
100
AcDbEntity
  8
0
 62
     7
370
    13
  0
POLYLINE
  5
571
330
1F
100
AcDbEntity
  8
0
 62
     7
370
    13
100
AcDb2dPolyline
 66
     1
 10
0.0
 20
0.0
 30
0.0
  0
VERTEX
  5
572
330
571
100
AcDbEntity
  8
0
370
     0
100
AcDbVertex
100
AcDb2dVertex
 10
146.762512
 20
627.264832
 30
0.0
  0
VERTEX
  5
573
330
571
100
AcDbEntity
  8
0
370
     0
100
AcDbVertex
100
AcDb2dVertex
 10
146.310898
 20
628.61969
 30
0.0
  0
VERTEX
  5
574
330
571
100
AcDbEntity
  8
0
370
     0
100
AcDbVertex
100
AcDb2dVertex
 10
144.730255
 20
630.426147
 30
0.0
  0
SEQEND
  5
575
330
571
100
AcDbEntity
  8
0
 62
     7
370
    13
  0
POLYLINE
  5
576
330
1F
100
AcDbEntity
  8
0
 62
     7
370
    13
100
AcDb2dPolyline
 66
     1
 10
0.0
 20
0.0
 30
0.0
  0
VERTEX
  5
577
330
576
100
AcDbEntity
  8
0
370
     0
100
AcDbVertex
100
AcDb2dVertex
 10
146.762512
 20
624.780945
 30
0.0
  0
VERTEX
  5
578
330
576
100
AcDbEntity
  8
0
370
     0
100
AcDbVertex
100
AcDb2dVertex
 10
146.762512
 20
627.264832
 30
0.0
  0
SEQEND
  5
579
330
576
100
AcDbEntity
  8
0
 62
     7
370
    13
  0
POLYLINE
  5
57A
330
1F
100
AcDbEntity
  8
0
 62
     7
370
    13
100
AcDb2dPolyline
 66
     1
 10
0.0
 20
0.0
 30
0.0
  0
VERTEX
  5
57B
330
57A
100
AcDbEntity
  8
0
370
     0
100
AcDbVertex
100
AcDb2dVertex
 10
144.730255
 20
621.39386
 30
0.0
  0
VERTEX
  5
57C
330
57A
100
AcDbEntity
  8
0
370
     0
100
AcDbVertex
100
AcDb2dVertex
 10
142.923798
 20
620.942261
 30
0.0
  0
SEQEND
  5
57D
330
57A
100
AcDbEntity
  8
0
 62
     7
370
    13
  0
POLYLINE
  5
57E
330
1F
100
AcDbEntity
  8
0
 62
     7
370
    13
100
AcDb2dPolyline
 66
     1
 10
0.0
 20
0.0
 30
0.0
  0
VERTEX
  5
57F
330
57E
100
AcDbEntity
  8
0
370
     0
100
AcDbVertex
100
AcDb2dVertex
 10
141.56897
 20
620.942261
 30
0.0
  0
VERTEX
  5
580
330
57E
100
AcDbEntity
  8
0
370
     0
100
AcDbVertex
100
AcDb2dVertex
 10
142.923798
 20
620.942261
 30
0.0
  0
SEQEND
  5
581
330
57E
100
AcDbEntity
  8
0
 62
     7
370
    13
  0
POLYLINE
  5
582
330
1F
100
AcDbEntity
  8
0
 62
     7
370
    13
100
AcDb2dPolyline
 66
     1
 10
0.0
 20
0.0
 30
0.0
  0
VERTEX
  5
583
330
582
100
AcDbEntity
  8
0
370
     0
100
AcDbVertex
100
AcDb2dVertex
 10
146.762512
 20
624.780945
 30
0.0
  0
VERTEX
  5
584
330
582
100
AcDbEntity
  8
0
370
     0
100
AcDbVertex
100
AcDb2dVertex
 10
146.310898
 20
623.200317
 30
0.0
  0
VERTEX
  5
585
330
582
100
AcDbEntity
  8
0
370
     0
100
AcDbVertex
100
AcDb2dVertex
 10
144.730255
 20
621.39386
 30
0.0
  0
SEQEND
  5
586
330
582
100
AcDbEntity
  8
0
 62
     7
370
    13
  0
POLYLINE
  5
587
330
1F
100
AcDbEntity
  8
0
 62
     7
370
    13
100
AcDb2dPolyline
 66
     1
 10
0.0
 20
0.0
 30
0.0
  0
VERTEX
  5
588
330
587
100
AcDbEntity
  8
0
370
     0
100
AcDbVertex
100
AcDb2dVertex
 10
146.762512
 20
636.83905
 30
0.0
  0
VERTEX
  5
589
330
587
100
AcDbEntity
  8
0
370
     0
100
AcDbVertex
100
AcDb2dVertex
 10
137.730255
 20
636.83905
 30
0.0
  0
SEQEND
  5
58A
330
587
100
AcDbEntity
  8
0
 62
     7
370
    13
  0
POLYLINE
  5
58B
330
1F
100
AcDbEntity
  8
0
 62
     7
370
    13
100
AcDb2dPolyline
 66
     1
 10
0.0
 20
0.0
 30
0.0
  0
VERTEX
  5
58C
330
58B
100
AcDbEntity
  8
0
370
     0
100
AcDbVertex
100
AcDb2dVertex
 10
140.214127
 20
642.935791
 30
0.0
  0
VERTEX
  5
58D
330
58B
100
AcDbEntity
  8
0
370
     0
100
AcDbVertex
100
AcDb2dVertex
 10
146.762512
 20
642.935791
 30
0.0
  0
SEQEND
  5
58E
330
58B
100
AcDbEntity
  8
0
 62
     7
370
    13
  0
POLYLINE
  5
58F
330
1F
100
AcDbEntity
  8
0
 62
     7
370
    13
100
AcDb2dPolyline
 66
     1
 10
0.0
 20
0.0
 30
0.0
  0
VERTEX
  5
590
330
58F
100
AcDbEntity
  8
0
370
     0
100
AcDbVertex
100
AcDb2dVertex
 10
140.214127
 20
649.032593
 30
0.0
  0
VERTEX
  5
591
330
58F
100
AcDbEntity
  8
0
370
     0
100
AcDbVertex
100
AcDb2dVertex
 10
146.762512
 20
649.032593
 30
0.0
  0
SEQEND
  5
592
330
58F
100
AcDbEntity
  8
0
 62
     7
370
    13
  0
POLYLINE
  5
593
330
1F
100
AcDbEntity
  8
0
 62
     7
370
    13
100
AcDb2dPolyline
 66
     1
 10
0.0
 20
0.0
 30
0.0
  0
VERTEX
  5
594
330
593
100
AcDbEntity
  8
0
370
     0
100
AcDbVertex
100
AcDb2dVertex
 10
140.214127
 20
636.83905
 30
0.0
  0
VERTEX
  5
595
330
593
100
AcDbEntity
  8
0
370
     0
100
AcDbVertex
100
AcDb2dVertex
 10
138.407669
 20
638.419678
 30
0.0
  0
VERTEX
  5
596
330
593
100
AcDbEntity
  8
0
370
     0
100
AcDbVertex
100
AcDb2dVertex
 10
137.730255
 20
640.000305
 30
0.0
  0
VERTEX
  5
597
330
593
100
AcDbEntity
  8
0
370
     0
100
AcDbVertex
100
AcDb2dVertex
 10
137.730255
 20
641.355164
 30
0.0
  0
VERTEX
  5
598
330
593
100
AcDbEntity
  8
0
370
     0
100
AcDbVertex
100
AcDb2dVertex
 10
138.407669
 20
642.258362
 30
0.0
  0
VERTEX
  5
599
330
593
100
AcDbEntity
  8
0
370
     0
100
AcDbVertex
100
AcDb2dVertex
 10
140.214127
 20
642.935791
 30
0.0
  0
VERTEX
  5
59A
330
593
100
AcDbEntity
  8
0
370
     0
100
AcDbVertex
100
AcDb2dVertex
 10
138.407669
 20
644.516479
 30
0.0
  0
VERTEX
  5
59B
330
593
100
AcDbEntity
  8
0
370
     0
100
AcDbVertex
100
AcDb2dVertex
 10
137.730255
 20
646.097107
 30
0.0
  0
VERTEX
  5
59C
330
593
100
AcDbEntity
  8
0
370
     0
100
AcDbVertex
100
AcDb2dVertex
 10
137.730255
 20
647.451904
 30
0.0
  0
VERTEX
  5
59D
330
593
100
AcDbEntity
  8
0
370
     0
100
AcDbVertex
100
AcDb2dVertex
 10
138.407669
 20
648.355164
 30
0.0
  0
VERTEX
  5
59E
330
593
100
AcDbEntity
  8
0
370
     0
100
AcDbVertex
100
AcDb2dVertex
 10
140.214127
 20
649.032593
 30
0.0
  0
SEQEND
  5
59F
330
593
100
AcDbEntity
  8
0
 62
     7
370
    13
  0
POLYLINE
  5
5A0
330
1F
100
AcDbEntity
  8
0
 62
     7
370
    13
100
AcDb2dPolyline
 66
     1
 10
0.0
 20
0.0
 30
0.0
  0
VERTEX
  5
5A1
330
5A0
100
AcDbEntity
  8
0
370
     0
100
AcDbVertex
100
AcDb2dVertex
 10
134.56897
 20
673.600342
 30
0.0
  0
VERTEX
  5
5A2
330
5A0
100
AcDbEntity
  8
0
370
     0
100
AcDbVertex
100
AcDb2dVertex
 10
132.762512
 20
676.084229
 30
0.0
  0
VERTEX
  5
5A3
330
5A0
100
AcDbEntity
  8
0
370
     0
100
AcDbVertex
100
AcDb2dVertex
 10
146.762512
 20
676.084229
 30
0.0
  0
SEQEND
  5
5A4
330
5A0
100
AcDbEntity
  8
0
 62
     7
370
    13
  0
POLYLINE
  5
5A5
330
1F
100
AcDbEntity
  8
0
 62
     7
370
    13
100
AcDb2dPolyline
 66
     1
 10
0.0
 20
0.0
 30
0.0
  0
VERTEX
  5
5A6
330
5A5
100
AcDbEntity
  8
0
370
     0
100
AcDbVertex
100
AcDb2dVertex
 10
135.246384
 20
672.245483
 30
0.0
  0
VERTEX
  5
5A7
330
5A5
100
AcDbEntity
  8
0
370
     0
100
AcDbVertex
100
AcDb2dVertex
 10
134.56897
 20
673.600342
 30
0.0
  0
SEQEND
  5
5A8
330
5A5
100
AcDbEntity
  8
0
 62
     7
370
    13
  0
POLYLINE
  5
5A9
330
1F
100
AcDbEntity
  8
0
 62
     7
370
    13
100
AcDb2dPolyline
 66
     1
 10
0.0
 20
0.0
 30
0.0
 70
     1
  0
VERTEX
  5
5AA
330
5A9
100
AcDbEntity
  8
0
370
     0
100
AcDbVertex
100
AcDb2dVertex
 10
132.762512
 20
691.077759
 30
0.0
  0
VERTEX
  5
5AB
330
5A9
100
AcDbEntity
  8
0
370
     0
100
AcDbVertex
100
AcDb2dVertex
 10
133.439926
 20
688.593872
 30
0.0
  0
VERTEX
  5
5AC
330
5A9
100
AcDbEntity
  8
0
370
     0
100
AcDbVertex
100
AcDb2dVertex
 10
135.697998
 20
687.013245
 30
0.0
  0
VERTEX
  5
5AD
330
5A9
100
AcDbEntity
  8
0
370
     0
100
AcDbVertex
100
AcDb2dVertex
 10
137.956055
 20
686.335815
 30
0.0
  0
VERTEX
  5
5AE
330
5A9
100
AcDbEntity
  8
0
370
     0
100
AcDbVertex
100
AcDb2dVertex
 10
140.891541
 20
686.335815
 30
0.0
  0
VERTEX
  5
5AF
330
5A9
100
AcDbEntity
  8
0
370
     0
100
AcDbVertex
100
AcDb2dVertex
 10
143.827026
 20
687.013245
 30
0.0
  0
VERTEX
  5
5B0
330
5A9
100
AcDbEntity
  8
0
370
     0
100
AcDbVertex
100
AcDb2dVertex
 10
146.085098
 20
688.593872
 30
0.0
  0
VERTEX
  5
5B1
330
5A9
100
AcDbEntity
  8
0
370
     0
100
AcDbVertex
100
AcDb2dVertex
 10
146.762512
 20
691.077759
 30
0.0
  0
VERTEX
  5
5B2
330
5A9
100
AcDbEntity
  8
0
370
     0
100
AcDbVertex
100
AcDb2dVertex
 10
146.762512
 20
692.884216
 30
0.0
  0
VERTEX
  5
5B3
330
5A9
100
AcDbEntity
  8
0
370
     0
100
AcDbVertex
100
AcDb2dVertex
 10
146.085098
 20
695.368042
 30
0.0
  0
VERTEX
  5
5B4
330
5A9
100
AcDbEntity
  8
0
370
     0
100
AcDbVertex
100
AcDb2dVertex
 10
143.827026
 20
696.94873
 30
0.0
  0
VERTEX
  5
5B5
330
5A9
100
AcDbEntity
  8
0
370
     0
100
AcDbVertex
100
AcDb2dVertex
 10
141.117355
 20
697.62616
 30
0.0
  0
VERTEX
  5
5B6
330
5A9
100
AcDbEntity
  8
0
370
     0
100
AcDbVertex
100
AcDb2dVertex
 10
137.956055
 20
697.62616
 30
0.0
  0
VERTEX
  5
5B7
330
5A9
100
AcDbEntity
  8
0
370
     0
100
AcDbVertex
100
AcDb2dVertex
 10
135.697998
 20
696.94873
 30
0.0
  0
VERTEX
  5
5B8
330
5A9
100
AcDbEntity
  8
0
370
     0
100
AcDbVertex
100
AcDb2dVertex
 10
133.439926
 20
695.368042
 30
0.0
  0
VERTEX
  5
5B9
330
5A9
100
AcDbEntity
  8
0
370
     0
100
AcDbVertex
100
AcDb2dVertex
 10
132.762512
 20
692.884216
 30
0.0
  0
SEQEND
  5
5BA
330
5A9
100
AcDbEntity
  8
0
 62
     7
370
    13
  0
POLYLINE
  5
5BB
330
1F
100
AcDbEntity
  8
0
 62
     7
370
    13
100
AcDb2dPolyline
 66
     1
 10
0.0
 20
0.0
 30
0.0
  0
VERTEX
  5
5BC
330
5BB
100
AcDbEntity
  8
0
370
     0
100
AcDbVertex
100
AcDb2dVertex
 10
132.762512
 20
706.522888
 30
0.0
  0
VERTEX
  5
5BD
330
5BB
100
AcDbEntity
  8
0
370
     0
100
AcDbVertex
100
AcDb2dVertex
 10
137.052841
 20
706.522888
 30
0.0
  0
SEQEND
  5
5BE
330
5BB
100
AcDbEntity
  8
0
 62
     7
370
    13
  0
POLYLINE
  5
5BF
330
1F
100
AcDbEntity
  8
0
 62
     7
370
    13
100
AcDb2dPolyline
 66
     1
 10
0.0
 20
0.0
 30
0.0
  0
VERTEX
  5
5C0
330
5BF
100
AcDbEntity
  8
0
370
     0
100
AcDbVertex
100
AcDb2dVertex
 10
132.762512
 20
711.039062
 30
0.0
  0
VERTEX
  5
5C1
330
5BF
100
AcDbEntity
  8
0
370
     0
100
AcDbVertex
100
AcDb2dVertex
 10
137.052841
 20
711.039062
 30
0.0
  0
SEQEND
  5
5C2
330
5BF
100
AcDbEntity
  8
0
 62
     7
370
    13
  0
LINE
  5
5C3
330
1F
100
AcDbEntity
  8
0
 62
     7
370
    13
100
AcDbLine
 10
360.963135
 20
590.762207
 30
0.0
 11
146.762512
 21
590.762207
 31
0.0
  0
LINE
  5
5C4
330
1F
100
AcDbEntity
  8
0
 62
     7
370
    13
100
AcDbLine
 10
237.713135
 20
710.311951
 30
0.0
 11
146.762512
 21
710.311951
 31
0.0
  0
POLYLINE
  5
5C5
330
1F
100
AcDbEntity
  8
0
 62
     7
370
    13
100
AcDb2dPolyline
 66
     1
 10
0.0
 20
0.0
 30
0.0
  0
VERTEX
  5
5C6
330
5C5
100
AcDbEntity
  8
0
370
     0
100
AcDbVertex
100
AcDb2dVertex
 10
148.244873
 20
712.243774
 30
0.0
  0
VERTEX
  5
5C7
330
5C5
100
AcDbEntity
  8
0
370
     0
100
AcDbVertex
100
AcDb2dVertex
 10
148.762512
 20
710.311951
 30
0.0
  0
VERTEX
  5
5C8
330
5C5
100
AcDbEntity
  8
0
370
     0
100
AcDbVertex
100
AcDb2dVertex
 10
149.280151
 20
712.243774
 30
0.0
  0
SEQEND
  5
5C9
330
5C5
100
AcDbEntity
  8
0
 62
     7
370
    13
  0
POLYLINE
  5
5CA
330
1F
100
AcDbEntity
  8
0
 62
     7
370
    13
100
AcDb2dPolyline
 66
     1
 10
0.0
 20
0.0
 30
0.0
  0
VERTEX
  5
5CB
330
5CA
100
AcDbEntity
  8
0
370
     0
100
AcDbVertex
100
AcDb2dVertex
 10
149.280151
 20
588.830322
 30
0.0
  0
VERTEX
  5
5CC
330
5CA
100
AcDbEntity
  8
0
370
     0
100
AcDbVertex
100
AcDb2dVertex
 10
148.762512
 20
590.762207
 30
0.0
  0
VERTEX
  5
5CD
330
5CA
100
AcDbEntity
  8
0
370
     0
100
AcDbVertex
100
AcDb2dVertex
 10
148.244873
 20
588.830322
 30
0.0
  0
SEQEND
  5
5CE
330
5CA
100
AcDbEntity
  8
0
 62
     7
370
    13
  0
LINE
  5
5CF
330
1F
100
AcDbEntity
  8
0
 62
     7
370
    13
100
AcDbLine
 10
148.762512
 20
585.762207
 30
0.0
 11
148.762512
 21
715.311951
 31
0.0
  0
POLYLINE
  5
5D0
330
1F
100
AcDbEntity
  8
0
 62
     7
370
    13
100
AcDb2dPolyline
 66
     1
 10
0.0
 20
0.0
 30
0.0
  0
VERTEX
  5
5D1
330
5D0
100
AcDbEntity
  8
0
370
     0
100
AcDbVertex
100
AcDb2dVertex
 10
388.62442
 20
581.842834
 30
0.0
  0
VERTEX
  5
5D2
330
5D0
100
AcDbEntity
  8
0
370
     0
100
AcDbVertex
100
AcDb2dVertex
 10
388.172821
 20
582.237976
 30
0.0
  0
VERTEX
  5
5D3
330
5D0
100
AcDbEntity
  8
0
370
     0
100
AcDbVertex
100
AcDb2dVertex
 10
387.495392
 20
582.407349
 30
0.0
  0
VERTEX
  5
5D4
330
5D0
100
AcDbEntity
  8
0
370
     0
100
AcDbVertex
100
AcDb2dVertex
 10
386.817963
 20
582.407349
 30
0.0
  0
VERTEX
  5
5D5
330
5D0
100
AcDbEntity
  8
0
370
     0
100
AcDbVertex
100
AcDb2dVertex
 10
386.140564
 20
582.237976
 30
0.0
  0
VERTEX
  5
5D6
330
5D0
100
AcDbEntity
  8
0
370
     0
100
AcDbVertex
100
AcDb2dVertex
 10
385.688934
 20
581.786377
 30
0.0
  0
VERTEX
  5
5D7
330
5D0
100
AcDbEntity
  8
0
370
     0
100
AcDbVertex
100
AcDb2dVertex
 10
385.688934
 20
581.391235
 30
0.0
  0
VERTEX
  5
5D8
330
5D0
100
AcDbEntity
  8
0
370
     0
100
AcDbVertex
100
AcDb2dVertex
 10
386.084106
 20
580.996033
 30
0.0
  0
SEQEND
  5
5D9
330
5D0
100
AcDbEntity
  8
0
 62
     7
370
    13
  0
POLYLINE
  5
5DA
330
1F
100
AcDbEntity
  8
0
 62
     7
370
    13
100
AcDb2dPolyline
 66
     1
 10
0.0
 20
0.0
 30
0.0
  0
VERTEX
  5
5DB
330
5DA
100
AcDbEntity
  8
0
370
     0
100
AcDbVertex
100
AcDb2dVertex
 10
387.156677
 20
580.713806
 30
0.0
  0
VERTEX
  5
5DC
330
5DA
100
AcDbEntity
  8
0
370
     0
100
AcDbVertex
100
AcDb2dVertex
 10
387.664734
 20
580.600891
 30
0.0
  0
SEQEND
  5
5DD
330
5DA
100
AcDbEntity
  8
0
 62
     7
370
    13
  0
POLYLINE
  5
5DE
330
1F
100
AcDbEntity
  8
0
 62
     7
370
    13
100
AcDb2dPolyline
 66
     1
 10
0.0
 20
0.0
 30
0.0
  0
VERTEX
  5
5DF
330
5DE
100
AcDbEntity
  8
0
370
     0
100
AcDbVertex
100
AcDb2dVertex
 10
388.172821
 20
579.020264
 30
0.0
  0
VERTEX
  5
5E0
330
5DE
100
AcDbEntity
  8
0
370
     0
100
AcDbVertex
100
AcDb2dVertex
 10
387.495392
 20
578.907349
 30
0.0
  0
VERTEX
  5
5E1
330
5DE
100
AcDbEntity
  8
0
370
     0
100
AcDbVertex
100
AcDb2dVertex
 10
386.817963
 20
578.907349
 30
0.0
  0
VERTEX
  5
5E2
330
5DE
100
AcDbEntity
  8
0
370
     0
100
AcDbVertex
100
AcDb2dVertex
 10
386.140564
 20
579.133179
 30
0.0
  0
VERTEX
  5
5E3
330
5DE
100
AcDbEntity
  8
0
370
     0
100
AcDbVertex
100
AcDb2dVertex
 10
385.688934
 20
579.52832
 30
0.0
  0
SEQEND
  5
5E4
330
5DE
100
AcDbEntity
  8
0
 62
     7
370
    13
  0
POLYLINE
  5
5E5
330
1F
100
AcDbEntity
  8
0
 62
     7
370
    13
100
AcDb2dPolyline
 66
     1
 10
0.0
 20
0.0
 30
0.0
  0
VERTEX
  5
5E6
330
5E5
100
AcDbEntity
  8
0
370
     0
100
AcDbVertex
100
AcDb2dVertex
 10
386.705078
 20
580.770264
 30
0.0
  0
VERTEX
  5
5E7
330
5E5
100
AcDbEntity
  8
0
370
     0
100
AcDbVertex
100
AcDb2dVertex
 10
387.156677
 20
580.713806
 30
0.0
  0
SEQEND
  5
5E8
330
5E5
100
AcDbEntity
  8
0
 62
     7
370
    13
  0
POLYLINE
  5
5E9
330
1F
100
AcDbEntity
  8
0
 62
     7
370
    13
100
AcDb2dPolyline
 66
     1
 10
0.0
 20
0.0
 30
0.0
  0
VERTEX
  5
5EA
330
5E9
100
AcDbEntity
  8
0
370
     0
100
AcDbVertex
100
AcDb2dVertex
 10
386.084106
 20
580.996033
 30
0.0
  0
VERTEX
  5
5EB
330
5E9
100
AcDbEntity
  8
0
370
     0
100
AcDbVertex
100
AcDb2dVertex
 10
386.705078
 20
580.770264
 30
0.0
  0
SEQEND
  5
5EC
330
5E9
100
AcDbEntity
  8
0
 62
     7
370
    13
  0
POLYLINE
  5
5ED
330
1F
100
AcDbEntity
  8
0
 62
     7
370
    13
100
AcDb2dPolyline
 66
     1
 10
0.0
 20
0.0
 30
0.0
  0
VERTEX
  5
5EE
330
5ED
100
AcDbEntity
  8
0
370
     0
100
AcDbVertex
100
AcDb2dVertex
 10
388.62442
 20
579.471863
 30
0.0
  0
VERTEX
  5
5EF
330
5ED
100
AcDbEntity
  8
0
370
     0
100
AcDbVertex
100
AcDb2dVertex
 10
388.172821
 20
579.020264
 30
0.0
  0
SEQEND
  5
5F0
330
5ED
100
AcDbEntity
  8
0
 62
     7
370
    13
  0
POLYLINE
  5
5F1
330
1F
100
AcDbEntity
  8
0
 62
     7
370
    13
100
AcDb2dPolyline
 66
     1
 10
0.0
 20
0.0
 30
0.0
  0
VERTEX
  5
5F2
330
5F1
100
AcDbEntity
  8
0
370
     0
100
AcDbVertex
100
AcDb2dVertex
 10
388.62442
 20
579.979919
 30
0.0
  0
VERTEX
  5
5F3
330
5F1
100
AcDbEntity
  8
0
370
     0
100
AcDbVertex
100
AcDb2dVertex
 10
388.62442
 20
579.471863
 30
0.0
  0
SEQEND
  5
5F4
330
5F1
100
AcDbEntity
  8
0
 62
     7
370
    13
  0
POLYLINE
  5
5F5
330
1F
100
AcDbEntity
  8
0
 62
     7
370
    13
100
AcDb2dPolyline
 66
     1
 10
0.0
 20
0.0
 30
0.0
  0
VERTEX
  5
5F6
330
5F5
100
AcDbEntity
  8
0
370
     0
100
AcDbVertex
100
AcDb2dVertex
 10
387.664734
 20
580.600891
 30
0.0
  0
VERTEX
  5
5F7
330
5F5
100
AcDbEntity
  8
0
370
     0
100
AcDbVertex
100
AcDb2dVertex
 10
388.172821
 20
580.375061
 30
0.0
  0
VERTEX
  5
5F8
330
5F5
100
AcDbEntity
  8
0
370
     0
100
AcDbVertex
100
AcDb2dVertex
 10
388.62442
 20
579.979919
 30
0.0
  0
SEQEND
  5
5F9
330
5F5
100
AcDbEntity
  8
0
 62
     7
370
    13
  0
POLYLINE
  5
5FA
330
1F
100
AcDbEntity
  8
0
 62
     7
370
    13
100
AcDb2dPolyline
 66
     1
 10
0.0
 20
0.0
 30
0.0
  0
VERTEX
  5
5FB
330
5FA
100
AcDbEntity
  8
0
370
     0
100
AcDbVertex
100
AcDb2dVertex
 10
391.051849
 20
581.05249
 30
0.0
  0
VERTEX
  5
5FC
330
5FA
100
AcDbEntity
  8
0
370
     0
100
AcDbVertex
100
AcDb2dVertex
 10
390.713135
 20
581.165405
 30
0.0
  0
VERTEX
  5
5FD
330
5FA
100
AcDbEntity
  8
0
370
     0
100
AcDbVertex
100
AcDb2dVertex
 10
390.092163
 20
581.165405
 30
0.0
  0
VERTEX
  5
5FE
330
5FA
100
AcDbEntity
  8
0
370
     0
100
AcDbVertex
100
AcDb2dVertex
 10
389.696991
 20
581.05249
 30
0.0
  0
VERTEX
  5
5FF
330
5FA
100
AcDbEntity
  8
0
370
     0
100
AcDbVertex
100
AcDb2dVertex
 10
389.245392
 20
580.657349
 30
0.0
  0
VERTEX
  5
600
330
5FA
100
AcDbEntity
  8
0
370
     0
100
AcDbVertex
100
AcDb2dVertex
 10
389.132477
 20
580.20575
 30
0.0
  0
SEQEND
  5
601
330
5FA
100
AcDbEntity
  8
0
 62
     7
370
    13
  0
POLYLINE
  5
602
330
1F
100
AcDbEntity
  8
0
 62
     7
370
    13
100
AcDb2dPolyline
 66
     1
 10
0.0
 20
0.0
 30
0.0
  0
VERTEX
  5
603
330
602
100
AcDbEntity
  8
0
370
     0
100
AcDbVertex
100
AcDb2dVertex
 10
390.713135
 20
578.907349
 30
0.0
  0
VERTEX
  5
604
330
602
100
AcDbEntity
  8
0
370
     0
100
AcDbVertex
100
AcDb2dVertex
 10
391.051849
 20
579.020264
 30
0.0
  0
VERTEX
  5
605
330
602
100
AcDbEntity
  8
0
370
     0
100
AcDbVertex
100
AcDb2dVertex
 10
391.503448
 20
579.415405
 30
0.0
  0
SEQEND
  5
606
330
602
100
AcDbEntity
  8
0
 62
     7
370
    13
  0
POLYLINE
  5
607
330
1F
100
AcDbEntity
  8
0
 62
     7
370
    13
100
AcDb2dPolyline
 66
     1
 10
0.0
 20
0.0
 30
0.0
  0
VERTEX
  5
608
330
607
100
AcDbEntity
  8
0
370
     0
100
AcDbVertex
100
AcDb2dVertex
 10
390.092163
 20
578.907349
 30
0.0
  0
VERTEX
  5
609
330
607
100
AcDbEntity
  8
0
370
     0
100
AcDbVertex
100
AcDb2dVertex
 10
390.713135
 20
578.907349
 30
0.0
  0
SEQEND
  5
60A
330
607
100
AcDbEntity
  8
0
 62
     7
370
    13
  0
POLYLINE
  5
60B
330
1F
100
AcDbEntity
  8
0
 62
     7
370
    13
100
AcDb2dPolyline
 66
     1
 10
0.0
 20
0.0
 30
0.0
  0
VERTEX
  5
60C
330
60B
100
AcDbEntity
  8
0
370
     0
100
AcDbVertex
100
AcDb2dVertex
 10
389.245392
 20
579.415405
 30
0.0
  0
VERTEX
  5
60D
330
60B
100
AcDbEntity
  8
0
370
     0
100
AcDbVertex
100
AcDb2dVertex
 10
389.132477
 20
579.867004
 30
0.0
  0
SEQEND
  5
60E
330
60B
100
AcDbEntity
  8
0
 62
     7
370
    13
  0
POLYLINE
  5
60F
330
1F
100
AcDbEntity
  8
0
 62
     7
370
    13
100
AcDb2dPolyline
 66
     1
 10
0.0
 20
0.0
 30
0.0
  0
VERTEX
  5
610
330
60F
100
AcDbEntity
  8
0
370
     0
100
AcDbVertex
100
AcDb2dVertex
 10
389.132477
 20
580.20575
 30
0.0
  0
VERTEX
  5
611
330
60F
100
AcDbEntity
  8
0
370
     0
100
AcDbVertex
100
AcDb2dVertex
 10
389.132477
 20
579.867004
 30
0.0
  0
SEQEND
  5
612
330
60F
100
AcDbEntity
  8
0
 62
     7
370
    13
  0
POLYLINE
  5
613
330
1F
100
AcDbEntity
  8
0
 62
     7
370
    13
100
AcDb2dPolyline
 66
     1
 10
0.0
 20
0.0
 30
0.0
  0
VERTEX
  5
614
330
613
100
AcDbEntity
  8
0
370
     0
100
AcDbVertex
100
AcDb2dVertex
 10
390.092163
 20
578.907349
 30
0.0
  0
VERTEX
  5
615
330
613
100
AcDbEntity
  8
0
370
     0
100
AcDbVertex
100
AcDb2dVertex
 10
389.696991
 20
579.020264
 30
0.0
  0
VERTEX
  5
616
330
613
100
AcDbEntity
  8
0
370
     0
100
AcDbVertex
100
AcDb2dVertex
 10
389.245392
 20
579.415405
 30
0.0
  0
SEQEND
  5
617
330
613
100
AcDbEntity
  8
0
 62
     7
370
    13
  0
POLYLINE
  5
618
330
1F
100
AcDbEntity
  8
0
 62
     7
370
    13
100
AcDb2dPolyline
 66
     1
 10
0.0
 20
0.0
 30
0.0
  0
VERTEX
  5
619
330
618
100
AcDbEntity
  8
0
370
     0
100
AcDbVertex
100
AcDb2dVertex
 10
391.503448
 20
580.092834
 30
0.0
  0
VERTEX
  5
61A
330
618
100
AcDbEntity
  8
0
370
     0
100
AcDbVertex
100
AcDb2dVertex
 10
391.503448
 20
580.487976
 30
0.0
  0
VERTEX
  5
61B
330
618
100
AcDbEntity
  8
0
370
     0
100
AcDbVertex
100
AcDb2dVertex
 10
391.334106
 20
580.826721
 30
0.0
  0
SEQEND
  5
61C
330
618
100
AcDbEntity
  8
0
 62
     7
370
    13
  0
POLYLINE
  5
61D
330
1F
100
AcDbEntity
  8
0
 62
     7
370
    13
100
AcDb2dPolyline
 66
     1
 10
0.0
 20
0.0
 30
0.0
  0
VERTEX
  5
61E
330
61D
100
AcDbEntity
  8
0
370
     0
100
AcDbVertex
100
AcDb2dVertex
 10
391.051849
 20
581.05249
 30
0.0
  0
VERTEX
  5
61F
330
61D
100
AcDbEntity
  8
0
370
     0
100
AcDbVertex
100
AcDb2dVertex
 10
391.334106
 20
580.826721
 30
0.0
  0
SEQEND
  5
620
330
61D
100
AcDbEntity
  8
0
 62
     7
370
    13
  0
POLYLINE
  5
621
330
1F
100
AcDbEntity
  8
0
 62
     7
370
    13
100
AcDb2dPolyline
 66
     1
 10
0.0
 20
0.0
 30
0.0
  0
VERTEX
  5
622
330
621
100
AcDbEntity
  8
0
370
     0
100
AcDbVertex
100
AcDb2dVertex
 10
391.503448
 20
580.092834
 30
0.0
  0
VERTEX
  5
623
330
621
100
AcDbEntity
  8
0
370
     0
100
AcDbVertex
100
AcDb2dVertex
 10
389.132477
 20
580.092834
 30
0.0
  0
SEQEND
  5
624
330
621
100
AcDbEntity
  8
0
 62
     7
370
    13
  0
POLYLINE
  5
625
330
1F
100
AcDbEntity
  8
0
 62
     7
370
    13
100
AcDb2dPolyline
 66
     1
 10
0.0
 20
0.0
 30
0.0
  0
VERTEX
  5
626
330
625
100
AcDbEntity
  8
0
370
     0
100
AcDbVertex
100
AcDb2dVertex
 10
394.890564
 20
580.657349
 30
0.0
  0
VERTEX
  5
627
330
625
100
AcDbEntity
  8
0
370
     0
100
AcDbVertex
100
AcDb2dVertex
 10
394.438934
 20
581.05249
 30
0.0
  0
VERTEX
  5
628
330
625
100
AcDbEntity
  8
0
370
     0
100
AcDbVertex
100
AcDb2dVertex
 10
394.10022
 20
581.165405
 30
0.0
  0
VERTEX
  5
629
330
625
100
AcDbEntity
  8
0
370
     0
100
AcDbVertex
100
AcDb2dVertex
 10
393.479279
 20
581.165405
 30
0.0
  0
VERTEX
  5
62A
330
625
100
AcDbEntity
  8
0
370
     0
100
AcDbVertex
100
AcDb2dVertex
 10
393.084106
 20
581.05249
 30
0.0
  0
VERTEX
  5
62B
330
625
100
AcDbEntity
  8
0
370
     0
100
AcDbVertex
100
AcDb2dVertex
 10
392.632477
 20
580.657349
 30
0.0
  0
VERTEX
  5
62C
330
625
100
AcDbEntity
  8
0
370
     0
100
AcDbVertex
100
AcDb2dVertex
 10
392.519592
 20
580.20575
 30
0.0
  0
SEQEND
  5
62D
330
625
100
AcDbEntity
  8
0
 62
     7
370
    13
  0
POLYLINE
  5
62E
330
1F
100
AcDbEntity
  8
0
 62
     7
370
    13
100
AcDb2dPolyline
 66
     1
 10
0.0
 20
0.0
 30
0.0
  0
VERTEX
  5
62F
330
62E
100
AcDbEntity
  8
0
370
     0
100
AcDbVertex
100
AcDb2dVertex
 10
394.10022
 20
578.907349
 30
0.0
  0
VERTEX
  5
630
330
62E
100
AcDbEntity
  8
0
370
     0
100
AcDbVertex
100
AcDb2dVertex
 10
394.438934
 20
579.020264
 30
0.0
  0
VERTEX
  5
631
330
62E
100
AcDbEntity
  8
0
370
     0
100
AcDbVertex
100
AcDb2dVertex
 10
394.890564
 20
579.415405
 30
0.0
  0
SEQEND
  5
632
330
62E
100
AcDbEntity
  8
0
 62
     7
370
    13
  0
POLYLINE
  5
633
330
1F
100
AcDbEntity
  8
0
 62
     7
370
    13
100
AcDb2dPolyline
 66
     1
 10
0.0
 20
0.0
 30
0.0
  0
VERTEX
  5
634
330
633
100
AcDbEntity
  8
0
370
     0
100
AcDbVertex
100
AcDb2dVertex
 10
393.479279
 20
578.907349
 30
0.0
  0
VERTEX
  5
635
330
633
100
AcDbEntity
  8
0
370
     0
100
AcDbVertex
100
AcDb2dVertex
 10
394.10022
 20
578.907349
 30
0.0
  0
SEQEND
  5
636
330
633
100
AcDbEntity
  8
0
 62
     7
370
    13
  0
POLYLINE
  5
637
330
1F
100
AcDbEntity
  8
0
 62
     7
370
    13
100
AcDb2dPolyline
 66
     1
 10
0.0
 20
0.0
 30
0.0
  0
VERTEX
  5
638
330
637
100
AcDbEntity
  8
0
370
     0
100
AcDbVertex
100
AcDb2dVertex
 10
392.632477
 20
579.415405
 30
0.0
  0
VERTEX
  5
639
330
637
100
AcDbEntity
  8
0
370
     0
100
AcDbVertex
100
AcDb2dVertex
 10
392.519592
 20
579.867004
 30
0.0
  0
SEQEND
  5
63A
330
637
100
AcDbEntity
  8
0
 62
     7
370
    13
  0
POLYLINE
  5
63B
330
1F
100
AcDbEntity
  8
0
 62
     7
370
    13
100
AcDb2dPolyline
 66
     1
 10
0.0
 20
0.0
 30
0.0
  0
VERTEX
  5
63C
330
63B
100
AcDbEntity
  8
0
370
     0
100
AcDbVertex
100
AcDb2dVertex
 10
392.519592
 20
580.20575
 30
0.0
  0
VERTEX
  5
63D
330
63B
100
AcDbEntity
  8
0
370
     0
100
AcDbVertex
100
AcDb2dVertex
 10
392.519592
 20
579.867004
 30
0.0
  0
SEQEND
  5
63E
330
63B
100
AcDbEntity
  8
0
 62
     7
370
    13
  0
POLYLINE
  5
63F
330
1F
100
AcDbEntity
  8
0
 62
     7
370
    13
100
AcDb2dPolyline
 66
     1
 10
0.0
 20
0.0
 30
0.0
  0
VERTEX
  5
640
330
63F
100
AcDbEntity
  8
0
370
     0
100
AcDbVertex
100
AcDb2dVertex
 10
393.479279
 20
578.907349
 30
0.0
  0
VERTEX
  5
641
330
63F
100
AcDbEntity
  8
0
370
     0
100
AcDbVertex
100
AcDb2dVertex
 10
393.084106
 20
579.020264
 30
0.0
  0
VERTEX
  5
642
330
63F
100
AcDbEntity
  8
0
370
     0
100
AcDbVertex
100
AcDb2dVertex
 10
392.632477
 20
579.415405
 30
0.0
  0
SEQEND
  5
643
330
63F
100
AcDbEntity
  8
0
 62
     7
370
    13
  0
POLYLINE
  5
644
330
1F
100
AcDbEntity
  8
0
 62
     7
370
    13
100
AcDb2dPolyline
 66
     1
 10
0.0
 20
0.0
 30
0.0
  0
VERTEX
  5
645
330
644
100
AcDbEntity
  8
0
370
     0
100
AcDbVertex
100
AcDb2dVertex
 10
397.938934
 20
578.907349
 30
0.0
  0
VERTEX
  5
646
330
644
100
AcDbEntity
  8
0
370
     0
100
AcDbVertex
100
AcDb2dVertex
 10
397.543793
 20
578.907349
 30
0.0
  0
VERTEX
  5
647
330
644
100
AcDbEntity
  8
0
370
     0
100
AcDbVertex
100
AcDb2dVertex
 10
397.148621
 20
579.076721
 30
0.0
  0
VERTEX
  5
648
330
644
100
AcDbEntity
  8
0
370
     0
100
AcDbVertex
100
AcDb2dVertex
 10
396.979248
 20
579.52832
 30
0.0
  0
VERTEX
  5
649
330
644
100
AcDbEntity
  8
0
370
     0
100
AcDbVertex
100
AcDb2dVertex
 10
396.979248
 20
582.407349
 30
0.0
  0
SEQEND
  5
64A
330
644
100
AcDbEntity
  8
0
 62
     7
370
    13
  0
POLYLINE
  5
64B
330
1F
100
AcDbEntity
  8
0
 62
     7
370
    13
100
AcDb2dPolyline
 66
     1
 10
0.0
 20
0.0
 30
0.0
  0
VERTEX
  5
64C
330
64B
100
AcDbEntity
  8
0
370
     0
100
AcDbVertex
100
AcDb2dVertex
 10
396.358307
 20
581.27832
 30
0.0
  0
VERTEX
  5
64D
330
64B
100
AcDbEntity
  8
0
370
     0
100
AcDbVertex
100
AcDb2dVertex
 10
397.769592
 20
581.27832
 30
0.0
  0
SEQEND
  5
64E
330
64B
100
AcDbEntity
  8
0
 62
     7
370
    13
  0
POLYLINE
  5
64F
330
1F
100
AcDbEntity
  8
0
 62
     7
370
    13
100
AcDb2dPolyline
 66
     1
 10
0.0
 20
0.0
 30
0.0
  0
VERTEX
  5
650
330
64F
100
AcDbEntity
  8
0
370
     0
100
AcDbVertex
100
AcDb2dVertex
 10
400.592163
 20
578.907349
 30
0.0
  0
VERTEX
  5
651
330
64F
100
AcDbEntity
  8
0
370
     0
100
AcDbVertex
100
AcDb2dVertex
 10
400.592163
 20
580.996033
 30
0.0
  0
SEQEND
  5
652
330
64F
100
AcDbEntity
  8
0
 62
     7
370
    13
  0
POLYLINE
  5
653
330
1F
100
AcDbEntity
  8
0
 62
     7
370
    13
100
AcDb2dPolyline
 66
     1
 10
0.0
 20
0.0
 30
0.0
 70
     1
  0
VERTEX
  5
654
330
653
100
AcDbEntity
  8
0
370
     0
100
AcDbVertex
100
AcDb2dVertex
 10
400.592163
 20
582.068665
 30
0.0
  0
VERTEX
  5
655
330
653
100
AcDbEntity
  8
0
370
     0
100
AcDbVertex
100
AcDb2dVertex
 10
400.705078
 20
581.95575
 30
0.0
  0
VERTEX
  5
656
330
653
100
AcDbEntity
  8
0
370
     0
100
AcDbVertex
100
AcDb2dVertex
 10
400.592163
 20
581.842834
 30
0.0
  0
VERTEX
  5
657
330
653
100
AcDbEntity
  8
0
370
     0
100
AcDbVertex
100
AcDb2dVertex
 10
400.479248
 20
581.95575
 30
0.0
  0
SEQEND
  5
658
330
653
100
AcDbEntity
  8
0
 62
     7
370
    13
  0
POLYLINE
  5
659
330
1F
100
AcDbEntity
  8
0
 62
     7
370
    13
100
AcDb2dPolyline
 66
     1
 10
0.0
 20
0.0
 30
0.0
 70
     1
  0
VERTEX
  5
65A
330
659
100
AcDbEntity
  8
0
370
     0
100
AcDbVertex
100
AcDb2dVertex
 10
403.640564
 20
581.165405
 30
0.0
  0
VERTEX
  5
65B
330
659
100
AcDbEntity
  8
0
370
     0
100
AcDbVertex
100
AcDb2dVertex
 10
403.245392
 20
581.05249
 30
0.0
  0
VERTEX
  5
65C
330
659
100
AcDbEntity
  8
0
370
     0
100
AcDbVertex
100
AcDb2dVertex
 10
402.793793
 20
580.657349
 30
0.0
  0
VERTEX
  5
65D
330
659
100
AcDbEntity
  8
0
370
     0
100
AcDbVertex
100
AcDb2dVertex
 10
402.680878
 20
580.20575
 30
0.0
  0
VERTEX
  5
65E
330
659
100
AcDbEntity
  8
0
370
     0
100
AcDbVertex
100
AcDb2dVertex
 10
402.680878
 20
579.867004
 30
0.0
  0
VERTEX
  5
65F
330
659
100
AcDbEntity
  8
0
370
     0
100
AcDbVertex
100
AcDb2dVertex
 10
402.793793
 20
579.415405
 30
0.0
  0
VERTEX
  5
660
330
659
100
AcDbEntity
  8
0
370
     0
100
AcDbVertex
100
AcDb2dVertex
 10
403.245392
 20
579.020264
 30
0.0
  0
VERTEX
  5
661
330
659
100
AcDbEntity
  8
0
370
     0
100
AcDbVertex
100
AcDb2dVertex
 10
403.640564
 20
578.907349
 30
0.0
  0
VERTEX
  5
662
330
659
100
AcDbEntity
  8
0
370
     0
100
AcDbVertex
100
AcDb2dVertex
 10
404.261536
 20
578.907349
 30
0.0
  0
VERTEX
  5
663
330
659
100
AcDbEntity
  8
0
370
     0
100
AcDbVertex
100
AcDb2dVertex
 10
404.60022
 20
579.020264
 30
0.0
  0
VERTEX
  5
664
330
659
100
AcDbEntity
  8
0
370
     0
100
AcDbVertex
100
AcDb2dVertex
 10
405.051849
 20
579.415405
 30
0.0
  0
VERTEX
  5
665
330
659
100
AcDbEntity
  8
0
370
     0
100
AcDbVertex
100
AcDb2dVertex
 10
405.221191
 20
579.867004
 30
0.0
  0
VERTEX
  5
666
330
659
100
AcDbEntity
  8
0
370
     0
100
AcDbVertex
100
AcDb2dVertex
 10
405.221191
 20
580.20575
 30
0.0
  0
VERTEX
  5
667
330
659
100
AcDbEntity
  8
0
370
     0
100
AcDbVertex
100
AcDb2dVertex
 10
405.051849
 20
580.657349
 30
0.0
  0
VERTEX
  5
668
330
659
100
AcDbEntity
  8
0
370
     0
100
AcDbVertex
100
AcDb2dVertex
 10
404.60022
 20
581.05249
 30
0.0
  0
VERTEX
  5
669
330
659
100
AcDbEntity
  8
0
370
     0
100
AcDbVertex
100
AcDb2dVertex
 10
404.261536
 20
581.165405
 30
0.0
  0
SEQEND
  5
66A
330
659
100
AcDbEntity
  8
0
 62
     7
370
    13
  0
POLYLINE
  5
66B
330
1F
100
AcDbEntity
  8
0
 62
     7
370
    13
100
AcDb2dPolyline
 66
     1
 10
0.0
 20
0.0
 30
0.0
  0
VERTEX
  5
66C
330
66B
100
AcDbEntity
  8
0
370
     0
100
AcDbVertex
100
AcDb2dVertex
 10
408.32605
 20
578.907349
 30
0.0
  0
VERTEX
  5
66D
330
66B
100
AcDbEntity
  8
0
370
     0
100
AcDbVertex
100
AcDb2dVertex
 10
408.32605
 20
580.544434
 30
0.0
  0
VERTEX
  5
66E
330
66B
100
AcDbEntity
  8
0
370
     0
100
AcDbVertex
100
AcDb2dVertex
 10
408.156677
 20
580.996033
 30
0.0
  0
VERTEX
  5
66F
330
66B
100
AcDbEntity
  8
0
370
     0
100
AcDbVertex
100
AcDb2dVertex
 10
407.761536
 20
581.165405
 30
0.0
  0
VERTEX
  5
670
330
66B
100
AcDbEntity
  8
0
370
     0
100
AcDbVertex
100
AcDb2dVertex
 10
407.140564
 20
581.165405
 30
0.0
  0
VERTEX
  5
671
330
66B
100
AcDbEntity
  8
0
370
     0
100
AcDbVertex
100
AcDb2dVertex
 10
406.801849
 20
581.05249
 30
0.0
  0
VERTEX
  5
672
330
66B
100
AcDbEntity
  8
0
370
     0
100
AcDbVertex
100
AcDb2dVertex
 10
406.180878
 20
580.600891
 30
0.0
  0
SEQEND
  5
673
330
66B
100
AcDbEntity
  8
0
 62
     7
370
    13
  0
POLYLINE
  5
674
330
1F
100
AcDbEntity
  8
0
 62
     7
370
    13
100
AcDb2dPolyline
 66
     1
 10
0.0
 20
0.0
 30
0.0
  0
VERTEX
  5
675
330
674
100
AcDbEntity
  8
0
370
     0
100
AcDbVertex
100
AcDb2dVertex
 10
406.180878
 20
578.907349
 30
0.0
  0
VERTEX
  5
676
330
674
100
AcDbEntity
  8
0
370
     0
100
AcDbVertex
100
AcDb2dVertex
 10
406.180878
 20
581.165405
 30
0.0
  0
SEQEND
  5
677
330
674
100
AcDbEntity
  8
0
 62
     7
370
    13
  0
POLYLINE
  5
678
330
1F
100
AcDbEntity
  8
0
 62
     7
370
    13
100
AcDb2dPolyline
 66
     1
 10
0.0
 20
0.0
 30
0.0
  0
VERTEX
  5
679
330
678
100
AcDbEntity
  8
0
370
     0
100
AcDbVertex
100
AcDb2dVertex
 10
412.898621
 20
581.165405
 30
0.0
  0
VERTEX
  5
67A
330
678
100
AcDbEntity
  8
0
370
     0
100
AcDbVertex
100
AcDb2dVertex
 10
414.084106
 20
578.907349
 30
0.0
  0
VERTEX
  5
67B
330
678
100
AcDbEntity
  8
0
370
     0
100
AcDbVertex
100
AcDb2dVertex
 10
415.269592
 20
581.165405
 30
0.0
  0
SEQEND
  5
67C
330
678
100
AcDbEntity
  8
0
 62
     7
370
    13
  0
POLYLINE
  5
67D
330
1F
100
AcDbEntity
  8
0
 62
     7
370
    13
100
AcDb2dPolyline
 66
     1
 10
0.0
 20
0.0
 30
0.0
  0
VERTEX
  5
67E
330
67D
100
AcDbEntity
  8
0
370
     0
100
AcDbVertex
100
AcDb2dVertex
 10
417.527649
 20
578.907349
 30
0.0
  0
VERTEX
  5
67F
330
67D
100
AcDbEntity
  8
0
370
     0
100
AcDbVertex
100
AcDb2dVertex
 10
417.527649
 20
580.996033
 30
0.0
  0
SEQEND
  5
680
330
67D
100
AcDbEntity
  8
0
 62
     7
370
    13
  0
POLYLINE
  5
681
330
1F
100
AcDbEntity
  8
0
 62
     7
370
    13
100
AcDb2dPolyline
 66
     1
 10
0.0
 20
0.0
 30
0.0
 70
     1
  0
VERTEX
  5
682
330
681
100
AcDbEntity
  8
0
370
     0
100
AcDbVertex
100
AcDb2dVertex
 10
417.527649
 20
582.068665
 30
0.0
  0
VERTEX
  5
683
330
681
100
AcDbEntity
  8
0
370
     0
100
AcDbVertex
100
AcDb2dVertex
 10
417.640564
 20
581.95575
 30
0.0
  0
VERTEX
  5
684
330
681
100
AcDbEntity
  8
0
370
     0
100
AcDbVertex
100
AcDb2dVertex
 10
417.527649
 20
581.842834
 30
0.0
  0
VERTEX
  5
685
330
681
100
AcDbEntity
  8
0
370
     0
100
AcDbVertex
100
AcDb2dVertex
 10
417.414734
 20
581.95575
 30
0.0
  0
SEQEND
  5
686
330
681
100
AcDbEntity
  8
0
 62
     7
370
    13
  0
POLYLINE
  5
687
330
1F
100
AcDbEntity
  8
0
 62
     7
370
    13
100
AcDb2dPolyline
 66
     1
 10
0.0
 20
0.0
 30
0.0
  0
VERTEX
  5
688
330
687
100
AcDbEntity
  8
0
370
     0
100
AcDbVertex
100
AcDb2dVertex
 10
421.535706
 20
581.05249
 30
0.0
  0
VERTEX
  5
689
330
687
100
AcDbEntity
  8
0
370
     0
100
AcDbVertex
100
AcDb2dVertex
 10
421.196991
 20
581.165405
 30
0.0
  0
VERTEX
  5
68A
330
687
100
AcDbEntity
  8
0
370
     0
100
AcDbVertex
100
AcDb2dVertex
 10
420.57605
 20
581.165405
 30
0.0
  0
VERTEX
  5
68B
330
687
100
AcDbEntity
  8
0
370
     0
100
AcDbVertex
100
AcDb2dVertex
 10
420.180878
 20
581.05249
 30
0.0
  0
VERTEX
  5
68C
330
687
100
AcDbEntity
  8
0
370
     0
100
AcDbVertex
100
AcDb2dVertex
 10
419.729248
 20
580.657349
 30
0.0
  0
VERTEX
  5
68D
330
687
100
AcDbEntity
  8
0
370
     0
100
AcDbVertex
100
AcDb2dVertex
 10
419.616364
 20
580.20575
 30
0.0
  0
SEQEND
  5
68E
330
687
100
AcDbEntity
  8
0
 62
     7
370
    13
  0
POLYLINE
  5
68F
330
1F
100
AcDbEntity
  8
0
 62
     7
370
    13
100
AcDb2dPolyline
 66
     1
 10
0.0
 20
0.0
 30
0.0
  0
VERTEX
  5
690
330
68F
100
AcDbEntity
  8
0
370
     0
100
AcDbVertex
100
AcDb2dVertex
 10
421.196991
 20
578.907349
 30
0.0
  0
VERTEX
  5
691
330
68F
100
AcDbEntity
  8
0
370
     0
100
AcDbVertex
100
AcDb2dVertex
 10
421.535706
 20
579.020264
 30
0.0
  0
VERTEX
  5
692
330
68F
100
AcDbEntity
  8
0
370
     0
100
AcDbVertex
100
AcDb2dVertex
 10
421.987335
 20
579.415405
 30
0.0
  0
SEQEND
  5
693
330
68F
100
AcDbEntity
  8
0
 62
     7
370
    13
  0
POLYLINE
  5
694
330
1F
100
AcDbEntity
  8
0
 62
     7
370
    13
100
AcDb2dPolyline
 66
     1
 10
0.0
 20
0.0
 30
0.0
  0
VERTEX
  5
695
330
694
100
AcDbEntity
  8
0
370
     0
100
AcDbVertex
100
AcDb2dVertex
 10
420.57605
 20
578.907349
 30
0.0
  0
VERTEX
  5
696
330
694
100
AcDbEntity
  8
0
370
     0
100
AcDbVertex
100
AcDb2dVertex
 10
421.196991
 20
578.907349
 30
0.0
  0
SEQEND
  5
697
330
694
100
AcDbEntity
  8
0
 62
     7
370
    13
  0
POLYLINE
  5
698
330
1F
100
AcDbEntity
  8
0
 62
     7
370
    13
100
AcDb2dPolyline
 66
     1
 10
0.0
 20
0.0
 30
0.0
  0
VERTEX
  5
699
330
698
100
AcDbEntity
  8
0
370
     0
100
AcDbVertex
100
AcDb2dVertex
 10
419.729248
 20
579.415405
 30
0.0
  0
VERTEX
  5
69A
330
698
100
AcDbEntity
  8
0
370
     0
100
AcDbVertex
100
AcDb2dVertex
 10
419.616364
 20
579.867004
 30
0.0
  0
SEQEND
  5
69B
330
698
100
AcDbEntity
  8
0
 62
     7
370
    13
  0
POLYLINE
  5
69C
330
1F
100
AcDbEntity
  8
0
 62
     7
370
    13
100
AcDb2dPolyline
 66
     1
 10
0.0
 20
0.0
 30
0.0
  0
VERTEX
  5
69D
330
69C
100
AcDbEntity
  8
0
370
     0
100
AcDbVertex
100
AcDb2dVertex
 10
419.616364
 20
580.20575
 30
0.0
  0
VERTEX
  5
69E
330
69C
100
AcDbEntity
  8
0
370
     0
100
AcDbVertex
100
AcDb2dVertex
 10
419.616364
 20
579.867004
 30
0.0
  0
SEQEND
  5
69F
330
69C
100
AcDbEntity
  8
0
 62
     7
370
    13
  0
POLYLINE
  5
6A0
330
1F
100
AcDbEntity
  8
0
 62
     7
370
    13
100
AcDb2dPolyline
 66
     1
 10
0.0
 20
0.0
 30
0.0
  0
VERTEX
  5
6A1
330
6A0
100
AcDbEntity
  8
0
370
     0
100
AcDbVertex
100
AcDb2dVertex
 10
420.57605
 20
578.907349
 30
0.0
  0
VERTEX
  5
6A2
330
6A0
100
AcDbEntity
  8
0
370
     0
100
AcDbVertex
100
AcDb2dVertex
 10
420.180878
 20
579.020264
 30
0.0
  0
VERTEX
  5
6A3
330
6A0
100
AcDbEntity
  8
0
370
     0
100
AcDbVertex
100
AcDb2dVertex
 10
419.729248
 20
579.415405
 30
0.0
  0
SEQEND
  5
6A4
330
6A0
100
AcDbEntity
  8
0
 62
     7
370
    13
  0
POLYLINE
  5
6A5
330
1F
100
AcDbEntity
  8
0
 62
     7
370
    13
100
AcDb2dPolyline
 66
     1
 10
0.0
 20
0.0
 30
0.0
  0
VERTEX
  5
6A6
330
6A5
100
AcDbEntity
  8
0
370
     0
100
AcDbVertex
100
AcDb2dVertex
 10
421.987335
 20
580.092834
 30
0.0
  0
VERTEX
  5
6A7
330
6A5
100
AcDbEntity
  8
0
370
     0
100
AcDbVertex
100
AcDb2dVertex
 10
421.987335
 20
580.487976
 30
0.0
  0
VERTEX
  5
6A8
330
6A5
100
AcDbEntity
  8
0
370
     0
100
AcDbVertex
100
AcDb2dVertex
 10
421.817963
 20
580.826721
 30
0.0
  0
SEQEND
  5
6A9
330
6A5
100
AcDbEntity
  8
0
 62
     7
370
    13
  0
POLYLINE
  5
6AA
330
1F
100
AcDbEntity
  8
0
 62
     7
370
    13
100
AcDb2dPolyline
 66
     1
 10
0.0
 20
0.0
 30
0.0
  0
VERTEX
  5
6AB
330
6AA
100
AcDbEntity
  8
0
370
     0
100
AcDbVertex
100
AcDb2dVertex
 10
421.535706
 20
581.05249
 30
0.0
  0
VERTEX
  5
6AC
330
6AA
100
AcDbEntity
  8
0
370
     0
100
AcDbVertex
100
AcDb2dVertex
 10
421.817963
 20
580.826721
 30
0.0
  0
SEQEND
  5
6AD
330
6AA
100
AcDbEntity
  8
0
 62
     7
370
    13
  0
POLYLINE
  5
6AE
330
1F
100
AcDbEntity
  8
0
 62
     7
370
    13
100
AcDb2dPolyline
 66
     1
 10
0.0
 20
0.0
 30
0.0
  0
VERTEX
  5
6AF
330
6AE
100
AcDbEntity
  8
0
370
     0
100
AcDbVertex
100
AcDb2dVertex
 10
421.987335
 20
580.092834
 30
0.0
  0
VERTEX
  5
6B0
330
6AE
100
AcDbEntity
  8
0
370
     0
100
AcDbVertex
100
AcDb2dVertex
 10
419.616364
 20
580.092834
 30
0.0
  0
SEQEND
  5
6B1
330
6AE
100
AcDbEntity
  8
0
 62
     7
370
    13
  0
POLYLINE
  5
6B2
330
1F
100
AcDbEntity
  8
0
 62
     7
370
    13
100
AcDb2dPolyline
 66
     1
 10
0.0
 20
0.0
 30
0.0
  0
VERTEX
  5
6B3
330
6B2
100
AcDbEntity
  8
0
370
     0
100
AcDbVertex
100
AcDb2dVertex
 10
422.721191
 20
581.165405
 30
0.0
  0
VERTEX
  5
6B4
330
6B2
100
AcDbEntity
  8
0
370
     0
100
AcDbVertex
100
AcDb2dVertex
 10
423.511536
 20
578.907349
 30
0.0
  0
VERTEX
  5
6B5
330
6B2
100
AcDbEntity
  8
0
370
     0
100
AcDbVertex
100
AcDb2dVertex
 10
424.245392
 20
581.165405
 30
0.0
  0
VERTEX
  5
6B6
330
6B2
100
AcDbEntity
  8
0
370
     0
100
AcDbVertex
100
AcDb2dVertex
 10
424.979248
 20
578.907349
 30
0.0
  0
VERTEX
  5
6B7
330
6B2
100
AcDbEntity
  8
0
370
     0
100
AcDbVertex
100
AcDb2dVertex
 10
425.769592
 20
581.165405
 30
0.0
  0
SEQEND
  5
6B8
330
6B2
100
AcDbEntity
  8
0
 62
     7
370
    13
  0
POLYLINE
  5
6B9
330
1F
100
AcDbEntity
  8
0
 62
     7
370
    13
100
AcDb2dPolyline
 66
     1
 10
0.0
 20
0.0
 30
0.0
  0
VERTEX
  5
6BA
330
6B9
100
AcDbEntity
  8
0
370
     0
100
AcDbVertex
100
AcDb2dVertex
 10
429.664734
 20
578.907349
 30
0.0
  0
VERTEX
  5
6BB
330
6B9
100
AcDbEntity
  8
0
370
     0
100
AcDbVertex
100
AcDb2dVertex
 10
431.188934
 20
582.407349
 30
0.0
  0
VERTEX
  5
6BC
330
6B9
100
AcDbEntity
  8
0
370
     0
100
AcDbVertex
100
AcDb2dVertex
 10
432.713135
 20
578.907349
 30
0.0
  0
SEQEND
  5
6BD
330
6B9
100
AcDbEntity
  8
0
 62
     7
370
    13
  0
POLYLINE
  5
6BE
330
1F
100
AcDbEntity
  8
0
 62
     7
370
    13
100
AcDb2dPolyline
 66
     1
 10
0.0
 20
0.0
 30
0.0
  0
VERTEX
  5
6BF
330
6BE
100
AcDbEntity
  8
0
370
     0
100
AcDbVertex
100
AcDb2dVertex
 10
430.172821
 20
580.092834
 30
0.0
  0
VERTEX
  5
6C0
330
6BE
100
AcDbEntity
  8
0
370
     0
100
AcDbVertex
100
AcDb2dVertex
 10
432.205078
 20
580.092834
 30
0.0
  0
SEQEND
  5
6C1
330
6BE
100
AcDbEntity
  8
0
 62
     7
370
    13
  0
POLYLINE
  5
6C2
330
1F
100
AcDbEntity
  8
0
 62
     7
370
    13
100
AcDb2dPolyline
 66
     1
 10
0.0
 20
0.0
 30
0.0
  0
VERTEX
  5
6C3
330
6C2
100
AcDbEntity
  8
0
370
     0
100
AcDbVertex
100
AcDb2dVertex
 10
433.390564
 20
580.318665
 30
0.0
  0
VERTEX
  5
6C4
330
6C2
100
AcDbEntity
  8
0
370
     0
100
AcDbVertex
100
AcDb2dVertex
 10
435.987335
 20
580.318665
 30
0.0
  0
SEQEND
  5
6C5
330
6C2
100
AcDbEntity
  8
0
 62
     7
370
    13
  0
POLYLINE
  5
6C6
330
1F
100
AcDbEntity
  8
0
 62
     7
370
    13
100
AcDb2dPolyline
 66
     1
 10
0.0
 20
0.0
 30
0.0
  0
VERTEX
  5
6C7
330
6C6
100
AcDbEntity
  8
0
370
     0
100
AcDbVertex
100
AcDb2dVertex
 10
436.438934
 20
578.907349
 30
0.0
  0
VERTEX
  5
6C8
330
6C6
100
AcDbEntity
  8
0
370
     0
100
AcDbVertex
100
AcDb2dVertex
 10
437.963135
 20
582.407349
 30
0.0
  0
VERTEX
  5
6C9
330
6C6
100
AcDbEntity
  8
0
370
     0
100
AcDbVertex
100
AcDb2dVertex
 10
439.487335
 20
578.907349
 30
0.0
  0
SEQEND
  5
6CA
330
6C6
100
AcDbEntity
  8
0
 62
     7
370
    13
  0
POLYLINE
  5
6CB
330
1F
100
AcDbEntity
  8
0
 62
     7
370
    13
100
AcDb2dPolyline
 66
     1
 10
0.0
 20
0.0
 30
0.0
  0
VERTEX
  5
6CC
330
6CB
100
AcDbEntity
  8
0
370
     0
100
AcDbVertex
100
AcDb2dVertex
 10
436.946991
 20
580.092834
 30
0.0
  0
VERTEX
  5
6CD
330
6CB
100
AcDbEntity
  8
0
370
     0
100
AcDbVertex
100
AcDb2dVertex
 10
438.979248
 20
580.092834
 30
0.0
  0
SEQEND
  5
6CE
330
6CB
100
AcDbEntity
  8
0
 62
     7
370
    13
  0
POLYLINE
  5
6CF
330
1F
100
AcDbEntity
  8
0
 62
     7
370
    13
100
AcDb2dPolyline
 66
     1
 10
0.0
 20
0.0
 30
0.0
  0
VERTEX
  5
6D0
330
6CF
100
AcDbEntity
  8
0
370
     0
100
AcDbVertex
100
AcDb2dVertex
 10
388.62442
 20
575.689636
 30
0.0
  0
VERTEX
  5
6D1
330
6CF
100
AcDbEntity
  8
0
370
     0
100
AcDbVertex
100
AcDb2dVertex
 10
388.172821
 20
576.084778
 30
0.0
  0
VERTEX
  5
6D2
330
6CF
100
AcDbEntity
  8
0
370
     0
100
AcDbVertex
100
AcDb2dVertex
 10
387.495392
 20
576.25415
 30
0.0
  0
VERTEX
  5
6D3
330
6CF
100
AcDbEntity
  8
0
370
     0
100
AcDbVertex
100
AcDb2dVertex
 10
386.817963
 20
576.25415
 30
0.0
  0
VERTEX
  5
6D4
330
6CF
100
AcDbEntity
  8
0
370
     0
100
AcDbVertex
100
AcDb2dVertex
 10
386.140564
 20
576.084778
 30
0.0
  0
VERTEX
  5
6D5
330
6CF
100
AcDbEntity
  8
0
370
     0
100
AcDbVertex
100
AcDb2dVertex
 10
385.688934
 20
575.633179
 30
0.0
  0
VERTEX
  5
6D6
330
6CF
100
AcDbEntity
  8
0
370
     0
100
AcDbVertex
100
AcDb2dVertex
 10
385.688934
 20
575.238037
 30
0.0
  0
VERTEX
  5
6D7
330
6CF
100
AcDbEntity
  8
0
370
     0
100
AcDbVertex
100
AcDb2dVertex
 10
386.084106
 20
574.842834
 30
0.0
  0
SEQEND
  5
6D8
330
6CF
100
AcDbEntity
  8
0
 62
     7
370
    13
  0
POLYLINE
  5
6D9
330
1F
100
AcDbEntity
  8
0
 62
     7
370
    13
100
AcDb2dPolyline
 66
     1
 10
0.0
 20
0.0
 30
0.0
  0
VERTEX
  5
6DA
330
6D9
100
AcDbEntity
  8
0
370
     0
100
AcDbVertex
100
AcDb2dVertex
 10
387.156677
 20
574.560608
 30
0.0
  0
VERTEX
  5
6DB
330
6D9
100
AcDbEntity
  8
0
370
     0
100
AcDbVertex
100
AcDb2dVertex
 10
387.664734
 20
574.447693
 30
0.0
  0
SEQEND
  5
6DC
330
6D9
100
AcDbEntity
  8
0
 62
     7
370
    13
  0
POLYLINE
  5
6DD
330
1F
100
AcDbEntity
  8
0
 62
     7
370
    13
100
AcDb2dPolyline
 66
     1
 10
0.0
 20
0.0
 30
0.0
  0
VERTEX
  5
6DE
330
6DD
100
AcDbEntity
  8
0
370
     0
100
AcDbVertex
100
AcDb2dVertex
 10
388.172821
 20
572.867065
 30
0.0
  0
VERTEX
  5
6DF
330
6DD
100
AcDbEntity
  8
0
370
     0
100
AcDbVertex
100
AcDb2dVertex
 10
387.495392
 20
572.75415
 30
0.0
  0
VERTEX
  5
6E0
330
6DD
100
AcDbEntity
  8
0
370
     0
100
AcDbVertex
100
AcDb2dVertex
 10
386.817963
 20
572.75415
 30
0.0
  0
VERTEX
  5
6E1
330
6DD
100
AcDbEntity
  8
0
370
     0
100
AcDbVertex
100
AcDb2dVertex
 10
386.140564
 20
572.97998
 30
0.0
  0
VERTEX
  5
6E2
330
6DD
100
AcDbEntity
  8
0
370
     0
100
AcDbVertex
100
AcDb2dVertex
 10
385.688934
 20
573.375122
 30
0.0
  0
SEQEND
  5
6E3
330
6DD
100
AcDbEntity
  8
0
 62
     7
370
    13
  0
POLYLINE
  5
6E4
330
1F
100
AcDbEntity
  8
0
 62
     7
370
    13
100
AcDb2dPolyline
 66
     1
 10
0.0
 20
0.0
 30
0.0
  0
VERTEX
  5
6E5
330
6E4
100
AcDbEntity
  8
0
370
     0
100
AcDbVertex
100
AcDb2dVertex
 10
386.705078
 20
574.617065
 30
0.0
  0
VERTEX
  5
6E6
330
6E4
100
AcDbEntity
  8
0
370
     0
100
AcDbVertex
100
AcDb2dVertex
 10
387.156677
 20
574.560608
 30
0.0
  0
SEQEND
  5
6E7
330
6E4
100
AcDbEntity
  8
0
 62
     7
370
    13
  0
POLYLINE
  5
6E8
330
1F
100
AcDbEntity
  8
0
 62
     7
370
    13
100
AcDb2dPolyline
 66
     1
 10
0.0
 20
0.0
 30
0.0
  0
VERTEX
  5
6E9
330
6E8
100
AcDbEntity
  8
0
370
     0
100
AcDbVertex
100
AcDb2dVertex
 10
386.084106
 20
574.842834
 30
0.0
  0
VERTEX
  5
6EA
330
6E8
100
AcDbEntity
  8
0
370
     0
100
AcDbVertex
100
AcDb2dVertex
 10
386.705078
 20
574.617065
 30
0.0
  0
SEQEND
  5
6EB
330
6E8
100
AcDbEntity
  8
0
 62
     7
370
    13
  0
POLYLINE
  5
6EC
330
1F
100
AcDbEntity
  8
0
 62
     7
370
    13
100
AcDb2dPolyline
 66
     1
 10
0.0
 20
0.0
 30
0.0
  0
VERTEX
  5
6ED
330
6EC
100
AcDbEntity
  8
0
370
     0
100
AcDbVertex
100
AcDb2dVertex
 10
388.62442
 20
573.318665
 30
0.0
  0
VERTEX
  5
6EE
330
6EC
100
AcDbEntity
  8
0
370
     0
100
AcDbVertex
100
AcDb2dVertex
 10
388.172821
 20
572.867065
 30
0.0
  0
SEQEND
  5
6EF
330
6EC
100
AcDbEntity
  8
0
 62
     7
370
    13
  0
POLYLINE
  5
6F0
330
1F
100
AcDbEntity
  8
0
 62
     7
370
    13
100
AcDb2dPolyline
 66
     1
 10
0.0
 20
0.0
 30
0.0
  0
VERTEX
  5
6F1
330
6F0
100
AcDbEntity
  8
0
370
     0
100
AcDbVertex
100
AcDb2dVertex
 10
388.62442
 20
573.826721
 30
0.0
  0
VERTEX
  5
6F2
330
6F0
100
AcDbEntity
  8
0
370
     0
100
AcDbVertex
100
AcDb2dVertex
 10
388.62442
 20
573.318665
 30
0.0
  0
SEQEND
  5
6F3
330
6F0
100
AcDbEntity
  8
0
 62
     7
370
    13
  0
POLYLINE
  5
6F4
330
1F
100
AcDbEntity
  8
0
 62
     7
370
    13
100
AcDb2dPolyline
 66
     1
 10
0.0
 20
0.0
 30
0.0
  0
VERTEX
  5
6F5
330
6F4
100
AcDbEntity
  8
0
370
     0
100
AcDbVertex
100
AcDb2dVertex
 10
387.664734
 20
574.447693
 30
0.0
  0
VERTEX
  5
6F6
330
6F4
100
AcDbEntity
  8
0
370
     0
100
AcDbVertex
100
AcDb2dVertex
 10
388.172821
 20
574.221863
 30
0.0
  0
VERTEX
  5
6F7
330
6F4
100
AcDbEntity
  8
0
370
     0
100
AcDbVertex
100
AcDb2dVertex
 10
388.62442
 20
573.826721
 30
0.0
  0
SEQEND
  5
6F8
330
6F4
100
AcDbEntity
  8
0
 62
     7
370
    13
  0
POLYLINE
  5
6F9
330
1F
100
AcDbEntity
  8
0
 62
     7
370
    13
100
AcDb2dPolyline
 66
     1
 10
0.0
 20
0.0
 30
0.0
  0
VERTEX
  5
6FA
330
6F9
100
AcDbEntity
  8
0
370
     0
100
AcDbVertex
100
AcDb2dVertex
 10
391.503448
 20
574.50415
 30
0.0
  0
VERTEX
  5
6FB
330
6F9
100
AcDbEntity
  8
0
370
     0
100
AcDbVertex
100
AcDb2dVertex
 10
391.051849
 20
574.899292
 30
0.0
  0
VERTEX
  5
6FC
330
6F9
100
AcDbEntity
  8
0
370
     0
100
AcDbVertex
100
AcDb2dVertex
 10
390.713135
 20
575.012207
 30
0.0
  0
VERTEX
  5
6FD
330
6F9
100
AcDbEntity
  8
0
370
     0
100
AcDbVertex
100
AcDb2dVertex
 10
390.092163
 20
575.012207
 30
0.0
  0
VERTEX
  5
6FE
330
6F9
100
AcDbEntity
  8
0
370
     0
100
AcDbVertex
100
AcDb2dVertex
 10
389.696991
 20
574.899292
 30
0.0
  0
VERTEX
  5
6FF
330
6F9
100
AcDbEntity
  8
0
370
     0
100
AcDbVertex
100
AcDb2dVertex
 10
389.245392
 20
574.50415
 30
0.0
  0
VERTEX
  5
700
330
6F9
100
AcDbEntity
  8
0
370
     0
100
AcDbVertex
100
AcDb2dVertex
 10
389.132477
 20
574.052551
 30
0.0
  0
SEQEND
  5
701
330
6F9
100
AcDbEntity
  8
0
 62
     7
370
    13
  0
POLYLINE
  5
702
330
1F
100
AcDbEntity
  8
0
 62
     7
370
    13
100
AcDb2dPolyline
 66
     1
 10
0.0
 20
0.0
 30
0.0
  0
VERTEX
  5
703
330
702
100
AcDbEntity
  8
0
370
     0
100
AcDbVertex
100
AcDb2dVertex
 10
390.713135
 20
572.75415
 30
0.0
  0
VERTEX
  5
704
330
702
100
AcDbEntity
  8
0
370
     0
100
AcDbVertex
100
AcDb2dVertex
 10
391.051849
 20
572.867065
 30
0.0
  0
VERTEX
  5
705
330
702
100
AcDbEntity
  8
0
370
     0
100
AcDbVertex
100
AcDb2dVertex
 10
391.503448
 20
573.262207
 30
0.0
  0
SEQEND
  5
706
330
702
100
AcDbEntity
  8
0
 62
     7
370
    13
  0
POLYLINE
  5
707
330
1F
100
AcDbEntity
  8
0
 62
     7
370
    13
100
AcDb2dPolyline
 66
     1
 10
0.0
 20
0.0
 30
0.0
  0
VERTEX
  5
708
330
707
100
AcDbEntity
  8
0
370
     0
100
AcDbVertex
100
AcDb2dVertex
 10
390.092163
 20
572.75415
 30
0.0
  0
VERTEX
  5
709
330
707
100
AcDbEntity
  8
0
370
     0
100
AcDbVertex
100
AcDb2dVertex
 10
390.713135
 20
572.75415
 30
0.0
  0
SEQEND
  5
70A
330
707
100
AcDbEntity
  8
0
 62
     7
370
    13
  0
POLYLINE
  5
70B
330
1F
100
AcDbEntity
  8
0
 62
     7
370
    13
100
AcDb2dPolyline
 66
     1
 10
0.0
 20
0.0
 30
0.0
  0
VERTEX
  5
70C
330
70B
100
AcDbEntity
  8
0
370
     0
100
AcDbVertex
100
AcDb2dVertex
 10
389.245392
 20
573.262207
 30
0.0
  0
VERTEX
  5
70D
330
70B
100
AcDbEntity
  8
0
370
     0
100
AcDbVertex
100
AcDb2dVertex
 10
389.132477
 20
573.713806
 30
0.0
  0
SEQEND
  5
70E
330
70B
100
AcDbEntity
  8
0
 62
     7
370
    13
  0
POLYLINE
  5
70F
330
1F
100
AcDbEntity
  8
0
 62
     7
370
    13
100
AcDb2dPolyline
 66
     1
 10
0.0
 20
0.0
 30
0.0
  0
VERTEX
  5
710
330
70F
100
AcDbEntity
  8
0
370
     0
100
AcDbVertex
100
AcDb2dVertex
 10
389.132477
 20
574.052551
 30
0.0
  0
VERTEX
  5
711
330
70F
100
AcDbEntity
  8
0
370
     0
100
AcDbVertex
100
AcDb2dVertex
 10
389.132477
 20
573.713806
 30
0.0
  0
SEQEND
  5
712
330
70F
100
AcDbEntity
  8
0
 62
     7
370
    13
  0
POLYLINE
  5
713
330
1F
100
AcDbEntity
  8
0
 62
     7
370
    13
100
AcDb2dPolyline
 66
     1
 10
0.0
 20
0.0
 30
0.0
  0
VERTEX
  5
714
330
713
100
AcDbEntity
  8
0
370
     0
100
AcDbVertex
100
AcDb2dVertex
 10
390.092163
 20
572.75415
 30
0.0
  0
VERTEX
  5
715
330
713
100
AcDbEntity
  8
0
370
     0
100
AcDbVertex
100
AcDb2dVertex
 10
389.696991
 20
572.867065
 30
0.0
  0
VERTEX
  5
716
330
713
100
AcDbEntity
  8
0
370
     0
100
AcDbVertex
100
AcDb2dVertex
 10
389.245392
 20
573.262207
 30
0.0
  0
SEQEND
  5
717
330
713
100
AcDbEntity
  8
0
 62
     7
370
    13
  0
POLYLINE
  5
718
330
1F
100
AcDbEntity
  8
0
 62
     7
370
    13
100
AcDb2dPolyline
 66
     1
 10
0.0
 20
0.0
 30
0.0
  0
VERTEX
  5
719
330
718
100
AcDbEntity
  8
0
370
     0
100
AcDbVertex
100
AcDb2dVertex
 10
394.890564
 20
574.50415
 30
0.0
  0
VERTEX
  5
71A
330
718
100
AcDbEntity
  8
0
370
     0
100
AcDbVertex
100
AcDb2dVertex
 10
394.438934
 20
574.899292
 30
0.0
  0
VERTEX
  5
71B
330
718
100
AcDbEntity
  8
0
370
     0
100
AcDbVertex
100
AcDb2dVertex
 10
394.10022
 20
575.012207
 30
0.0
  0
VERTEX
  5
71C
330
718
100
AcDbEntity
  8
0
370
     0
100
AcDbVertex
100
AcDb2dVertex
 10
393.479279
 20
575.012207
 30
0.0
  0
VERTEX
  5
71D
330
718
100
AcDbEntity
  8
0
370
     0
100
AcDbVertex
100
AcDb2dVertex
 10
393.084106
 20
574.899292
 30
0.0
  0
VERTEX
  5
71E
330
718
100
AcDbEntity
  8
0
370
     0
100
AcDbVertex
100
AcDb2dVertex
 10
392.632477
 20
574.50415
 30
0.0
  0
VERTEX
  5
71F
330
718
100
AcDbEntity
  8
0
370
     0
100
AcDbVertex
100
AcDb2dVertex
 10
392.519592
 20
574.052551
 30
0.0
  0
SEQEND
  5
720
330
718
100
AcDbEntity
  8
0
 62
     7
370
    13
  0
POLYLINE
  5
721
330
1F
100
AcDbEntity
  8
0
 62
     7
370
    13
100
AcDb2dPolyline
 66
     1
 10
0.0
 20
0.0
 30
0.0
  0
VERTEX
  5
722
330
721
100
AcDbEntity
  8
0
370
     0
100
AcDbVertex
100
AcDb2dVertex
 10
394.10022
 20
572.75415
 30
0.0
  0
VERTEX
  5
723
330
721
100
AcDbEntity
  8
0
370
     0
100
AcDbVertex
100
AcDb2dVertex
 10
394.438934
 20
572.867065
 30
0.0
  0
VERTEX
  5
724
330
721
100
AcDbEntity
  8
0
370
     0
100
AcDbVertex
100
AcDb2dVertex
 10
394.890564
 20
573.262207
 30
0.0
  0
SEQEND
  5
725
330
721
100
AcDbEntity
  8
0
 62
     7
370
    13
  0
POLYLINE
  5
726
330
1F
100
AcDbEntity
  8
0
 62
     7
370
    13
100
AcDb2dPolyline
 66
     1
 10
0.0
 20
0.0
 30
0.0
  0
VERTEX
  5
727
330
726
100
AcDbEntity
  8
0
370
     0
100
AcDbVertex
100
AcDb2dVertex
 10
393.479279
 20
572.75415
 30
0.0
  0
VERTEX
  5
728
330
726
100
AcDbEntity
  8
0
370
     0
100
AcDbVertex
100
AcDb2dVertex
 10
394.10022
 20
572.75415
 30
0.0
  0
SEQEND
  5
729
330
726
100
AcDbEntity
  8
0
 62
     7
370
    13
  0
POLYLINE
  5
72A
330
1F
100
AcDbEntity
  8
0
 62
     7
370
    13
100
AcDb2dPolyline
 66
     1
 10
0.0
 20
0.0
 30
0.0
  0
VERTEX
  5
72B
330
72A
100
AcDbEntity
  8
0
370
     0
100
AcDbVertex
100
AcDb2dVertex
 10
392.632477
 20
573.262207
 30
0.0
  0
VERTEX
  5
72C
330
72A
100
AcDbEntity
  8
0
370
     0
100
AcDbVertex
100
AcDb2dVertex
 10
392.519592
 20
573.713806
 30
0.0
  0
SEQEND
  5
72D
330
72A
100
AcDbEntity
  8
0
 62
     7
370
    13
  0
POLYLINE
  5
72E
330
1F
100
AcDbEntity
  8
0
 62
     7
370
    13
100
AcDb2dPolyline
 66
     1
 10
0.0
 20
0.0
 30
0.0
  0
VERTEX
  5
72F
330
72E
100
AcDbEntity
  8
0
370
     0
100
AcDbVertex
100
AcDb2dVertex
 10
392.519592
 20
574.052551
 30
0.0
  0
VERTEX
  5
730
330
72E
100
AcDbEntity
  8
0
370
     0
100
AcDbVertex
100
AcDb2dVertex
 10
392.519592
 20
573.713806
 30
0.0
  0
SEQEND
  5
731
330
72E
100
AcDbEntity
  8
0
 62
     7
370
    13
  0
POLYLINE
  5
732
330
1F
100
AcDbEntity
  8
0
 62
     7
370
    13
100
AcDb2dPolyline
 66
     1
 10
0.0
 20
0.0
 30
0.0
  0
VERTEX
  5
733
330
732
100
AcDbEntity
  8
0
370
     0
100
AcDbVertex
100
AcDb2dVertex
 10
393.479279
 20
572.75415
 30
0.0
  0
VERTEX
  5
734
330
732
100
AcDbEntity
  8
0
370
     0
100
AcDbVertex
100
AcDb2dVertex
 10
393.084106
 20
572.867065
 30
0.0
  0
VERTEX
  5
735
330
732
100
AcDbEntity
  8
0
370
     0
100
AcDbVertex
100
AcDb2dVertex
 10
392.632477
 20
573.262207
 30
0.0
  0
SEQEND
  5
736
330
732
100
AcDbEntity
  8
0
 62
     7
370
    13
  0
POLYLINE
  5
737
330
1F
100
AcDbEntity
  8
0
 62
     7
370
    13
100
AcDb2dPolyline
 66
     1
 10
0.0
 20
0.0
 30
0.0
  0
VERTEX
  5
738
330
737
100
AcDbEntity
  8
0
370
     0
100
AcDbVertex
100
AcDb2dVertex
 10
394.890564
 20
572.75415
 30
0.0
  0
VERTEX
  5
739
330
737
100
AcDbEntity
  8
0
370
     0
100
AcDbVertex
100
AcDb2dVertex
 10
394.890564
 20
575.012207
 30
0.0
  0
SEQEND
  5
73A
330
737
100
AcDbEntity
  8
0
 62
     7
370
    13
  0
POLYLINE
  5
73B
330
1F
100
AcDbEntity
  8
0
 62
     7
370
    13
100
AcDb2dPolyline
 66
     1
 10
0.0
 20
0.0
 30
0.0
  0
VERTEX
  5
73C
330
73B
100
AcDbEntity
  8
0
370
     0
100
AcDbVertex
100
AcDb2dVertex
 10
397.317963
 20
576.25415
 30
0.0
  0
VERTEX
  5
73D
330
73B
100
AcDbEntity
  8
0
370
     0
100
AcDbVertex
100
AcDb2dVertex
 10
397.317963
 20
572.75415
 30
0.0
  0
SEQEND
  5
73E
330
73B
100
AcDbEntity
  8
0
 62
     7
370
    13
  0
POLYLINE
  5
73F
330
1F
100
AcDbEntity
  8
0
 62
     7
370
    13
100
AcDb2dPolyline
 66
     1
 10
0.0
 20
0.0
 30
0.0
  0
VERTEX
  5
740
330
73F
100
AcDbEntity
  8
0
370
     0
100
AcDbVertex
100
AcDb2dVertex
 10
401.213135
 20
574.899292
 30
0.0
  0
VERTEX
  5
741
330
73F
100
AcDbEntity
  8
0
370
     0
100
AcDbVertex
100
AcDb2dVertex
 10
400.87442
 20
575.012207
 30
0.0
  0
VERTEX
  5
742
330
73F
100
AcDbEntity
  8
0
370
     0
100
AcDbVertex
100
AcDb2dVertex
 10
400.253448
 20
575.012207
 30
0.0
  0
VERTEX
  5
743
330
73F
100
AcDbEntity
  8
0
370
     0
100
AcDbVertex
100
AcDb2dVertex
 10
399.858307
 20
574.899292
 30
0.0
  0
VERTEX
  5
744
330
73F
100
AcDbEntity
  8
0
370
     0
100
AcDbVertex
100
AcDb2dVertex
 10
399.406677
 20
574.50415
 30
0.0
  0
VERTEX
  5
745
330
73F
100
AcDbEntity
  8
0
370
     0
100
AcDbVertex
100
AcDb2dVertex
 10
399.293793
 20
574.052551
 30
0.0
  0
SEQEND
  5
746
330
73F
100
AcDbEntity
  8
0
 62
     7
370
    13
  0
POLYLINE
  5
747
330
1F
100
AcDbEntity
  8
0
 62
     7
370
    13
100
AcDb2dPolyline
 66
     1
 10
0.0
 20
0.0
 30
0.0
  0
VERTEX
  5
748
330
747
100
AcDbEntity
  8
0
370
     0
100
AcDbVertex
100
AcDb2dVertex
 10
400.87442
 20
572.75415
 30
0.0
  0
VERTEX
  5
749
330
747
100
AcDbEntity
  8
0
370
     0
100
AcDbVertex
100
AcDb2dVertex
 10
401.213135
 20
572.867065
 30
0.0
  0
VERTEX
  5
74A
330
747
100
AcDbEntity
  8
0
370
     0
100
AcDbVertex
100
AcDb2dVertex
 10
401.664734
 20
573.262207
 30
0.0
  0
SEQEND
  5
74B
330
747
100
AcDbEntity
  8
0
 62
     7
370
    13
  0
POLYLINE
  5
74C
330
1F
100
AcDbEntity
  8
0
 62
     7
370
    13
100
AcDb2dPolyline
 66
     1
 10
0.0
 20
0.0
 30
0.0
  0
VERTEX
  5
74D
330
74C
100
AcDbEntity
  8
0
370
     0
100
AcDbVertex
100
AcDb2dVertex
 10
400.253448
 20
572.75415
 30
0.0
  0
VERTEX
  5
74E
330
74C
100
AcDbEntity
  8
0
370
     0
100
AcDbVertex
100
AcDb2dVertex
 10
400.87442
 20
572.75415
 30
0.0
  0
SEQEND
  5
74F
330
74C
100
AcDbEntity
  8
0
 62
     7
370
    13
  0
POLYLINE
  5
750
330
1F
100
AcDbEntity
  8
0
 62
     7
370
    13
100
AcDb2dPolyline
 66
     1
 10
0.0
 20
0.0
 30
0.0
  0
VERTEX
  5
751
330
750
100
AcDbEntity
  8
0
370
     0
100
AcDbVertex
100
AcDb2dVertex
 10
399.406677
 20
573.262207
 30
0.0
  0
VERTEX
  5
752
330
750
100
AcDbEntity
  8
0
370
     0
100
AcDbVertex
100
AcDb2dVertex
 10
399.293793
 20
573.713806
 30
0.0
  0
SEQEND
  5
753
330
750
100
AcDbEntity
  8
0
 62
     7
370
    13
  0
POLYLINE
  5
754
330
1F
100
AcDbEntity
  8
0
 62
     7
370
    13
100
AcDb2dPolyline
 66
     1
 10
0.0
 20
0.0
 30
0.0
  0
VERTEX
  5
755
330
754
100
AcDbEntity
  8
0
370
     0
100
AcDbVertex
100
AcDb2dVertex
 10
399.293793
 20
574.052551
 30
0.0
  0
VERTEX
  5
756
330
754
100
AcDbEntity
  8
0
370
     0
100
AcDbVertex
100
AcDb2dVertex
 10
399.293793
 20
573.713806
 30
0.0
  0
SEQEND
  5
757
330
754
100
AcDbEntity
  8
0
 62
     7
370
    13
  0
POLYLINE
  5
758
330
1F
100
AcDbEntity
  8
0
 62
     7
370
    13
100
AcDb2dPolyline
 66
     1
 10
0.0
 20
0.0
 30
0.0
  0
VERTEX
  5
759
330
758
100
AcDbEntity
  8
0
370
     0
100
AcDbVertex
100
AcDb2dVertex
 10
400.253448
 20
572.75415
 30
0.0
  0
VERTEX
  5
75A
330
758
100
AcDbEntity
  8
0
370
     0
100
AcDbVertex
100
AcDb2dVertex
 10
399.858307
 20
572.867065
 30
0.0
  0
VERTEX
  5
75B
330
758
100
AcDbEntity
  8
0
370
     0
100
AcDbVertex
100
AcDb2dVertex
 10
399.406677
 20
573.262207
 30
0.0
  0
SEQEND
  5
75C
330
758
100
AcDbEntity
  8
0
 62
     7
370
    13
  0
POLYLINE
  5
75D
330
1F
100
AcDbEntity
  8
0
 62
     7
370
    13
100
AcDb2dPolyline
 66
     1
 10
0.0
 20
0.0
 30
0.0
  0
VERTEX
  5
75E
330
75D
100
AcDbEntity
  8
0
370
     0
100
AcDbVertex
100
AcDb2dVertex
 10
401.664734
 20
573.939636
 30
0.0
  0
VERTEX
  5
75F
330
75D
100
AcDbEntity
  8
0
370
     0
100
AcDbVertex
100
AcDb2dVertex
 10
401.664734
 20
574.334778
 30
0.0
  0
VERTEX
  5
760
330
75D
100
AcDbEntity
  8
0
370
     0
100
AcDbVertex
100
AcDb2dVertex
 10
401.495392
 20
574.673523
 30
0.0
  0
SEQEND
  5
761
330
75D
100
AcDbEntity
  8
0
 62
     7
370
    13
  0
POLYLINE
  5
762
330
1F
100
AcDbEntity
  8
0
 62
     7
370
    13
100
AcDb2dPolyline
 66
     1
 10
0.0
 20
0.0
 30
0.0
  0
VERTEX
  5
763
330
762
100
AcDbEntity
  8
0
370
     0
100
AcDbVertex
100
AcDb2dVertex
 10
401.213135
 20
574.899292
 30
0.0
  0
VERTEX
  5
764
330
762
100
AcDbEntity
  8
0
370
     0
100
AcDbVertex
100
AcDb2dVertex
 10
401.495392
 20
574.673523
 30
0.0
  0
SEQEND
  5
765
330
762
100
AcDbEntity
  8
0
 62
     7
370
    13
  0
POLYLINE
  5
766
330
1F
100
AcDbEntity
  8
0
 62
     7
370
    13
100
AcDb2dPolyline
 66
     1
 10
0.0
 20
0.0
 30
0.0
  0
VERTEX
  5
767
330
766
100
AcDbEntity
  8
0
370
     0
100
AcDbVertex
100
AcDb2dVertex
 10
401.664734
 20
573.939636
 30
0.0
  0
VERTEX
  5
768
330
766
100
AcDbEntity
  8
0
370
     0
100
AcDbVertex
100
AcDb2dVertex
 10
399.293793
 20
573.939636
 30
0.0
  0
SEQEND
  5
769
330
766
100
AcDbEntity
  8
0
 62
     7
370
    13
  0
POLYLINE
  5
76A
330
1F
100
AcDbEntity
  8
0
 62
     7
370
    13
100
AcDb2dPolyline
 66
     1
 10
0.0
 20
0.0
 30
0.0
  0
VERTEX
  5
76B
330
76A
100
AcDbEntity
  8
0
370
     0
100
AcDbVertex
100
AcDb2dVertex
 10
404.092163
 20
572.75415
 30
0.0
  0
VERTEX
  5
76C
330
76A
100
AcDbEntity
  8
0
370
     0
100
AcDbVertex
100
AcDb2dVertex
 10
404.205078
 20
572.75415
 30
0.0
  0
SEQEND
  5
76D
330
76A
100
AcDbEntity
  8
0
 62
     7
370
    13
  0
POLYLINE
  5
76E
330
1F
100
AcDbEntity
  8
0
 62
     7
370
    13
100
AcDb2dPolyline
 66
     1
 10
0.0
 20
0.0
 30
0.0
  0
VERTEX
  5
76F
330
76E
100
AcDbEntity
  8
0
370
     0
100
AcDbVertex
100
AcDb2dVertex
 10
404.37442
 20
573.036438
 30
0.0
  0
VERTEX
  5
770
330
76E
100
AcDbEntity
  8
0
370
     0
100
AcDbVertex
100
AcDb2dVertex
 10
404.205078
 20
573.20575
 30
0.0
  0
SEQEND
  5
771
330
76E
100
AcDbEntity
  8
0
 62
     7
370
    13
  0
POLYLINE
  5
772
330
1F
100
AcDbEntity
  8
0
 62
     7
370
    13
100
AcDb2dPolyline
 66
     1
 10
0.0
 20
0.0
 30
0.0
  0
VERTEX
  5
773
330
772
100
AcDbEntity
  8
0
370
     0
100
AcDbVertex
100
AcDb2dVertex
 10
404.092163
 20
573.20575
 30
0.0
  0
VERTEX
  5
774
330
772
100
AcDbEntity
  8
0
370
     0
100
AcDbVertex
100
AcDb2dVertex
 10
403.922821
 20
573.036438
 30
0.0
  0
SEQEND
  5
775
330
772
100
AcDbEntity
  8
0
 62
     7
370
    13
  0
POLYLINE
  5
776
330
1F
100
AcDbEntity
  8
0
 62
     7
370
    13
100
AcDb2dPolyline
 66
     1
 10
0.0
 20
0.0
 30
0.0
  0
VERTEX
  5
777
330
776
100
AcDbEntity
  8
0
370
     0
100
AcDbVertex
100
AcDb2dVertex
 10
403.922821
 20
572.923523
 30
0.0
  0
VERTEX
  5
778
330
776
100
AcDbEntity
  8
0
370
     0
100
AcDbVertex
100
AcDb2dVertex
 10
404.092163
 20
572.75415
 30
0.0
  0
SEQEND
  5
779
330
776
100
AcDbEntity
  8
0
 62
     7
370
    13
  0
POLYLINE
  5
77A
330
1F
100
AcDbEntity
  8
0
 62
     7
370
    13
100
AcDb2dPolyline
 66
     1
 10
0.0
 20
0.0
 30
0.0
  0
VERTEX
  5
77B
330
77A
100
AcDbEntity
  8
0
370
     0
100
AcDbVertex
100
AcDb2dVertex
 10
404.205078
 20
572.75415
 30
0.0
  0
VERTEX
  5
77C
330
77A
100
AcDbEntity
  8
0
370
     0
100
AcDbVertex
100
AcDb2dVertex
 10
404.37442
 20
572.923523
 30
0.0
  0
SEQEND
  5
77D
330
77A
100
AcDbEntity
  8
0
 62
     7
370
    13
  0
POLYLINE
  5
77E
330
1F
100
AcDbEntity
  8
0
 62
     7
370
    13
100
AcDb2dPolyline
 66
     1
 10
0.0
 20
0.0
 30
0.0
  0
VERTEX
  5
77F
330
77E
100
AcDbEntity
  8
0
370
     0
100
AcDbVertex
100
AcDb2dVertex
 10
403.922821
 20
573.036438
 30
0.0
  0
VERTEX
  5
780
330
77E
100
AcDbEntity
  8
0
370
     0
100
AcDbVertex
100
AcDb2dVertex
 10
403.922821
 20
572.923523
 30
0.0
  0
SEQEND
  5
781
330
77E
100
AcDbEntity
  8
0
 62
     7
370
    13
  0
POLYLINE
  5
782
330
1F
100
AcDbEntity
  8
0
 62
     7
370
    13
100
AcDb2dPolyline
 66
     1
 10
0.0
 20
0.0
 30
0.0
  0
VERTEX
  5
783
330
782
100
AcDbEntity
  8
0
370
     0
100
AcDbVertex
100
AcDb2dVertex
 10
404.092163
 20
573.20575
 30
0.0
  0
VERTEX
  5
784
330
782
100
AcDbEntity
  8
0
370
     0
100
AcDbVertex
100
AcDb2dVertex
 10
404.205078
 20
573.20575
 30
0.0
  0
SEQEND
  5
785
330
782
100
AcDbEntity
  8
0
 62
     7
370
    13
  0
POLYLINE
  5
786
330
1F
100
AcDbEntity
  8
0
 62
     7
370
    13
100
AcDb2dPolyline
 66
     1
 10
0.0
 20
0.0
 30
0.0
 70
     1
  0
VERTEX
  5
787
330
786
100
AcDbEntity
  8
0
370
     0
100
AcDbVertex
100
AcDb2dVertex
 10
404.092163
 20
574.391235
 30
0.0
  0
VERTEX
  5
788
330
786
100
AcDbEntity
  8
0
370
     0
100
AcDbVertex
100
AcDb2dVertex
 10
404.205078
 20
574.391235
 30
0.0
  0
VERTEX
  5
789
330
786
100
AcDbEntity
  8
0
370
     0
100
AcDbVertex
100
AcDb2dVertex
 10
404.37442
 20
574.560608
 30
0.0
  0
VERTEX
  5
78A
330
786
100
AcDbEntity
  8
0
370
     0
100
AcDbVertex
100
AcDb2dVertex
 10
404.37442
 20
574.673523
 30
0.0
  0
VERTEX
  5
78B
330
786
100
AcDbEntity
  8
0
370
     0
100
AcDbVertex
100
AcDb2dVertex
 10
404.205078
 20
574.842834
 30
0.0
  0
VERTEX
  5
78C
330
786
100
AcDbEntity
  8
0
370
     0
100
AcDbVertex
100
AcDb2dVertex
 10
404.092163
 20
574.842834
 30
0.0
  0
VERTEX
  5
78D
330
786
100
AcDbEntity
  8
0
370
     0
100
AcDbVertex
100
AcDb2dVertex
 10
403.922821
 20
574.673523
 30
0.0
  0
VERTEX
  5
78E
330
786
100
AcDbEntity
  8
0
370
     0
100
AcDbVertex
100
AcDb2dVertex
 10
403.922821
 20
574.560608
 30
0.0
  0
SEQEND
  5
78F
330
786
100
AcDbEntity
  8
0
 62
     7
370
    13
  0
POLYLINE
  5
790
330
1F
100
AcDbEntity
  8
0
 62
     7
370
    13
100
AcDb2dPolyline
 66
     1
 10
0.0
 20
0.0
 30
0.0
  0
VERTEX
  5
791
330
790
100
AcDbEntity
  8
0
370
     0
100
AcDbVertex
100
AcDb2dVertex
 10
404.37442
 20
573.036438
 30
0.0
  0
VERTEX
  5
792
330
790
100
AcDbEntity
  8
0
370
     0
100
AcDbVertex
100
AcDb2dVertex
 10
404.37442
 20
572.923523
 30
0.0
  0
SEQEND
  5
793
330
790
100
AcDbEntity
  8
0
 62
     7
370
    13
  0
POLYLINE
  5
794
330
1F
100
AcDbEntity
  8
0
 62
     7
370
    13
100
AcDb2dPolyline
 66
     1
 10
0.0
 20
0.0
 30
0.0
  0
VERTEX
  5
795
330
794
100
AcDbEntity
  8
0
370
     0
100
AcDbVertex
100
AcDb2dVertex
 10
413.745392
 20
575.802551
 30
0.0
  0
VERTEX
  5
796
330
794
100
AcDbEntity
  8
0
370
     0
100
AcDbVertex
100
AcDb2dVertex
 10
414.366364
 20
576.25415
 30
0.0
  0
VERTEX
  5
797
330
794
100
AcDbEntity
  8
0
370
     0
100
AcDbVertex
100
AcDb2dVertex
 10
414.366364
 20
572.75415
 30
0.0
  0
SEQEND
  5
798
330
794
100
AcDbEntity
  8
0
 62
     7
370
    13
  0
POLYLINE
  5
799
330
1F
100
AcDbEntity
  8
0
 62
     7
370
    13
100
AcDb2dPolyline
 66
     1
 10
0.0
 20
0.0
 30
0.0
  0
VERTEX
  5
79A
330
799
100
AcDbEntity
  8
0
370
     0
100
AcDbVertex
100
AcDb2dVertex
 10
413.406677
 20
575.633179
 30
0.0
  0
VERTEX
  5
79B
330
799
100
AcDbEntity
  8
0
370
     0
100
AcDbVertex
100
AcDb2dVertex
 10
413.745392
 20
575.802551
 30
0.0
  0
SEQEND
  5
79C
330
799
100
AcDbEntity
  8
0
 62
     7
370
    13
  0
POLYLINE
  5
79D
330
1F
100
AcDbEntity
  8
0
 62
     7
370
    13
100
AcDb2dPolyline
 66
     1
 10
0.0
 20
0.0
 30
0.0
  0
VERTEX
  5
79E
330
79D
100
AcDbEntity
  8
0
370
     0
100
AcDbVertex
100
AcDb2dVertex
 10
417.640564
 20
572.75415
 30
0.0
  0
VERTEX
  5
79F
330
79D
100
AcDbEntity
  8
0
370
     0
100
AcDbVertex
100
AcDb2dVertex
 10
417.753448
 20
572.75415
 30
0.0
  0
SEQEND
  5
7A0
330
79D
100
AcDbEntity
  8
0
 62
     7
370
    13
  0
POLYLINE
  5
7A1
330
1F
100
AcDbEntity
  8
0
 62
     7
370
    13
100
AcDb2dPolyline
 66
     1
 10
0.0
 20
0.0
 30
0.0
  0
VERTEX
  5
7A2
330
7A1
100
AcDbEntity
  8
0
370
     0
100
AcDbVertex
100
AcDb2dVertex
 10
417.922821
 20
573.036438
 30
0.0
  0
VERTEX
  5
7A3
330
7A1
100
AcDbEntity
  8
0
370
     0
100
AcDbVertex
100
AcDb2dVertex
 10
417.753448
 20
573.20575
 30
0.0
  0
SEQEND
  5
7A4
330
7A1
100
AcDbEntity
  8
0
 62
     7
370
    13
  0
POLYLINE
  5
7A5
330
1F
100
AcDbEntity
  8
0
 62
     7
370
    13
100
AcDb2dPolyline
 66
     1
 10
0.0
 20
0.0
 30
0.0
  0
VERTEX
  5
7A6
330
7A5
100
AcDbEntity
  8
0
370
     0
100
AcDbVertex
100
AcDb2dVertex
 10
417.640564
 20
573.20575
 30
0.0
  0
VERTEX
  5
7A7
330
7A5
100
AcDbEntity
  8
0
370
     0
100
AcDbVertex
100
AcDb2dVertex
 10
417.471191
 20
573.036438
 30
0.0
  0
SEQEND
  5
7A8
330
7A5
100
AcDbEntity
  8
0
 62
     7
370
    13
  0
POLYLINE
  5
7A9
330
1F
100
AcDbEntity
  8
0
 62
     7
370
    13
100
AcDb2dPolyline
 66
     1
 10
0.0
 20
0.0
 30
0.0
  0
VERTEX
  5
7AA
330
7A9
100
AcDbEntity
  8
0
370
     0
100
AcDbVertex
100
AcDb2dVertex
 10
417.471191
 20
572.923523
 30
0.0
  0
VERTEX
  5
7AB
330
7A9
100
AcDbEntity
  8
0
370
     0
100
AcDbVertex
100
AcDb2dVertex
 10
417.640564
 20
572.75415
 30
0.0
  0
SEQEND
  5
7AC
330
7A9
100
AcDbEntity
  8
0
 62
     7
370
    13
  0
POLYLINE
  5
7AD
330
1F
100
AcDbEntity
  8
0
 62
     7
370
    13
100
AcDb2dPolyline
 66
     1
 10
0.0
 20
0.0
 30
0.0
  0
VERTEX
  5
7AE
330
7AD
100
AcDbEntity
  8
0
370
     0
100
AcDbVertex
100
AcDb2dVertex
 10
417.753448
 20
572.75415
 30
0.0
  0
VERTEX
  5
7AF
330
7AD
100
AcDbEntity
  8
0
370
     0
100
AcDbVertex
100
AcDb2dVertex
 10
417.922821
 20
572.923523
 30
0.0
  0
SEQEND
  5
7B0
330
7AD
100
AcDbEntity
  8
0
 62
     7
370
    13
  0
POLYLINE
  5
7B1
330
1F
100
AcDbEntity
  8
0
 62
     7
370
    13
100
AcDb2dPolyline
 66
     1
 10
0.0
 20
0.0
 30
0.0
  0
VERTEX
  5
7B2
330
7B1
100
AcDbEntity
  8
0
370
     0
100
AcDbVertex
100
AcDb2dVertex
 10
417.471191
 20
573.036438
 30
0.0
  0
VERTEX
  5
7B3
330
7B1
100
AcDbEntity
  8
0
370
     0
100
AcDbVertex
100
AcDb2dVertex
 10
417.471191
 20
572.923523
 30
0.0
  0
SEQEND
  5
7B4
330
7B1
100
AcDbEntity
  8
0
 62
     7
370
    13
  0
POLYLINE
  5
7B5
330
1F
100
AcDbEntity
  8
0
 62
     7
370
    13
100
AcDb2dPolyline
 66
     1
 10
0.0
 20
0.0
 30
0.0
  0
VERTEX
  5
7B6
330
7B5
100
AcDbEntity
  8
0
370
     0
100
AcDbVertex
100
AcDb2dVertex
 10
417.640564
 20
573.20575
 30
0.0
  0
VERTEX
  5
7B7
330
7B5
100
AcDbEntity
  8
0
370
     0
100
AcDbVertex
100
AcDb2dVertex
 10
417.753448
 20
573.20575
 30
0.0
  0
SEQEND
  5
7B8
330
7B5
100
AcDbEntity
  8
0
 62
     7
370
    13
  0
POLYLINE
  5
7B9
330
1F
100
AcDbEntity
  8
0
 62
     7
370
    13
100
AcDb2dPolyline
 66
     1
 10
0.0
 20
0.0
 30
0.0
 70
     1
  0
VERTEX
  5
7BA
330
7B9
100
AcDbEntity
  8
0
370
     0
100
AcDbVertex
100
AcDb2dVertex
 10
417.640564
 20
574.391235
 30
0.0
  0
VERTEX
  5
7BB
330
7B9
100
AcDbEntity
  8
0
370
     0
100
AcDbVertex
100
AcDb2dVertex
 10
417.753448
 20
574.391235
 30
0.0
  0
VERTEX
  5
7BC
330
7B9
100
AcDbEntity
  8
0
370
     0
100
AcDbVertex
100
AcDb2dVertex
 10
417.922821
 20
574.560608
 30
0.0
  0
VERTEX
  5
7BD
330
7B9
100
AcDbEntity
  8
0
370
     0
100
AcDbVertex
100
AcDb2dVertex
 10
417.922821
 20
574.673523
 30
0.0
  0
VERTEX
  5
7BE
330
7B9
100
AcDbEntity
  8
0
370
     0
100
AcDbVertex
100
AcDb2dVertex
 10
417.753448
 20
574.842834
 30
0.0
  0
VERTEX
  5
7BF
330
7B9
100
AcDbEntity
  8
0
370
     0
100
AcDbVertex
100
AcDb2dVertex
 10
417.640564
 20
574.842834
 30
0.0
  0
VERTEX
  5
7C0
330
7B9
100
AcDbEntity
  8
0
370
     0
100
AcDbVertex
100
AcDb2dVertex
 10
417.471191
 20
574.673523
 30
0.0
  0
VERTEX
  5
7C1
330
7B9
100
AcDbEntity
  8
0
370
     0
100
AcDbVertex
100
AcDb2dVertex
 10
417.471191
 20
574.560608
 30
0.0
  0
SEQEND
  5
7C2
330
7B9
100
AcDbEntity
  8
0
 62
     7
370
    13
  0
POLYLINE
  5
7C3
330
1F
100
AcDbEntity
  8
0
 62
     7
370
    13
100
AcDb2dPolyline
 66
     1
 10
0.0
 20
0.0
 30
0.0
  0
VERTEX
  5
7C4
330
7C3
100
AcDbEntity
  8
0
370
     0
100
AcDbVertex
100
AcDb2dVertex
 10
417.922821
 20
573.036438
 30
0.0
  0
VERTEX
  5
7C5
330
7C3
100
AcDbEntity
  8
0
370
     0
100
AcDbVertex
100
AcDb2dVertex
 10
417.922821
 20
572.923523
 30
0.0
  0
SEQEND
  5
7C6
330
7C3
100
AcDbEntity
  8
0
 62
     7
370
    13
  0
POLYLINE
  5
7C7
330
1F
100
AcDbEntity
  8
0
 62
     7
370
    13
100
AcDb2dPolyline
 66
     1
 10
0.0
 20
0.0
 30
0.0
  0
VERTEX
  5
7C8
330
7C7
100
AcDbEntity
  8
0
370
     0
100
AcDbVertex
100
AcDb2dVertex
 10
422.382477
 20
572.75415
 30
0.0
  0
VERTEX
  5
7C9
330
7C7
100
AcDbEntity
  8
0
370
     0
100
AcDbVertex
100
AcDb2dVertex
 10
419.672821
 20
572.75415
 30
0.0
  0
VERTEX
  5
7CA
330
7C7
100
AcDbEntity
  8
0
370
     0
100
AcDbVertex
100
AcDb2dVertex
 10
421.592163
 20
574.334778
 30
0.0
  0
VERTEX
  5
7CB
330
7C7
100
AcDbEntity
  8
0
370
     0
100
AcDbVertex
100
AcDb2dVertex
 10
421.987335
 20
574.786438
 30
0.0
  0
VERTEX
  5
7CC
330
7C7
100
AcDbEntity
  8
0
370
     0
100
AcDbVertex
100
AcDb2dVertex
 10
422.156677
 20
575.125122
 30
0.0
  0
VERTEX
  5
7CD
330
7C7
100
AcDbEntity
  8
0
370
     0
100
AcDbVertex
100
AcDb2dVertex
 10
422.156677
 20
575.463806
 30
0.0
  0
VERTEX
  5
7CE
330
7C7
100
AcDbEntity
  8
0
370
     0
100
AcDbVertex
100
AcDb2dVertex
 10
421.987335
 20
575.859009
 30
0.0
  0
VERTEX
  5
7CF
330
7C7
100
AcDbEntity
  8
0
370
     0
100
AcDbVertex
100
AcDb2dVertex
 10
421.817963
 20
576.084778
 30
0.0
  0
VERTEX
  5
7D0
330
7C7
100
AcDbEntity
  8
0
370
     0
100
AcDbVertex
100
AcDb2dVertex
 10
421.422821
 20
576.25415
 30
0.0
  0
VERTEX
  5
7D1
330
7C7
100
AcDbEntity
  8
0
370
     0
100
AcDbVertex
100
AcDb2dVertex
 10
420.745392
 20
576.25415
 30
0.0
  0
VERTEX
  5
7D2
330
7C7
100
AcDbEntity
  8
0
370
     0
100
AcDbVertex
100
AcDb2dVertex
 10
420.35022
 20
576.084778
 30
0.0
  0
VERTEX
  5
7D3
330
7C7
100
AcDbEntity
  8
0
370
     0
100
AcDbVertex
100
AcDb2dVertex
 10
420.180878
 20
575.915466
 30
0.0
  0
VERTEX
  5
7D4
330
7C7
100
AcDbEntity
  8
0
370
     0
100
AcDbVertex
100
AcDb2dVertex
 10
419.955078
 20
575.576721
 30
0.0
  0
VERTEX
  5
7D5
330
7C7
100
AcDbEntity
  8
0
370
     0
100
AcDbVertex
100
AcDb2dVertex
 10
419.955078
 20
575.407349
 30
0.0
  0
SEQEND
  5
7D6
330
7C7
100
AcDbEntity
  8
0
 62
     7
370
    13
  0
LINE
  5
7D7
330
1F
100
AcDbEntity
  8
0
 62
     7
370
    35
100
AcDbLine
 10
531.213135
 20
710.311951
 30
0.0
 11
563.713135
 21
710.311951
 31
0.0
  0
LINE
  5
7D8
330
1F
100
AcDbEntity
  8
0
 62
     7
370
    35
100
AcDbLine
 10
563.713135
 20
710.311951
 30
0.0
 11
556.119385
 21
613.824097
 31
0.0
  0
LINE
  5
7D9
330
1F
100
AcDbEntity
  8
0
 62
     7
370
    35
100
AcDbLine
 10
207.213135
 20
710.311951
 30
0.0
 11
194.213135
 21
710.311951
 31
0.0
  0
LINE
  5
7DA
330
1F
100
AcDbEntity
  8
0
 62
     7
370
    35
100
AcDbLine
 10
207.213135
 20
710.311951
 30
0.0
 11
239.713135
 21
710.311951
 31
0.0
  0
LINE
  5
7DB
330
1F
100
AcDbEntity
  8
0
 62
     7
370
    35
100
AcDbLine
 10
531.213135
 20
710.311951
 30
0.0
 11
239.713135
 21
710.311951
 31
0.0
  0
LINE
  5
7DC
330
1F
100
AcDbEntity
  8
0
 62
     7
370
    35
100
AcDbLine
 10
576.713135
 20
710.311951
 30
0.0
 11
563.713135
 21
710.311951
 31
0.0
  0
ARC
  5
7DD
330
1F
100
AcDbEntity
  8
0
 62
     7
370
    35
100
AcDbCircle
 10
536.18103
 20
615.39325
 30
0.0
 40
19.99999992997054
100
AcDbArc
 50
272.062769
 51
355.5
  0
LINE
  5
7DE
330
1F
100
AcDbEntity
  8
0
 62
     7
370
    35
100
AcDbLine
 10
207.213135
 20
710.311951
 30
0.0
 11
214.8069
 21
613.824097
 31
0.0
  0
LINE
  5
7DF
330
1F
100
AcDbEntity
  8
0
 62
     7
370
    35
100
AcDbLine
 10
234.02536
 20
595.40625
 30
0.0
 11
362.963135
 21
590.762207
 31
0.0
  0
LINE
  5
7E0
330
1F
100
AcDbEntity
  8
0
 62
     7
370
    35
100
AcDbLine
 10
536.900879
 20
595.40625
 30
0.0
 11
407.963135
 21
590.762207
 31
0.0
  0
LINE
  5
7E1
330
1F
100
AcDbEntity
  8
0
 62
     7
370
    35
100
AcDbLine
 10
407.963135
 20
590.762207
 30
0.0
 11
362.963135
 21
590.762207
 31
0.0
  0
ARC
  5
7E2
330
1F
100
AcDbEntity
  8
0
 62
     7
370
    35
100
AcDbCircle
 10
234.745239
 20
615.39325
 30
0.0
 40
19.99999996250605
100
AcDbArc
 50
184.499997
 51
267.937226
  0
POLYLINE
  5
7E3
330
1F
100
AcDbEntity
  8
0
 62
     7
370
    13
100
AcDb2dPolyline
 66
     1
 10
0.0
 20
0.0
 30
0.0
  0
VERTEX
  5
7E4
330
7E3
100
AcDbEntity
  8
0
370
     0
100
AcDbVertex
100
AcDb2dVertex
 10
941.887451
 20
684.453552
 30
0.0
  0
VERTEX
  5
7E5
330
7E3
100
AcDbEntity
  8
0
370
     0
100
AcDbVertex
100
AcDb2dVertex
 10
940.571289
 20
684.487793
 30
0.0
  0
VERTEX
  5
7E6
330
7E3
100
AcDbEntity
  8
0
370
     0
100
AcDbVertex
100
AcDb2dVertex
 10
938.666748
 20
682.755371
 30
0.0
  0
VERTEX
  5
7E7
330
7E3
100
AcDbEntity
  8
0
370
     0
100
AcDbVertex
100
AcDb2dVertex
 10
937.939697
 20
681.612183
 30
0.0
  0
VERTEX
  5
7E8
330
7E3
100
AcDbEntity
  8
0
370
     0
100
AcDbVertex
100
AcDb2dVertex
 10
937.178467
 20
679.15271
 30
0.0
  0
VERTEX
  5
7E9
330
7E3
100
AcDbEntity
  8
0
370
     0
100
AcDbVertex
100
AcDb2dVertex
 10
937.854553
 20
676.849487
 30
0.0
  0
VERTEX
  5
7EA
330
7E3
100
AcDbEntity
  8
0
370
     0
100
AcDbVertex
100
AcDb2dVertex
 10
940.158569
 20
674.581482
 30
0.0
  0
VERTEX
  5
7EB
330
7E3
100
AcDbEntity
  8
0
370
     0
100
AcDbVertex
100
AcDb2dVertex
 10
942.826172
 20
672.885071
 30
0.0
  0
VERTEX
  5
7EC
330
7E3
100
AcDbEntity
  8
0
370
     0
100
AcDbVertex
100
AcDb2dVertex
 10
945.285645
 20
672.123779
 30
0.0
  0
VERTEX
  5
7ED
330
7E3
100
AcDbEntity
  8
0
370
     0
100
AcDbVertex
100
AcDb2dVertex
 10
947.346436
 20
672.418823
 30
0.0
  0
VERTEX
  5
7EE
330
7E3
100
AcDbEntity
  8
0
370
     0
100
AcDbVertex
100
AcDb2dVertex
 10
949.63208
 20
673.908936
 30
0.0
  0
VERTEX
  5
7EF
330
7E3
100
AcDbEntity
  8
0
370
     0
100
AcDbVertex
100
AcDb2dVertex
 10
950.11676
 20
674.671082
 30
0.0
  0
VERTEX
  5
7F0
330
7E3
100
AcDbEntity
  8
0
370
     0
100
AcDbVertex
100
AcDb2dVertex
 10
950.878052
 20
677.130554
 30
0.0
  0
VERTEX
  5
7F1
330
7E3
100
AcDbEntity
  8
0
370
     0
100
AcDbVertex
100
AcDb2dVertex
 10
950.461792
 20
679.000793
 30
0.0
  0
VERTEX
  5
7F2
330
7E3
100
AcDbEntity
  8
0
370
     0
100
AcDbVertex
100
AcDb2dVertex
 10
949.301025
 20
680.541809
 30
0.0
  0
VERTEX
  5
7F3
330
7E3
100
AcDbEntity
  8
0
370
     0
100
AcDbVertex
100
AcDb2dVertex
 10
948.72937
 20
680.905334
 30
0.0
  0
VERTEX
  5
7F4
330
7E3
100
AcDbEntity
  8
0
370
     0
100
AcDbVertex
100
AcDb2dVertex
 10
946.841553
 20
681.303101
 30
0.0
  0
VERTEX
  5
7F5
330
7E3
100
AcDbEntity
  8
0
370
     0
100
AcDbVertex
100
AcDb2dVertex
 10
944.971252
 20
680.886902
 30
0.0
  0
VERTEX
  5
7F6
330
7E3
100
AcDbEntity
  8
0
370
     0
100
AcDbVertex
100
AcDb2dVertex
 10
943.066772
 20
679.154419
 30
0.0
  0
VERTEX
  5
7F7
330
7E3
100
AcDbEntity
  8
0
370
     0
100
AcDbVertex
100
AcDb2dVertex
 10
942.582031
 20
678.392273
 30
0.0
  0
VERTEX
  5
7F8
330
7E3
100
AcDbEntity
  8
0
370
     0
100
AcDbVertex
100
AcDb2dVertex
 10
941.820801
 20
675.932861
 30
0.0
  0
VERTEX
  5
7F9
330
7E3
100
AcDbEntity
  8
0
370
     0
100
AcDbVertex
100
AcDb2dVertex
 10
942.046448
 20
674.183716
 30
0.0
  0
VERTEX
  5
7FA
330
7E3
100
AcDbEntity
  8
0
370
     0
100
AcDbVertex
100
AcDb2dVertex
 10
943.016724
 20
672.763916
 30
0.0
  0
SEQEND
  5
7FB
330
7E3
100
AcDbEntity
  8
0
 62
     7
370
    13
  0
POLYLINE
  5
7FC
330
1F
100
AcDbEntity
  8
0
 62
     7
370
    13
100
AcDb2dPolyline
 66
     1
 10
0.0
 20
0.0
 30
0.0
  0
VERTEX
  5
7FD
330
7FC
100
AcDbEntity
  8
0
370
     0
100
AcDbVertex
100
AcDb2dVertex
 10
953.522034
 20
684.65448
 30
0.0
  0
VERTEX
  5
7FE
330
7FC
100
AcDbEntity
  8
0
370
     0
100
AcDbVertex
100
AcDb2dVertex
 10
954.838257
 20
684.620239
 30
0.0
  0
VERTEX
  5
7FF
330
7FC
100
AcDbEntity
  8
0
370
     0
100
AcDbVertex
100
AcDb2dVertex
 10
955.773438
 20
684.828369
 30
0.0
  0
VERTEX
  5
800
330
7FC
100
AcDbEntity
  8
0
370
     0
100
AcDbVertex
100
AcDb2dVertex
 10
957.677917
 20
686.560791
 30
0.0
  0
VERTEX
  5
801
330
7FC
100
AcDbEntity
  8
0
370
     0
100
AcDbVertex
100
AcDb2dVertex
 10
959.010864
 20
688.656738
 30
0.0
  0
VERTEX
  5
802
330
7FC
100
AcDbEntity
  8
0
370
     0
100
AcDbVertex
100
AcDb2dVertex
 10
959.893311
 20
691.306763
 30
0.0
  0
VERTEX
  5
803
330
7FC
100
AcDbEntity
  8
0
370
     0
100
AcDbVertex
100
AcDb2dVertex
 10
959.477051
 20
693.177002
 30
0.0
  0
VERTEX
  5
804
330
7FC
100
AcDbEntity
  8
0
370
     0
100
AcDbVertex
100
AcDb2dVertex
 10
958.125732
 20
694.839233
 30
0.0
  0
VERTEX
  5
805
330
7FC
100
AcDbEntity
  8
0
370
     0
100
AcDbVertex
100
AcDb2dVertex
 10
956.982483
 20
695.566223
 30
0.0
  0
VERTEX
  5
806
330
7FC
100
AcDbEntity
  8
0
370
     0
100
AcDbVertex
100
AcDb2dVertex
 10
954.904114
 20
696.085205
 30
0.0
  0
VERTEX
  5
807
330
7FC
100
AcDbEntity
  8
0
370
     0
100
AcDbVertex
100
AcDb2dVertex
 10
953.224365
 20
695.547791
 30
0.0
  0
VERTEX
  5
808
330
7FC
100
AcDbEntity
  8
0
370
     0
100
AcDbVertex
100
AcDb2dVertex
 10
951.198669
 20
693.624817
 30
0.0
  0
VERTEX
  5
809
330
7FC
100
AcDbEntity
  8
0
370
     0
100
AcDbVertex
100
AcDb2dVertex
 10
949.865784
 20
691.52887
 30
0.0
  0
VERTEX
  5
80A
330
7FC
100
AcDbEntity
  8
0
370
     0
100
AcDbVertex
100
AcDb2dVertex
 10
949.346802
 20
689.4505
 30
0.0
  0
VERTEX
  5
80B
330
7FC
100
AcDbEntity
  8
0
370
     0
100
AcDbVertex
100
AcDb2dVertex
 10
949.554932
 20
688.515381
 30
0.0
  0
VERTEX
  5
80C
330
7FC
100
AcDbEntity
  8
0
370
     0
100
AcDbVertex
100
AcDb2dVertex
 10
944.773865
 20
692.358643
 30
0.0
  0
VERTEX
  5
80D
330
7FC
100
AcDbEntity
  8
0
370
     0
100
AcDbVertex
100
AcDb2dVertex
 10
949.257263
 20
699.40863
 30
0.0
  0
SEQEND
  5
80E
330
7FC
100
AcDbEntity
  8
0
 62
     7
370
    13
  0
POLYLINE
  5
80F
330
1F
100
AcDbEntity
  8
0
 62
     7
370
    13
100
AcDb2dPolyline
 66
     1
 10
0.0
 20
0.0
 30
0.0
  0
VERTEX
  5
810
330
80F
100
AcDbEntity
  8
0
370
     0
100
AcDbVertex
100
AcDb2dVertex
 10
931.102112
 20
670.860229
 30
0.0
  0
VERTEX
  5
811
330
80F
100
AcDbEntity
  8
0
370
     0
100
AcDbVertex
100
AcDb2dVertex
 10
926.982239
 20
664.381836
 30
0.0
  0
SEQEND
  5
812
330
80F
100
AcDbEntity
  8
0
 62
     7
370
    13
  0
POLYLINE
  5
813
330
1F
100
AcDbEntity
  8
0
 62
     7
370
    13
100
AcDb2dPolyline
 66
     1
 10
0.0
 20
0.0
 30
0.0
  0
VERTEX
  5
814
330
813
100
AcDbEntity
  8
0
370
     0
100
AcDbVertex
100
AcDb2dVertex
 10
932.698486
 20
660.746643
 30
0.0
  0
VERTEX
  5
815
330
813
100
AcDbEntity
  8
0
370
     0
100
AcDbVertex
100
AcDb2dVertex
 10
937.060669
 20
667.60614
 30
0.0
  0
SEQEND
  5
816
330
813
100
AcDbEntity
  8
0
 62
     7
370
    13
  0
POLYLINE
  5
817
330
1F
100
AcDbEntity
  8
0
 62
     7
370
    13
100
AcDb2dPolyline
 66
     1
 10
0.0
 20
0.0
 30
0.0
  0
VERTEX
  5
818
330
817
100
AcDbEntity
  8
0
370
     0
100
AcDbVertex
100
AcDb2dVertex
 10
926.982239
 20
664.381836
 30
0.0
  0
VERTEX
  5
819
330
817
100
AcDbEntity
  8
0
370
     0
100
AcDbVertex
100
AcDb2dVertex
 10
938.795776
 20
656.869141
 30
0.0
  0
SEQEND
  5
81A
330
817
100
AcDbEntity
  8
0
 62
     7
370
    13
  0
POLYLINE
  5
81B
330
1F
100
AcDbEntity
  8
0
 62
     7
370
    13
100
AcDb2dPolyline
 66
     1
 10
0.0
 20
0.0
 30
0.0
  0
VERTEX
  5
81C
330
81B
100
AcDbEntity
  8
0
370
     0
100
AcDbVertex
100
AcDb2dVertex
 10
931.102112
 20
670.860229
 30
0.0
  0
VERTEX
  5
81D
330
81B
100
AcDbEntity
  8
0
370
     0
100
AcDbVertex
100
AcDb2dVertex
 10
932.521973
 20
671.830444
 30
0.0
  0
VERTEX
  5
81E
330
81B
100
AcDbEntity
  8
0
370
     0
100
AcDbVertex
100
AcDb2dVertex
 10
934.703979
 20
672.31604
 30
0.0
  0
VERTEX
  5
81F
330
81B
100
AcDbEntity
  8
0
370
     0
100
AcDbVertex
100
AcDb2dVertex
 10
936.609375
 20
671.104309
 30
0.0
  0
VERTEX
  5
820
330
81B
100
AcDbEntity
  8
0
370
     0
100
AcDbVertex
100
AcDb2dVertex
 10
937.146729
 20
669.424561
 30
0.0
  0
VERTEX
  5
821
330
81B
100
AcDbEntity
  8
0
370
     0
100
AcDbVertex
100
AcDb2dVertex
 10
937.060669
 20
667.60614
 30
0.0
  0
SEQEND
  5
822
330
81B
100
AcDbEntity
  8
0
 62
     7
370
    13
  0
POLYLINE
  5
823
330
1F
100
AcDbEntity
  8
0
 62
     7
370
    13
100
AcDb2dPolyline
 66
     1
 10
0.0
 20
0.0
 30
0.0
  0
VERTEX
  5
824
330
823
100
AcDbEntity
  8
0
370
     0
100
AcDbVertex
100
AcDb2dVertex
 10
936.091309
 20
666.081787
 30
0.0
  0
VERTEX
  5
825
330
823
100
AcDbEntity
  8
0
370
     0
100
AcDbVertex
100
AcDb2dVertex
 10
944.612061
 20
666.015076
 30
0.0
  0
SEQEND
  5
826
330
823
100
AcDbEntity
  8
0
 62
     7
370
    13
  0
POLYLINE
  5
827
330
1F
100
AcDbEntity
  8
0
 62
     7
370
    13
100
AcDb2dPolyline
 66
     1
 10
0.0
 20
0.0
 30
0.0
  0
VERTEX
  5
828
330
827
100
AcDbEntity
  8
0
370
     0
100
AcDbVertex
100
AcDb2dVertex
 10
924.227417
 20
631.198303
 30
0.0
  0
VERTEX
  5
829
330
827
100
AcDbEntity
  8
0
370
     0
100
AcDbVertex
100
AcDb2dVertex
 10
923.627502
 20
629.290405
 30
0.0
  0
VERTEX
  5
82A
330
827
100
AcDbEntity
  8
0
370
     0
100
AcDbVertex
100
AcDb2dVertex
 10
925.100952
 20
630.642761
 30
0.0
  0
SEQEND
  5
82B
330
827
100
AcDbEntity
  8
0
 62
     7
370
    13
  0
LINE
  5
82C
330
1F
100
AcDbEntity
  8
0
 62
     7
370
    13
100
AcDbLine
 10
908.903381
 20
606.137085
 30
0.0
 11
963.848999
 21
692.537537
 31
0.0
  0
POLYLINE
  5
82D
330
1F
100
AcDbEntity
  8
0
 62
     7
370
    13
100
AcDb2dPolyline
 66
     1
 10
0.0
 20
0.0
 30
0.0
  0
VERTEX
  5
82E
330
82D
100
AcDbEntity
  8
0
370
     0
100
AcDbVertex
100
AcDb2dVertex
 10
617.652954
 20
513.364136
 30
0.0
  0
VERTEX
  5
82F
330
82D
100
AcDbEntity
  8
0
370
     0
100
AcDbVertex
100
AcDb2dVertex
 10
637.282227
 20
516.887085
 30
0.0
  0
VERTEX
  5
830
330
82D
100
AcDbEntity
  8
0
370
     0
100
AcDbVertex
100
AcDb2dVertex
 10
656.780457
 20
520.403442
 30
0.0
  0
VERTEX
  5
831
330
82D
100
AcDbEntity
  8
0
370
     0
100
AcDbVertex
100
AcDb2dVertex
 10
675.776062
 20
523.852722
 30
0.0
  0
VERTEX
  5
832
330
82D
100
AcDbEntity
  8
0
370
     0
100
AcDbVertex
100
AcDb2dVertex
 10
694.107422
 20
527.213928
 30
0.0
  0
VERTEX
  5
833
330
82D
100
AcDbEntity
  8
0
370
     0
100
AcDbVertex
100
AcDb2dVertex
 10
709.171997
 20
530.010681
 30
0.0
  0
VERTEX
  5
834
330
82D
100
AcDbEntity
  8
0
370
     0
100
AcDbVertex
100
AcDb2dVertex
 10
723.264771
 20
532.665833
 30
0.0
  0
VERTEX
  5
835
330
82D
100
AcDbEntity
  8
0
370
     0
100
AcDbVertex
100
AcDb2dVertex
 10
734.0047
 20
534.721497
 30
0.0
  0
VERTEX
  5
836
330
82D
100
AcDbEntity
  8
0
370
     0
100
AcDbVertex
100
AcDb2dVertex
 10
744.253174
 20
536.71405
 30
0.0
  0
VERTEX
  5
837
330
82D
100
AcDbEntity
  8
0
370
     0
100
AcDbVertex
100
AcDb2dVertex
 10
758.841187
 20
539.608948
 30
0.0
  0
VERTEX
  5
838
330
82D
100
AcDbEntity
  8
0
370
     0
100
AcDbVertex
100
AcDb2dVertex
 10
773.474182
 20
542.584778
 30
0.0
  0
VERTEX
  5
839
330
82D
100
AcDbEntity
  8
0
370
     0
100
AcDbVertex
100
AcDb2dVertex
 10
784.526855
 20
544.877625
 30
0.0
  0
VERTEX
  5
83A
330
82D
100
AcDbEntity
  8
0
370
     0
100
AcDbVertex
100
AcDb2dVertex
 10
796.185303
 20
547.332886
 30
0.0
  0
VERTEX
  5
83B
330
82D
100
AcDbEntity
  8
0
370
     0
100
AcDbVertex
100
AcDb2dVertex
 10
809.061646
 20
550.080933
 30
0.0
  0
VERTEX
  5
83C
330
82D
100
AcDbEntity
  8
0
370
     0
100
AcDbVertex
100
AcDb2dVertex
 10
822.719055
 20
553.028381
 30
0.0
  0
VERTEX
  5
83D
330
82D
100
AcDbEntity
  8
0
370
     0
100
AcDbVertex
100
AcDb2dVertex
 10
838.456482
 20
556.455994
 30
0.0
  0
VERTEX
  5
83E
330
82D
100
AcDbEntity
  8
0
370
     0
100
AcDbVertex
100
AcDb2dVertex
 10
854.711853
 20
560.021851
 30
0.0
  0
VERTEX
  5
83F
330
82D
100
AcDbEntity
  8
0
370
     0
100
AcDbVertex
100
AcDb2dVertex
 10
873.94696
 20
564.265015
 30
0.0
  0
VERTEX
  5
840
330
82D
100
AcDbEntity
  8
0
370
     0
100
AcDbVertex
100
AcDb2dVertex
 10
898.419983
 20
569.688843
 30
0.0
  0
SEQEND
  5
841
330
82D
100
AcDbEntity
  8
0
 62
     7
370
    13
  0
LINE
  5
842
330
1F
100
AcDbEntity
  8
0
 62
     7
370
    13
100
AcDbLine
 10
898.419983
 20
569.688843
 30
0.0
 11
900.263306
 21
631.754517
 31
0.0
  0
LINE
  5
843
330
1F
100
AcDbEntity
  8
0
 62
     7
370
    35
100
AcDbLine
 10
900.263306
 20
631.754517
 30
0.0
 11
619.496338
 21
575.42981
 31
0.0
  0
LINE
  5
844
330
1F
100
AcDbEntity
  8
0
 62
     7
370
    13
100
AcDbLine
 10
617.652954
 20
513.364136
 30
0.0
 11
619.496338
 21
575.42981
 31
0.0
  0
ELLIPSE
  5
845
330
1F
100
AcDbEntity
  8
0
 62
     7
370
    35
100
AcDbEllipse
 10
628.136353
 20
549.812378
 30
0.0
 11
-32.42364501953125
 21
2.226318359375
 31
0.0
210
0.0
220
0.0
230
1.0
 40
0.810574
 41
0.1091476516790684
 42
0.3249048994835323
  0
ELLIPSE
  5
846
330
1F
100
AcDbEntity
  8
0
 62
     7
370
    35
100
AcDbEllipse
 10
628.136353
 20
549.812378
 30
0.0
 11
-32.42364501953125
 21
2.226318359375
 31
0.0
210
0.0
220
0.0
230
1.0
 40
0.810574
 41
5.037293879868225
 42
6.392332958858655
  0
LINE
  5
847
330
1F
100
AcDbEntity
  8
0
 62
     7
370
    13
100
AcDbLine
 10
600.25708
 20
488.932831
 30
0.0
 11
599.886475
 21
494.841675
 31
0.0
  0
ELLIPSE
  5
848
330
1F
100
AcDbEntity
  8
0
 62
     7
370
    13
100
AcDbEllipse
 10
624.264221
 20
493.662231
 30
0.0
 11
24.853271484375
 21
-2.00634765625
 31
0.0
210
0.0
220
0.0
230
1.0
 40
0.811095
 41
1.904843176637887
 42
2.333503471412659
  0
ARC
  5
849
330
1F
100
AcDbEntity
  8
0
 62
     7
370
    13
100
AcDbCircle
 10
616.431274
 20
494.412323
 30
0.0
 40
17.07667802696535
100
AcDbArc
 50
183.869557
 51
198.715396
  0
ARC
  5
84A
330
1F
100
AcDbEntity
  8
0
 62
     7
370
    13
100
AcDbCircle
 10
20426.525391
 20
7116.251953
 30
0.0
 40
20904.60301160387
100
AcDbArc
 50
198.640783
 51
198.796717
  0
ARC
  5
84B
330
1F
100
AcDbEntity
  8
0
 62
     7
370
    13
100
AcDbCircle
 10
21053.050781
 20
7324.896973
 30
0.0
 40
21564.95293547137
100
AcDbArc
 50
198.481244
 51
198.63398
  0
LINE
  5
84C
330
1F
100
AcDbEntity
  8
0
 62
     7
370
    35
100
AcDbLine
 10
596.833008
 20
543.532654
 30
0.0
 11
633.387024
 21
435.151245
 31
0.0
  0
LINE
  5
84D
330
1F
100
AcDbEntity
  8
0
 62
     7
370
    13
100
AcDbLine
 10
636.811035
 20
380.551453
 30
0.0
 11
634.688171
 21
414.403076
 31
0.0
  0
ELLIPSE
  5
84E
330
1F
100
AcDbEntity
  8
0
 62
     7
370
    13
100
AcDbEllipse
 10
623.016479
 20
498.564972
 30
0.0
 11
3.52655029296875
 21
-19.6866455078125
 31
0.0
210
0.0
220
0.0
230
1.0
 40
0.211514
 41
3.824644116518326
 42
5.30068865874726
  0
POLYLINE
  5
84F
330
1F
100
AcDbEntity
  8
0
 62
     7
370
    13
100
AcDb2dPolyline
 66
     1
 10
0.0
 20
0.0
 30
0.0
  0
VERTEX
  5
850
330
84F
100
AcDbEntity
  8
0
370
     0
100
AcDbVertex
100
AcDb2dVertex
 10
621.509583
 20
487.019409
 30
0.0
  0
VERTEX
  5
851
330
84F
100
AcDbEntity
  8
0
370
     0
100
AcDbVertex
100
AcDb2dVertex
 10
620.893799
 20
486.872009
 30
0.0
  0
VERTEX
  5
852
330
84F
100
AcDbEntity
  8
0
370
     0
100
AcDbVertex
100
AcDb2dVertex
 10
620.310059
 20
486.658569
 30
0.0
  0
VERTEX
  5
853
330
84F
100
AcDbEntity
  8
0
370
     0
100
AcDbVertex
100
AcDb2dVertex
 10
619.768494
 20
486.382477
 30
0.0
  0
VERTEX
  5
854
330
84F
100
AcDbEntity
  8
0
370
     0
100
AcDbVertex
100
AcDb2dVertex
 10
619.278564
 20
486.048187
 30
0.0
  0
VERTEX
  5
855
330
84F
100
AcDbEntity
  8
0
370
     0
100
AcDbVertex
100
AcDb2dVertex
 10
619.054077
 20
485.859406
 30
0.0
  0
VERTEX
  5
856
330
84F
100
AcDbEntity
  8
0
370
     0
100
AcDbVertex
100
AcDb2dVertex
 10
618.845886
 20
485.658051
 30
0.0
  0
VERTEX
  5
857
330
84F
100
AcDbEntity
  8
0
370
     0
100
AcDbVertex
100
AcDb2dVertex
 10
618.657837
 20
485.448425
 30
0.0
  0
VERTEX
  5
858
330
84F
100
AcDbEntity
  8
0
370
     0
100
AcDbVertex
100
AcDb2dVertex
 10
618.487427
 20
485.228333
 30
0.0
  0
VERTEX
  5
859
330
84F
100
AcDbEntity
  8
0
370
     0
100
AcDbVertex
100
AcDb2dVertex
 10
618.237305
 20
484.827301
 30
0.0
  0
VERTEX
  5
85A
330
84F
100
AcDbEntity
  8
0
370
     0
100
AcDbVertex
100
AcDb2dVertex
 10
618.045044
 20
484.403198
 30
0.0
  0
VERTEX
  5
85B
330
84F
100
AcDbEntity
  8
0
370
     0
100
AcDbVertex
100
AcDb2dVertex
 10
617.913269
 20
483.961487
 30
0.0
  0
VERTEX
  5
85C
330
84F
100
AcDbEntity
  8
0
370
     0
100
AcDbVertex
100
AcDb2dVertex
 10
617.843567
 20
483.507782
 30
0.0
  0
VERTEX
  5
85D
330
84F
100
AcDbEntity
  8
0
370
     0
100
AcDbVertex
100
AcDb2dVertex
 10
617.836914
 20
483.047943
 30
0.0
  0
VERTEX
  5
85E
330
84F
100
AcDbEntity
  8
0
370
     0
100
AcDbVertex
100
AcDb2dVertex
 10
617.893372
 20
482.58783
 30
0.0
  0
VERTEX
  5
85F
330
84F
100
AcDbEntity
  8
0
370
     0
100
AcDbVertex
100
AcDb2dVertex
 10
618.012085
 20
482.133423
 30
0.0
  0
SEQEND
  5
860
330
84F
100
AcDbEntity
  8
0
 62
     7
370
    13
  0
ARC
  5
861
330
1F
100
AcDbEntity
  8
0
 62
     7
370
    13
100
AcDbCircle
 10
611.885986
 20
515.70813
 30
0.0
 40
34.12899720704824
100
AcDbArc
 50
279.582896
 51
280.340576
  0
ARC
  5
862
330
1F
100
AcDbEntity
  8
0
 62
     7
370
    13
100
AcDbCircle
 10
606.269653
 20
489.261292
 30
0.0
 40
6.021371515576569
100
AcDbArc
 50
183.126842
 51
198.400525
  0
ELLIPSE
  5
863
330
1F
100
AcDbEntity
  8
0
 62
     7
370
    35
100
AcDbEllipse
 10
664.690369
 20
441.43103
 30
0.0
 11
-32.42364501953125
 21
2.226318359375
 31
0.0
210
0.0
220
0.0
230
1.0
 40
0.810574
 41
0.324904899483534
 42
1.895701226278429
  0
LINE
  5
864
330
1F
100
AcDbEntity
  8
0
 62
     7
370
    13
100
AcDbLine
 10
667.468567
 20
365.662689
 30
0.0
 11
672.047058
 21
404.833954
 31
0.0
  0
ELLIPSE
  5
865
330
1F
100
AcDbEntity
  8
0
 62
     7
370
    13
100
AcDbEllipse
 10
660.826172
 20
385.273438
 30
0.0
 11
24.86444091796875
 21
-1.91815185546875
 31
0.0
210
0.0
220
0.0
230
1.0
 40
0.807692
 41
3.473069445272066
 42
5.044509645294445
  0
POLYLINE
  5
866
330
1F
100
AcDbEntity
  8
0
 62
     7
370
    13
100
AcDb2dPolyline
 66
     1
 10
0.0
 20
0.0
 30
0.0
  0
VERTEX
  5
867
330
866
100
AcDbEntity
  8
0
370
     0
100
AcDbVertex
100
AcDb2dVertex
 10
634.881897
 20
431.67041
 30
0.0
  0
VERTEX
  5
868
330
866
100
AcDbEntity
  8
0
370
     0
100
AcDbVertex
100
AcDb2dVertex
 10
628.983521
 20
449.233276
 30
0.0
  0
VERTEX
  5
869
330
866
100
AcDbEntity
  8
0
370
     0
100
AcDbVertex
100
AcDb2dVertex
 10
623.086548
 20
466.883759
 30
0.0
  0
VERTEX
  5
86A
330
866
100
AcDbEntity
  8
0
370
     0
100
AcDbVertex
100
AcDb2dVertex
 10
618.012085
 20
482.133423
 30
0.0
  0
SEQEND
  5
86B
330
866
100
AcDbEntity
  8
0
 62
     7
370
    13
  0
POLYLINE
  5
86C
330
1F
100
AcDbEntity
  8
0
 62
     7
370
    13
100
AcDb2dPolyline
 66
     1
 10
0.0
 20
0.0
 30
0.0
  0
VERTEX
  5
86D
330
86C
100
AcDbEntity
  8
0
370
     0
100
AcDbVertex
100
AcDb2dVertex
 10
621.509583
 20
487.019409
 30
0.0
  0
VERTEX
  5
86E
330
86C
100
AcDbEntity
  8
0
370
     0
100
AcDbVertex
100
AcDb2dVertex
 10
639.076538
 20
490.201385
 30
0.0
  0
VERTEX
  5
86F
330
86C
100
AcDbEntity
  8
0
370
     0
100
AcDbVertex
100
AcDb2dVertex
 10
656.585876
 20
493.391846
 30
0.0
  0
VERTEX
  5
870
330
86C
100
AcDbEntity
  8
0
370
     0
100
AcDbVertex
100
AcDb2dVertex
 10
669.877258
 20
495.830139
 30
0.0
  0
VERTEX
  5
871
330
86C
100
AcDbEntity
  8
0
370
     0
100
AcDbVertex
100
AcDb2dVertex
 10
683.020569
 20
498.258911
 30
0.0
  0
VERTEX
  5
872
330
86C
100
AcDbEntity
  8
0
370
     0
100
AcDbVertex
100
AcDb2dVertex
 10
698.89624
 20
501.221954
 30
0.0
  0
VERTEX
  5
873
330
86C
100
AcDbEntity
  8
0
370
     0
100
AcDbVertex
100
AcDb2dVertex
 10
713.586548
 20
503.999023
 30
0.0
  0
VERTEX
  5
874
330
86C
100
AcDbEntity
  8
0
370
     0
100
AcDbVertex
100
AcDb2dVertex
 10
727.604004
 20
506.686462
 30
0.0
  0
VERTEX
  5
875
330
86C
100
AcDbEntity
  8
0
370
     0
100
AcDbVertex
100
AcDb2dVertex
 10
738.458496
 20
508.795349
 30
0.0
  0
VERTEX
  5
876
330
86C
100
AcDbEntity
  8
0
370
     0
100
AcDbVertex
100
AcDb2dVertex
 10
748.937805
 20
510.855408
 30
0.0
  0
VERTEX
  5
877
330
86C
100
AcDbEntity
  8
0
370
     0
100
AcDbVertex
100
AcDb2dVertex
 10
762.347595
 20
513.526184
 30
0.0
  0
VERTEX
  5
878
330
86C
100
AcDbEntity
  8
0
370
     0
100
AcDbVertex
100
AcDb2dVertex
 10
775.763123
 20
516.236816
 30
0.0
  0
VERTEX
  5
879
330
86C
100
AcDbEntity
  8
0
370
     0
100
AcDbVertex
100
AcDb2dVertex
 10
787.463928
 20
518.632751
 30
0.0
  0
VERTEX
  5
87A
330
86C
100
AcDbEntity
  8
0
370
     0
100
AcDbVertex
100
AcDb2dVertex
 10
799.646667
 20
521.158325
 30
0.0
  0
VERTEX
  5
87B
330
86C
100
AcDbEntity
  8
0
370
     0
100
AcDbVertex
100
AcDb2dVertex
 10
819.462585
 20
525.329651
 30
0.0
  0
VERTEX
  5
87C
330
86C
100
AcDbEntity
  8
0
370
     0
100
AcDbVertex
100
AcDb2dVertex
 10
838.241882
 20
529.344604
 30
0.0
  0
VERTEX
  5
87D
330
86C
100
AcDbEntity
  8
0
370
     0
100
AcDbVertex
100
AcDb2dVertex
 10
850.922791
 20
532.082886
 30
0.0
  0
VERTEX
  5
87E
330
86C
100
AcDbEntity
  8
0
370
     0
100
AcDbVertex
100
AcDb2dVertex
 10
863.763123
 20
534.873352
 30
0.0
  0
VERTEX
  5
87F
330
86C
100
AcDbEntity
  8
0
370
     0
100
AcDbVertex
100
AcDb2dVertex
 10
889.859497
 20
540.586304
 30
0.0
  0
VERTEX
  5
880
330
86C
100
AcDbEntity
  8
0
370
     0
100
AcDbVertex
100
AcDb2dVertex
 10
903.513916
 20
543.592346
 30
0.0
  0
SEQEND
  5
881
330
86C
100
AcDbEntity
  8
0
 62
     7
370
    13
  0
POLYLINE
  5
882
330
1F
100
AcDbEntity
  8
0
 62
     7
370
    13
100
AcDb2dPolyline
 66
     1
 10
0.0
 20
0.0
 30
0.0
  0
VERTEX
  5
883
330
882
100
AcDbEntity
  8
0
370
     0
100
AcDbVertex
100
AcDb2dVertex
 10
909.692566
 20
540.647461
 30
0.0
  0
VERTEX
  5
884
330
882
100
AcDbEntity
  8
0
370
     0
100
AcDbVertex
100
AcDb2dVertex
 10
909.520996
 20
541.071838
 30
0.0
  0
VERTEX
  5
885
330
882
100
AcDbEntity
  8
0
370
     0
100
AcDbVertex
100
AcDb2dVertex
 10
909.295227
 20
541.479004
 30
0.0
  0
VERTEX
  5
886
330
882
100
AcDbEntity
  8
0
370
     0
100
AcDbVertex
100
AcDb2dVertex
 10
909.018066
 20
541.864258
 30
0.0
  0
VERTEX
  5
887
330
882
100
AcDbEntity
  8
0
370
     0
100
AcDbVertex
100
AcDb2dVertex
 10
908.692627
 20
542.223083
 30
0.0
  0
VERTEX
  5
888
330
882
100
AcDbEntity
  8
0
370
     0
100
AcDbVertex
100
AcDb2dVertex
 10
908.322937
 20
542.55127
 30
0.0
  0
VERTEX
  5
889
330
882
100
AcDbEntity
  8
0
370
     0
100
AcDbVertex
100
AcDb2dVertex
 10
908.071289
 20
542.739197
 30
0.0
  0
VERTEX
  5
88A
330
882
100
AcDbEntity
  8
0
370
     0
100
AcDbVertex
100
AcDb2dVertex
 10
907.805176
 20
542.912781
 30
0.0
  0
VERTEX
  5
88B
330
882
100
AcDbEntity
  8
0
370
     0
100
AcDbVertex
100
AcDb2dVertex
 10
907.234497
 20
543.214111
 30
0.0
  0
VERTEX
  5
88C
330
882
100
AcDbEntity
  8
0
370
     0
100
AcDbVertex
100
AcDb2dVertex
 10
906.62146
 20
543.44989
 30
0.0
  0
VERTEX
  5
88D
330
882
100
AcDbEntity
  8
0
370
     0
100
AcDbVertex
100
AcDb2dVertex
 10
906.015564
 20
543.608337
 30
0.0
  0
VERTEX
  5
88E
330
882
100
AcDbEntity
  8
0
370
     0
100
AcDbVertex
100
AcDb2dVertex
 10
905.391846
 20
543.702576
 30
0.0
  0
VERTEX
  5
88F
330
882
100
AcDbEntity
  8
0
370
     0
100
AcDbVertex
100
AcDb2dVertex
 10
904.760376
 20
543.731323
 30
0.0
  0
VERTEX
  5
890
330
882
100
AcDbEntity
  8
0
370
     0
100
AcDbVertex
100
AcDb2dVertex
 10
904.131104
 20
543.694336
 30
0.0
  0
VERTEX
  5
891
330
882
100
AcDbEntity
  8
0
370
     0
100
AcDbVertex
100
AcDb2dVertex
 10
903.513916
 20
543.592346
 30
0.0
  0
SEQEND
  5
892
330
882
100
AcDbEntity
  8
0
 62
     7
370
    13
  0
ARC
  5
893
330
1F
100
AcDbEntity
  8
0
 62
     7
370
    13
100
AcDbCircle
 10
16712.917969
 20
5809.937012
 30
0.0
 40
16658.55190312758
100
AcDbArc
 50
198.440003
 51
198.63857
  0
ELLIPSE
  5
894
330
1F
100
AcDbEntity
  8
0
 62
     7
370
    35
100
AcDbEllipse
 10
782.000793
 20
453.935791
 30
0.0
 11
22.4471435546875
 21
-1.54132080078125
 31
0.0
210
0.0
220
0.0
230
1.0
 40
0.810574
 41
0.3249048994803912
 42
3.466497553073325
  0
POLYLINE
  5
895
330
1F
100
AcDbEntity
  8
0
 62
     7
370
    13
100
AcDb2dPolyline
 66
     1
 10
0.0
 20
0.0
 30
0.0
  0
VERTEX
  5
896
330
895
100
AcDbEntity
  8
0
370
     0
100
AcDbVertex
100
AcDb2dVertex
 10
948.235535
 20
421.987396
 30
0.0
  0
VERTEX
  5
897
330
895
100
AcDbEntity
  8
0
370
     0
100
AcDbVertex
100
AcDb2dVertex
 10
909.006897
 20
413.474701
 30
0.0
  0
VERTEX
  5
898
330
895
100
AcDbEntity
  8
0
370
     0
100
AcDbVertex
100
AcDb2dVertex
 10
889.966125
 20
409.368042
 30
0.0
  0
VERTEX
  5
899
330
895
100
AcDbEntity
  8
0
370
     0
100
AcDbVertex
100
AcDb2dVertex
 10
871.595276
 20
405.431641
 30
0.0
  0
VERTEX
  5
89A
330
895
100
AcDbEntity
  8
0
370
     0
100
AcDbVertex
100
AcDb2dVertex
 10
856.502563
 20
402.224945
 30
0.0
  0
VERTEX
  5
89B
330
895
100
AcDbEntity
  8
0
370
     0
100
AcDbVertex
100
AcDb2dVertex
 10
842.388306
 20
399.256958
 30
0.0
  0
VERTEX
  5
89C
330
895
100
AcDbEntity
  8
0
370
     0
100
AcDbVertex
100
AcDb2dVertex
 10
831.636047
 20
397.021484
 30
0.0
  0
VERTEX
  5
89D
330
895
100
AcDbEntity
  8
0
370
     0
100
AcDbVertex
100
AcDb2dVertex
 10
821.379639
 20
394.913635
 30
0.0
  0
VERTEX
  5
89E
330
895
100
AcDbEntity
  8
0
370
     0
100
AcDbVertex
100
AcDb2dVertex
 10
806.787659
 20
391.961243
 30
0.0
  0
VERTEX
  5
89F
330
895
100
AcDbEntity
  8
0
370
     0
100
AcDbVertex
100
AcDb2dVertex
 10
792.159668
 20
389.058685
 30
0.0
  0
VERTEX
  5
8A0
330
895
100
AcDbEntity
  8
0
370
     0
100
AcDbVertex
100
AcDb2dVertex
 10
781.116516
 20
386.90332
 30
0.0
  0
VERTEX
  5
8A1
330
895
100
AcDbEntity
  8
0
370
     0
100
AcDbVertex
100
AcDb2dVertex
 10
769.472534
 20
384.659851
 30
0.0
  0
VERTEX
  5
8A2
330
895
100
AcDbEntity
  8
0
370
     0
100
AcDbVertex
100
AcDb2dVertex
 10
756.616821
 20
382.211792
 30
0.0
  0
VERTEX
  5
8A3
330
895
100
AcDbEntity
  8
0
370
     0
100
AcDbVertex
100
AcDb2dVertex
 10
742.985352
 20
379.641998
 30
0.0
  0
VERTEX
  5
8A4
330
895
100
AcDbEntity
  8
0
370
     0
100
AcDbVertex
100
AcDb2dVertex
 10
727.281677
 20
376.706421
 30
0.0
  0
VERTEX
  5
8A5
330
895
100
AcDbEntity
  8
0
370
     0
100
AcDbVertex
100
AcDb2dVertex
 10
711.064453
 20
373.695129
 30
0.0
  0
VERTEX
  5
8A6
330
895
100
AcDbEntity
  8
0
370
     0
100
AcDbVertex
100
AcDb2dVertex
 10
672.528625
 20
366.591736
 30
0.0
  0
VERTEX
  5
8A7
330
895
100
AcDbEntity
  8
0
370
     0
100
AcDbVertex
100
AcDb2dVertex
 10
667.468567
 20
365.662689
 30
0.0
  0
SEQEND
  5
8A8
330
895
100
AcDbEntity
  8
0
 62
     7
370
    13
  0
LINE
  5
8A9
330
1F
100
AcDbEntity
  8
0
 62
     7
370
    35
100
AcDbLine
 10
673.330444
 20
415.813599
 30
0.0
 11
954.097412
 21
472.138306
 31
0.0
  0
LINE
  5
8AA
330
1F
100
AcDbEntity
  8
0
 62
     7
370
    13
100
AcDbLine
 10
948.235535
 20
421.987396
 30
0.0
 11
952.787964
 21
460.935333
 31
0.0
  0
ARC
  5
8AB
330
1F
100
AcDbEntity
  8
0
 62
     7
370
    13
100
AcDbCircle
 10
643.367065
 20
380.986298
 30
0.0
 40
6.570275841837154
100
AcDbArc
 50
183.79478
 51
198.715028
  0
ELLIPSE
  5
8AC
330
1F
100
AcDbEntity
  8
0
 62
     7
370
    13
100
AcDbEllipse
 10
662.230957
 20
382.295471
 30
0.0
 11
3.61041259765625
 21
-19.67141723632812
 31
0.0
210
0.0
220
0.0
230
1.0
 40
0.214323
 41
0.0000107020321563
 42
0.5251453911634073
  0
ARC
  5
8AD
330
1F
100
AcDbEntity
  8
0
 62
     7
370
    13
100
AcDbCircle
 10
16777.976562
 20
5831.608887
 30
0.0
 40
16727.12382683307
100
AcDbArc
 50
198.637682
 51
198.702009
  0
ELLIPSE
  5
8AE
330
1F
100
AcDbEntity
  8
0
 62
     7
370
    35
100
AcDbEllipse
 10
782.000793
 20
453.935791
 30
0.0
 11
22.4471435546875
 21
-1.54132080078125
 31
0.0
210
0.0
220
0.0
230
1.0
 40
0.810574
 41
3.466497553070184
 42
4.505674134126153
  0
ELLIPSE
  5
8AF
330
1F
100
AcDbEntity
  8
0
 62
     7
370
    35
100
AcDbEllipse
 10
782.000793
 20
453.935791
 30
0.0
 11
22.4471435546875
 21
-1.54132080078125
 31
0.0
210
0.0
220
0.0
230
1.0
 40
0.810574
 41
5.568913636054366
 42
6.60809020666312
  0
ELLIPSE
  5
8B0
330
1F
100
AcDbEntity
  8
0
 62
     7
370
    13
100
AcDbEllipse
 10
909.942932
 20
551.963135
 30
0.0
 11
18.9852294921875
 21
6.2896728515625
 31
0.0
210
0.0
220
0.0
230
1.0
 40
0.543011
 41
4.521417610255252
 42
5.980927180608941
  0
POLYLINE
  5
8B1
330
1F
100
AcDbEntity
  8
0
 62
     7
370
    13
100
AcDb2dPolyline
 66
     1
 10
0.0
 20
0.0
 30
0.0
  0
VERTEX
  5
8B2
330
8B1
100
AcDbEntity
  8
0
370
     0
100
AcDbVertex
100
AcDb2dVertex
 10
929.084229
 20
554.898865
 30
0.0
  0
VERTEX
  5
8B3
330
8B1
100
AcDbEntity
  8
0
370
     0
100
AcDbVertex
100
AcDb2dVertex
 10
934.414917
 20
538.844788
 30
0.0
  0
VERTEX
  5
8B4
330
8B1
100
AcDbEntity
  8
0
370
     0
100
AcDbVertex
100
AcDb2dVertex
 10
938.993347
 20
525.119324
 30
0.0
  0
VERTEX
  5
8B5
330
8B1
100
AcDbEntity
  8
0
370
     0
100
AcDbVertex
100
AcDb2dVertex
 10
947.298706
 20
500.384796
 30
0.0
  0
SEQEND
  5
8B6
330
8B1
100
AcDbEntity
  8
0
 62
     7
370
    13
  0
ELLIPSE
  5
8B7
330
1F
100
AcDbEntity
  8
0
 62
     7
370
    35
100
AcDbEllipse
 10
945.457397
 20
497.755707
 30
0.0
 11
-32.42364501953125
 21
2.226318359375
 31
0.0
210
0.0
220
0.0
230
1.0
 40
0.810574
 41
3.032385850515917
 42
3.466497553073326
  0
ELLIPSE
  5
8B8
330
1F
100
AcDbEntity
  8
0
 62
     7
370
    35
100
AcDbEllipse
 10
945.457397
 20
497.755707
 30
0.0
 11
-32.42364501953125
 21
2.226318359375
 31
0.0
210
0.0
220
0.0
230
1.0
 40
0.810574
 41
1.89570122627843
 42
3.032385850515917
  0
LINE
  5
8B9
330
1F
100
AcDbEntity
  8
0
 62
     7
370
    13
100
AcDbLine
 10
972.631714
 20
482.683044
 30
0.0
 11
976.760742
 21
504.035492
 31
0.0
  0
ELLIPSE
  5
8BA
330
1F
100
AcDbEntity
  8
0
 62
     7
370
    13
100
AcDbEllipse
 10
941.61145
 20
441.602966
 30
0.0
 11
24.900634765625
 21
-1.41455078125
 31
0.0
210
0.0
220
0.0
230
1.0
 40
0.81
 41
5.02734102370557
 42
6.16448401935056
  0
ARC
  5
8BB
330
1F
100
AcDbEntity
  8
0
 62
     7
370
    13
100
AcDbCircle
 10
10168.035156
 20
3610.41748
 30
0.0
 40
9731.098676399579
100
AcDbArc
 50
198.63857
 51
198.810391
  0
LINE
  5
8BC
330
1F
100
AcDbEntity
  8
0
 62
     7
370
    35
100
AcDbLine
 10
976.760742
 20
504.035492
 30
0.0
 11
940.206726
 21
612.41687
 31
0.0
  0
LINE
  5
8BD
330
1F
100
AcDbEntity
  8
0
 62
     7
370
    13
100
AcDbLine
 10
929.084229
 20
554.898865
 30
0.0
 11
940.206726
 21
612.41687
 31
0.0
  0
ELLIPSE
  5
8BE
330
1F
100
AcDbEntity
  8
0
 62
     7
370
    13
100
AcDbEllipse
 10
942.997925
 20
438.620178
 30
0.0
 11
4.25274658203125
 21
-19.54263305664062
 31
0.0
210
0.0
220
0.0
230
1.0
 40
0.159374
 41
0.0000077240763294
 42
0.5190197233315673
  0
ELLIPSE
  5
8BF
330
1F
100
AcDbEntity
  8
0
 62
     7
370
    13
100
AcDbEllipse
 10
903.783447
 20
554.889648
 30
0.0
 11
4.3355712890625
 21
-19.5244140625
 31
0.0
210
0.0
220
0.0
230
1.0
 40
0.162184
 41
3.816928648603301
 42
5.292973192788257
  0
ELLIPSE
  5
8C0
330
1F
100
AcDbEntity
  8
0
 62
     7
370
    13
100
AcDbEllipse
 10
905.060547
 20
549.994019
 30
0.0
 11
24.88946533203125
 21
-1.49322509765625
 31
0.0
210
0.0
220
0.0
230
1.0
 40
0.813416
 41
0.3176514314069878
 42
1.889303617208365
  0
ELLIPSE
  5
8C1
330
1F
100
AcDbEntity
  8
0
 62
     7
370
    35
100
AcDbEllipse
 10
908.903381
 20
606.137085
 30
0.0
 11
-32.42364501953125
 21
2.226318359375
 31
0.0
210
0.0
220
0.0
230
1.0
 40
0.810574
 41
3.466497553073326
 42
5.037293879868221
  0
LINE
  5
8C2
330
1F
100
AcDbEntity
  8
0
 62
     7
370
    35
100
AcDbLine
 10
896.807312
 20
642.001465
 30
0.0
 11
616.040344
 21
585.676758
 31
0.0
  0
ELLIPSE
  5
8C3
330
1F
100
AcDbEntity
  8
0
 62
     7
370
    35
100
AcDbEllipse
 10
628.136719
 20
549.812256
 30
0.0
 11
-45.3934326171875
 21
3.11688232421875
 31
0.0
210
0.0
220
0.0
230
1.0
 40
0.810574
 41
5.037300241667745
 42
6.608083844863585
  0
LINE
  5
8C4
330
1F
100
AcDbEntity
  8
0
 62
     7
370
    35
100
AcDbLine
 10
584.311707
 20
541.020752
 30
0.0
 11
620.865723
 21
432.639343
 31
0.0
  0
ELLIPSE
  5
8C5
330
1F
100
AcDbEntity
  8
0
 62
     7
370
    35
100
AcDbEllipse
 10
664.690613
 20
441.431305
 30
0.0
 11
-45.3934326171875
 21
3.11688232421875
 31
0.0
210
0.0
220
0.0
230
1.0
 40
0.810574
 41
0.3249112612831073
 42
1.89569486447886
  0
LINE
  5
8C6
330
1F
100
AcDbEntity
  8
0
 62
     7
370
    35
100
AcDbLine
 10
676.786438
 20
405.56665
 30
0.0
 11
957.553406
 21
461.891327
 31
0.0
  0
ELLIPSE
  5
8C7
330
1F
100
AcDbEntity
  8
0
 62
     7
370
    35
100
AcDbEllipse
 10
945.457031
 20
497.75589
 30
0.0
 11
-45.3934326171875
 21
3.11688232421875
 31
0.0
210
0.0
220
0.0
230
1.0
 40
0.810574
 41
1.895707588078381
 42
3.466491191273375
  0
LINE
  5
8C8
330
1F
100
AcDbEntity
  8
0
 62
     7
370
    35
100
AcDbLine
 10
989.282043
 20
506.547394
 30
0.0
 11
952.728027
 21
614.928772
 31
0.0
  0
ELLIPSE
  5
8C9
330
1F
100
AcDbEntity
  8
0
 62
     7
370
    35
100
AcDbEllipse
 10
908.903137
 20
606.136841
 30
0.0
 11
-45.3934326171875
 21
3.11688232421875
 31
0.0
210
0.0
220
0.0
230
1.0
 40
0.810574
 41
3.466503914873189
 42
5.037287518068387
  0
LINE
  5
8CA
330
1F
100
AcDbEntity
  8
0
 62
     7
370
    35
100
AcDbLine
 10
599.393799
 20
493.261902
 30
0.0
 11
599.144653
 21
497.041168
 31
0.0
  0
ARC
  5
8CB
330
1F
100
AcDbEntity
  8
0
 62
     7
370
    35
100
AcDbCircle
 10
622.822266
 20
494.812866
 30
0.0
 40
23.47986468928541
100
AcDbArc
 50
183.792321
 51
198.504972
  0
POLYLINE
  5
8CC
330
1F
100
AcDbEntity
  8
0
 62
     7
370
    35
100
AcDb2dPolyline
 66
     1
 10
0.0
 20
0.0
 30
0.0
  0
VERTEX
  5
8CD
330
8CC
100
AcDbEntity
  8
0
370
     0
100
AcDbVertex
100
AcDb2dVertex
 10
665.841431
 20
362.624084
 30
0.0
  0
VERTEX
  5
8CE
330
8CC
100
AcDbEntity
  8
0
370
     0
100
AcDbVertex
100
AcDb2dVertex
 10
664.804016
 20
362.455322
 30
0.0
  0
VERTEX
  5
8CF
330
8CC
100
AcDbEntity
  8
0
370
     0
100
AcDbVertex
100
AcDb2dVertex
 10
663.76709
 20
362.329407
 30
0.0
  0
VERTEX
  5
8D0
330
8CC
100
AcDbEntity
  8
0
370
     0
100
AcDbVertex
100
AcDb2dVertex
 10
662.731445
 20
362.245453
 30
0.0
  0
VERTEX
  5
8D1
330
8CC
100
AcDbEntity
  8
0
370
     0
100
AcDbVertex
100
AcDb2dVertex
 10
661.69751
 20
362.20282
 30
0.0
  0
VERTEX
  5
8D2
330
8CC
100
AcDbEntity
  8
0
370
     0
100
AcDbVertex
100
AcDb2dVertex
 10
660.666992
 20
362.201019
 30
0.0
  0
VERTEX
  5
8D3
330
8CC
100
AcDbEntity
  8
0
370
     0
100
AcDbVertex
100
AcDb2dVertex
 10
659.639343
 20
362.239563
 30
0.0
  0
VERTEX
  5
8D4
330
8CC
100
AcDbEntity
  8
0
370
     0
100
AcDbVertex
100
AcDb2dVertex
 10
658.615051
 20
362.318176
 30
0.0
  0
VERTEX
  5
8D5
330
8CC
100
AcDbEntity
  8
0
370
     0
100
AcDbVertex
100
AcDb2dVertex
 10
657.594604
 20
362.436768
 30
0.0
  0
VERTEX
  5
8D6
330
8CC
100
AcDbEntity
  8
0
370
     0
100
AcDbVertex
100
AcDb2dVertex
 10
656.578003
 20
362.595398
 30
0.0
  0
VERTEX
  5
8D7
330
8CC
100
AcDbEntity
  8
0
370
     0
100
AcDbVertex
100
AcDb2dVertex
 10
655.566284
 20
362.79425
 30
0.0
  0
VERTEX
  5
8D8
330
8CC
100
AcDbEntity
  8
0
370
     0
100
AcDbVertex
100
AcDb2dVertex
 10
654.560059
 20
363.033447
 30
0.0
  0
VERTEX
  5
8D9
330
8CC
100
AcDbEntity
  8
0
370
     0
100
AcDbVertex
100
AcDb2dVertex
 10
653.560059
 20
363.313477
 30
0.0
  0
VERTEX
  5
8DA
330
8CC
100
AcDbEntity
  8
0
370
     0
100
AcDbVertex
100
AcDb2dVertex
 10
652.564941
 20
363.635498
 30
0.0
  0
VERTEX
  5
8DB
330
8CC
100
AcDbEntity
  8
0
370
     0
100
AcDbVertex
100
AcDb2dVertex
 10
651.577576
 20
363.999573
 30
0.0
  0
VERTEX
  5
8DC
330
8CC
100
AcDbEntity
  8
0
370
     0
100
AcDbVertex
100
AcDb2dVertex
 10
650.598999
 20
364.406433
 30
0.0
  0
VERTEX
  5
8DD
330
8CC
100
AcDbEntity
  8
0
370
     0
100
AcDbVertex
100
AcDb2dVertex
 10
649.63031
 20
364.856873
 30
0.0
  0
VERTEX
  5
8DE
330
8CC
100
AcDbEntity
  8
0
370
     0
100
AcDbVertex
100
AcDb2dVertex
 10
648.908875
 20
365.224915
 30
0.0
  0
VERTEX
  5
8DF
330
8CC
100
AcDbEntity
  8
0
370
     0
100
AcDbVertex
100
AcDb2dVertex
 10
648.134277
 20
365.653015
 30
0.0
  0
VERTEX
  5
8E0
330
8CC
100
AcDbEntity
  8
0
370
     0
100
AcDbVertex
100
AcDb2dVertex
 10
647.368652
 20
366.111694
 30
0.0
  0
VERTEX
  5
8E1
330
8CC
100
AcDbEntity
  8
0
370
     0
100
AcDbVertex
100
AcDb2dVertex
 10
646.612915
 20
366.601471
 30
0.0
  0
VERTEX
  5
8E2
330
8CC
100
AcDbEntity
  8
0
370
     0
100
AcDbVertex
100
AcDb2dVertex
 10
645.868286
 20
367.122894
 30
0.0
  0
VERTEX
  5
8E3
330
8CC
100
AcDbEntity
  8
0
370
     0
100
AcDbVertex
100
AcDb2dVertex
 10
644.963501
 20
367.813019
 30
0.0
  0
VERTEX
  5
8E4
330
8CC
100
AcDbEntity
  8
0
370
     0
100
AcDbVertex
100
AcDb2dVertex
 10
644.080017
 20
368.553314
 30
0.0
  0
VERTEX
  5
8E5
330
8CC
100
AcDbEntity
  8
0
370
     0
100
AcDbVertex
100
AcDb2dVertex
 10
643.220764
 20
369.344513
 30
0.0
  0
VERTEX
  5
8E6
330
8CC
100
AcDbEntity
  8
0
370
     0
100
AcDbVertex
100
AcDb2dVertex
 10
642.388855
 20
370.187195
 30
0.0
  0
VERTEX
  5
8E7
330
8CC
100
AcDbEntity
  8
0
370
     0
100
AcDbVertex
100
AcDb2dVertex
 10
641.581055
 20
371.0896
 30
0.0
  0
VERTEX
  5
8E8
330
8CC
100
AcDbEntity
  8
0
370
     0
100
AcDbVertex
100
AcDb2dVertex
 10
640.808533
 20
372.0448
 30
0.0
  0
VERTEX
  5
8E9
330
8CC
100
AcDbEntity
  8
0
370
     0
100
AcDbVertex
100
AcDb2dVertex
 10
640.075439
 20
373.052368
 30
0.0
  0
VERTEX
  5
8EA
330
8CC
100
AcDbEntity
  8
0
370
     0
100
AcDbVertex
100
AcDb2dVertex
 10
639.38623
 20
374.11145
 30
0.0
  0
VERTEX
  5
8EB
330
8CC
100
AcDbEntity
  8
0
370
     0
100
AcDbVertex
100
AcDb2dVertex
 10
638.739319
 20
375.232208
 30
0.0
  0
VERTEX
  5
8EC
330
8CC
100
AcDbEntity
  8
0
370
     0
100
AcDbVertex
100
AcDb2dVertex
 10
638.146729
 20
376.402161
 30
0.0
  0
VERTEX
  5
8ED
330
8CC
100
AcDbEntity
  8
0
370
     0
100
AcDbVertex
100
AcDb2dVertex
 10
637.613525
 20
377.618591
 30
0.0
  0
VERTEX
  5
8EE
330
8CC
100
AcDbEntity
  8
0
370
     0
100
AcDbVertex
100
AcDb2dVertex
 10
637.144348
 20
378.878174
 30
0.0
  0
SEQEND
  5
8EF
330
8CC
100
AcDbEntity
  8
0
 62
     7
370
    35
  0
LINE
  5
8F0
330
1F
100
AcDbEntity
  8
0
 62
     7
370
    35
100
AcDbLine
 10
966.200928
 20
437.808655
 30
0.0
 11
972.273315
 21
467.319916
 31
0.0
  0
POLYLINE
  5
8F1
330
1F
100
AcDbEntity
  8
0
 62
     7
370
    35
100
AcDb2dPolyline
 66
     1
 10
0.0
 20
0.0
 30
0.0
  0
VERTEX
  5
8F2
330
8F1
100
AcDbEntity
  8
0
370
     0
100
AcDbVertex
100
AcDb2dVertex
 10
947.250671
 20
419.077545
 30
0.0
  0
VERTEX
  5
8F3
330
8F1
100
AcDbEntity
  8
0
370
     0
100
AcDbVertex
100
AcDb2dVertex
 10
947.999634
 20
419.252197
 30
0.0
  0
VERTEX
  5
8F4
330
8F1
100
AcDbEntity
  8
0
370
     0
100
AcDbVertex
100
AcDb2dVertex
 10
948.746643
 20
419.450012
 30
0.0
  0
VERTEX
  5
8F5
330
8F1
100
AcDbEntity
  8
0
370
     0
100
AcDbVertex
100
AcDb2dVertex
 10
949.49115
 20
419.671265
 30
0.0
  0
VERTEX
  5
8F6
330
8F1
100
AcDbEntity
  8
0
370
     0
100
AcDbVertex
100
AcDb2dVertex
 10
950.786377
 20
420.115692
 30
0.0
  0
VERTEX
  5
8F7
330
8F1
100
AcDbEntity
  8
0
370
     0
100
AcDbVertex
100
AcDb2dVertex
 10
951.843872
 20
420.537476
 30
0.0
  0
VERTEX
  5
8F8
330
8F1
100
AcDbEntity
  8
0
370
     0
100
AcDbVertex
100
AcDb2dVertex
 10
952.849304
 20
420.990723
 30
0.0
  0
VERTEX
  5
8F9
330
8F1
100
AcDbEntity
  8
0
370
     0
100
AcDbVertex
100
AcDb2dVertex
 10
953.844421
 20
421.492767
 30
0.0
  0
VERTEX
  5
8FA
330
8F1
100
AcDbEntity
  8
0
370
     0
100
AcDbVertex
100
AcDb2dVertex
 10
954.827209
 20
422.044708
 30
0.0
  0
VERTEX
  5
8FB
330
8F1
100
AcDbEntity
  8
0
370
     0
100
AcDbVertex
100
AcDb2dVertex
 10
955.798706
 20
422.649719
 30
0.0
  0
VERTEX
  5
8FC
330
8F1
100
AcDbEntity
  8
0
370
     0
100
AcDbVertex
100
AcDb2dVertex
 10
956.756104
 20
423.309387
 30
0.0
  0
VERTEX
  5
8FD
330
8F1
100
AcDbEntity
  8
0
370
     0
100
AcDbVertex
100
AcDb2dVertex
 10
957.693298
 20
424.022675
 30
0.0
  0
VERTEX
  5
8FE
330
8F1
100
AcDbEntity
  8
0
370
     0
100
AcDbVertex
100
AcDb2dVertex
 10
958.607178
 20
424.790344
 30
0.0
  0
VERTEX
  5
8FF
330
8F1
100
AcDbEntity
  8
0
370
     0
100
AcDbVertex
100
AcDb2dVertex
 10
959.497986
 20
425.616638
 30
0.0
  0
VERTEX
  5
900
330
8F1
100
AcDbEntity
  8
0
370
     0
100
AcDbVertex
100
AcDb2dVertex
 10
960.36145
 20
426.502563
 30
0.0
  0
VERTEX
  5
901
330
8F1
100
AcDbEntity
  8
0
370
     0
100
AcDbVertex
100
AcDb2dVertex
 10
961.189453
 20
427.444366
 30
0.0
  0
VERTEX
  5
902
330
8F1
100
AcDbEntity
  8
0
370
     0
100
AcDbVertex
100
AcDb2dVertex
 10
961.977234
 20
428.441406
 30
0.0
  0
VERTEX
  5
903
330
8F1
100
AcDbEntity
  8
0
370
     0
100
AcDbVertex
100
AcDb2dVertex
 10
962.723755
 20
429.497803
 30
0.0
  0
VERTEX
  5
904
330
8F1
100
AcDbEntity
  8
0
370
     0
100
AcDbVertex
100
AcDb2dVertex
 10
963.423401
 20
430.612549
 30
0.0
  0
VERTEX
  5
905
330
8F1
100
AcDbEntity
  8
0
370
     0
100
AcDbVertex
100
AcDb2dVertex
 10
964.067261
 20
431.778168
 30
0.0
  0
VERTEX
  5
906
330
8F1
100
AcDbEntity
  8
0
370
     0
100
AcDbVertex
100
AcDb2dVertex
 10
964.650391
 20
432.991486
 30
0.0
  0
VERTEX
  5
907
330
8F1
100
AcDbEntity
  8
0
370
     0
100
AcDbVertex
100
AcDb2dVertex
 10
964.917725
 20
433.614868
 30
0.0
  0
VERTEX
  5
908
330
8F1
100
AcDbEntity
  8
0
370
     0
100
AcDbVertex
100
AcDb2dVertex
 10
965.308655
 20
434.630371
 30
0.0
  0
VERTEX
  5
909
330
8F1
100
AcDbEntity
  8
0
370
     0
100
AcDbVertex
100
AcDb2dVertex
 10
965.654175
 20
435.669891
 30
0.0
  0
VERTEX
  5
90A
330
8F1
100
AcDbEntity
  8
0
370
     0
100
AcDbVertex
100
AcDb2dVertex
 10
965.952332
 20
436.730713
 30
0.0
  0
VERTEX
  5
90B
330
8F1
100
AcDbEntity
  8
0
370
     0
100
AcDbVertex
100
AcDb2dVertex
 10
966.201172
 20
437.809814
 30
0.0
  0
SEQEND
  5
90C
330
8F1
100
AcDbEntity
  8
0
 62
     7
370
    35
  0
POLYLINE
  5
90D
330
1F
100
AcDbEntity
  8
0
 62
     7
370
    35
100
AcDb2dPolyline
 66
     1
 10
0.0
 20
0.0
 30
0.0
  0
VERTEX
  5
90E
330
90D
100
AcDbEntity
  8
0
370
     0
100
AcDbVertex
100
AcDb2dVertex
 10
947.250671
 20
419.077545
 30
0.0
  0
VERTEX
  5
90F
330
90D
100
AcDbEntity
  8
0
370
     0
100
AcDbVertex
100
AcDb2dVertex
 10
907.672119
 20
410.489166
 30
0.0
  0
VERTEX
  5
910
330
90D
100
AcDbEntity
  8
0
370
     0
100
AcDbVertex
100
AcDb2dVertex
 10
881.967773
 20
404.951752
 30
0.0
  0
VERTEX
  5
911
330
90D
100
AcDbEntity
  8
0
370
     0
100
AcDbVertex
100
AcDb2dVertex
 10
869.613647
 20
402.30896
 30
0.0
  0
VERTEX
  5
912
330
90D
100
AcDbEntity
  8
0
370
     0
100
AcDbVertex
100
AcDb2dVertex
 10
857.76239
 20
399.789795
 30
0.0
  0
VERTEX
  5
913
330
90D
100
AcDbEntity
  8
0
370
     0
100
AcDbVertex
100
AcDb2dVertex
 10
846.49939
 20
397.414185
 30
0.0
  0
VERTEX
  5
914
330
90D
100
AcDbEntity
  8
0
370
     0
100
AcDbVertex
100
AcDb2dVertex
 10
835.829285
 20
395.184265
 30
0.0
  0
VERTEX
  5
915
330
90D
100
AcDbEntity
  8
0
370
     0
100
AcDbVertex
100
AcDb2dVertex
 10
825.681335
 20
393.085693
 30
0.0
  0
VERTEX
  5
916
330
90D
100
AcDbEntity
  8
0
370
     0
100
AcDbVertex
100
AcDb2dVertex
 10
815.91687
 20
391.089813
 30
0.0
  0
VERTEX
  5
917
330
90D
100
AcDbEntity
  8
0
370
     0
100
AcDbVertex
100
AcDb2dVertex
 10
806.349731
 20
389.158325
 30
0.0
  0
VERTEX
  5
918
330
90D
100
AcDbEntity
  8
0
370
     0
100
AcDbVertex
100
AcDb2dVertex
 10
796.785156
 20
387.25177
 30
0.0
  0
VERTEX
  5
919
330
90D
100
AcDbEntity
  8
0
370
     0
100
AcDbVertex
100
AcDb2dVertex
 10
787.028625
 20
385.331604
 30
0.0
  0
VERTEX
  5
91A
330
90D
100
AcDbEntity
  8
0
370
     0
100
AcDbVertex
100
AcDb2dVertex
 10
776.895569
 20
383.361572
 30
0.0
  0
VERTEX
  5
91B
330
90D
100
AcDbEntity
  8
0
370
     0
100
AcDbVertex
100
AcDb2dVertex
 10
766.244873
 20
381.314331
 30
0.0
  0
VERTEX
  5
91C
330
90D
100
AcDbEntity
  8
0
370
     0
100
AcDbVertex
100
AcDb2dVertex
 10
755.006653
 20
379.176025
 30
0.0
  0
VERTEX
  5
91D
330
90D
100
AcDbEntity
  8
0
370
     0
100
AcDbVertex
100
AcDb2dVertex
 10
743.187988
 20
376.946808
 30
0.0
  0
VERTEX
  5
91E
330
90D
100
AcDbEntity
  8
0
370
     0
100
AcDbVertex
100
AcDb2dVertex
 10
718.188232
 20
372.279175
 30
0.0
  0
VERTEX
  5
91F
330
90D
100
AcDbEntity
  8
0
370
     0
100
AcDbVertex
100
AcDb2dVertex
 10
692.183289
 20
367.468811
 30
0.0
  0
VERTEX
  5
920
330
90D
100
AcDbEntity
  8
0
370
     0
100
AcDbVertex
100
AcDb2dVertex
 10
665.841431
 20
362.624084
 30
0.0
  0
SEQEND
  5
921
330
90D
100
AcDbEntity
  8
0
 62
     7
370
    35
  0
ARC
  5
922
330
1F
100
AcDbEntity
  8
0
 62
     7
370
    35
100
AcDbCircle
 10
20433.382812
 20
7116.851562
 30
0.0
 40
20911.51244897821
100
AcDbArc
 50
198.640811
 51
198.79684
  0
ARC
  5
923
330
1F
100
AcDbEntity
  8
0
 62
     7
370
    35
100
AcDbCircle
 10
21060.457031
 20
7325.641113
 30
0.0
 40
21572.42706642159
100
AcDbArc
 50
198.481094
 51
198.633912
  0
ENDSEC
  0
SECTION
  2
OBJECTS
  0
DICTIONARY
  5
C
330
0
100
AcDbDictionary
281
     1
  3
ACAD_GROUP
350
D
  3
ACAD_LAYOUT
350
1A
  3
ACAD_MLINESTYLE
350
17
  3
ACAD_PLOTSETTINGS
350
19
  3
ACAD_PLOTSTYLENAME
350
E
  3
ACAD_SCALELIST
350
47
  0
DICTIONARY
  5
D
102
{ACAD_REACTORS
330
C
102
}
330
C
100
AcDbDictionary
281
     1
  0
DICTIONARY
  5
1A
102
{ACAD_REACTORS
330
C
102
}
330
C
100
AcDbDictionary
281
     1
  3
Layout1
350
1E
  3
Layout2
350
26
  3
Model
350
22
  0
DICTIONARY
  5
17
102
{ACAD_REACTORS
330
C
102
}
330
C
100
AcDbDictionary
281
     1
  3
Standard
350
18
  0
DICTIONARY
  5
19
102
{ACAD_REACTORS
330
C
102
}
330
C
100
AcDbDictionary
281
     1
  0
ACDBDICTIONARYWDFLT
  5
E
102
{ACAD_REACTORS
330
C
102
}
330
C
100
AcDbDictionary
281
     1
  3
Normal
350
F
100
AcDbDictionaryWithDefault
340
F
  0
DICTIONARY
  5
47
102
{ACAD_REACTORS
330
C
102
}
330
C
100
AcDbDictionary
281
     1
  3
A0
350
48
  3
A1
350
49
  3
A2
350
4A
  3
A3
350
4B
  3
A4
350
4C
  3
A5
350
4D
  3
A6
350
4E
  3
A7
350
4F
  3
A8
350
50
  3
A9
350
51
  3
B0
350
52
  3
B1
350
53
  3
B2
350
54
  3
B3
350
55
  3
B4
350
56
  3
B5
350
57
  3
B6
350
58
  3
B7
350
59
  3
B8
350
5A
  3
B9
350
5B
  3
C0
350
5C
  3
C1
350
5D
  3
C2
350
5E
  3
C3
350
5F
  3
C4
350
60
  3
C5
350
61
  3
C6
350
62
  3
C7
350
63
  3
C8
350
64
  3
C9
350
65
  3
D0
350
66
  3
D1
350
67
  3
D2
350
68
  0
LAYOUT
  5
1E
102
{ACAD_REACTORS
330
1A
102
}
330
1A
100
AcDbPlotSettings
  1

  2
none_device
  4

  6

 40
0.0
 41
0.0
 42
0.0
 43
0.0
 44
0.0
 45
0.0
 46
0.0
 47
0.0
 48
0.0
 49
0.0
140
0.0
141
0.0
142
1.0
143
1.0
 70
  4784
 72
     0
 73
     0
 74
     5
  7

 75
    16
147
1.0
148
0.0
149
0.0
100
AcDbLayout
  1
Layout1
 70
     1
 71
     1
 10
0.0
 20
0.0
 11
420.0
 21
297.0
 12
0.0
 22
0.0
 32
0.0
 14
0.0
 24
0.0
 34
0.0
 15
990.920654
 25
716.103577
 35
2.0
146
0.0
 13
0.0
 23
0.0
 33
0.0
 16
1.0
 26
0.0
 36
0.0
 17
0.0
 27
1.0
 37
0.0
 76
     0
330
1B
  0
LAYOUT
  5
26
102
{ACAD_REACTORS
330
1A
102
}
330
1A
100
AcDbPlotSettings
  1

  2
none_device
  4

  6

 40
0.0
 41
0.0
 42
0.0
 43
0.0
 44
0.0
 45
0.0
 46
0.0
 47
0.0
 48
0.0
 49
0.0
140
0.0
141
0.0
142
1.0
143
1.0
 70
  4784
 72
     0
 73
     0
 74
     5
  7

 75
    16
147
1.0
148
0.0
149
0.0
100
AcDbLayout
  1
Layout2
 70
     1
 71
     2
 10
0.0
 20
0.0
 11
0.0
 21
0.0
 12
0.0
 22
0.0
 32
0.0
 14
0.0
 24
0.0
 34
0.0
 15
0.0
 25
0.0
 35
0.0
146
0.0
 13
0.0
 23
0.0
 33
0.0
 16
1.0
 26
0.0
 36
0.0
 17
0.0
 27
1.0
 37
0.0
 76
     0
330
23
  0
LAYOUT
  5
22
102
{ACAD_REACTORS
330
1A
102
}
330
1A
100
AcDbPlotSettings
  1

  2
none_device
  4
Letter_(8.50_x_11.00_Inches)
  6

 40
6.35
 41
6.35
 42
6.350005
 43
6.350005
 44
215.9
 45
279.4
 46
0.0
 47
0.0
 48
0.0
 49
0.0
140
0.0
141
0.0
142
1.0
143
1.0
 70
  5808
 72
     0
 73
     0
 74
     0
  7

 75
     0
147
1.0
148
0.0
149
0.0
100
AcDbLayout
  1
Model
 70
     1
 71
     0
 10
0.0
 20
0.0
 11
420.0
 21
297.0
 12
0.0
 22
0.0
 32
0.0
 14
0.0
 24
0.0
 34
0.0
 15
990.920654
 25
716.103577
 35
2.0
146
0.0
 13
0.0
 23
0.0
 33
0.0
 16
1.0
 26
0.0
 36
0.0
 17
0.0
 27
1.0
 37
0.0
 76
     0
330
1F
331
29
  0
MLINESTYLE
  5
18
102
{ACAD_REACTORS
330
17
102
}
330
17
100
AcDbMlineStyle
  2
Standard
 70
     0
  3

 62
   256
 51
90.0
 52
90.0
 71
     2
 49
0.5
 62
   256
  6
BYLAYER
 49
-0.5
 62
   256
  6
BYLAYER
  0
ACDBPLACEHOLDER
  5
F
102
{ACAD_REACTORS
330
E
102
}
330
E
  0
SCALE
  5
48
102
{ACAD_REACTORS
330
47
102
}
330
47
100
AcDbScale
 70
     0
300
1:1
140
1.0
141
1.0
290
     1
  0
SCALE
  5
49
102
{ACAD_REACTORS
330
47
102
}
330
47
100
AcDbScale
 70
     0
300
1:2
140
1.0
141
2.0
290
     0
  0
SCALE
  5
4A
102
{ACAD_REACTORS
330
47
102
}
330
47
100
AcDbScale
 70
     0
300
1:4
140
1.0
141
4.0
290
     0
  0
SCALE
  5
4B
102
{ACAD_REACTORS
330
47
102
}
330
47
100
AcDbScale
 70
     0
300
1:5
140
1.0
141
5.0
290
     0
  0
SCALE
  5
4C
102
{ACAD_REACTORS
330
47
102
}
330
47
100
AcDbScale
 70
     0
300
1:8
140
1.0
141
8.0
290
     0
  0
SCALE
  5
4D
102
{ACAD_REACTORS
330
47
102
}
330
47
100
AcDbScale
 70
     0
300
1:10
140
1.0
141
10.0
290
     0
  0
SCALE
  5
4E
102
{ACAD_REACTORS
330
47
102
}
330
47
100
AcDbScale
 70
     0
300
1:16
140
1.0
141
16.0
290
     0
  0
SCALE
  5
4F
102
{ACAD_REACTORS
330
47
102
}
330
47
100
AcDbScale
 70
     0
300
1:20
140
1.0
141
20.0
290
     0
  0
SCALE
  5
50
102
{ACAD_REACTORS
330
47
102
}
330
47
100
AcDbScale
 70
     0
300
1:30
140
1.0
141
30.0
290
     0
  0
SCALE
  5
51
102
{ACAD_REACTORS
330
47
102
}
330
47
100
AcDbScale
 70
     0
300
1:40
140
1.0
141
40.0
290
     0
  0
SCALE
  5
52
102
{ACAD_REACTORS
330
47
102
}
330
47
100
AcDbScale
 70
     0
300
1:50
140
1.0
141
50.0
290
     0
  0
SCALE
  5
53
102
{ACAD_REACTORS
330
47
102
}
330
47
100
AcDbScale
 70
     0
300
1:100
140
1.0
141
100.0
290
     0
  0
SCALE
  5
54
102
{ACAD_REACTORS
330
47
102
}
330
47
100
AcDbScale
 70
     0
300
2:1
140
2.0
141
1.0
290
     0
  0
SCALE
  5
55
102
{ACAD_REACTORS
330
47
102
}
330
47
100
AcDbScale
 70
     0
300
4:1
140
4.0
141
1.0
290
     0
  0
SCALE
  5
56
102
{ACAD_REACTORS
330
47
102
}
330
47
100
AcDbScale
 70
     0
300
8:1
140
8.0
141
1.0
290
     0
  0
SCALE
  5
57
102
{ACAD_REACTORS
330
47
102
}
330
47
100
AcDbScale
 70
     0
300
10:1
140
10.0
141
1.0
290
     0
  0
SCALE
  5
58
102
{ACAD_REACTORS
330
47
102
}
330
47
100
AcDbScale
 70
     0
300
100:1
140
100.0
141
1.0
290
     0
  0
SCALE
  5
59
102
{ACAD_REACTORS
330
47
102
}
330
47
100
AcDbScale
 70
     0
300
1/128" = 1'-0"
140
0.007812
141
12.0
290
     0
  0
SCALE
  5
5A
102
{ACAD_REACTORS
330
47
102
}
330
47
100
AcDbScale
 70
     0
300
1/64" = 1'-0"
140
0.015625
141
12.0
290
     0
  0
SCALE
  5
5B
102
{ACAD_REACTORS
330
47
102
}
330
47
100
AcDbScale
 70
     0
300
1/32" = 1'-0"
140
0.03125
141
12.0
290
     0
  0
SCALE
  5
5C
102
{ACAD_REACTORS
330
47
102
}
330
47
100
AcDbScale
 70
     0
300
1/16" = 1'-0"
140
0.0625
141
12.0
290
     0
  0
SCALE
  5
5D
102
{ACAD_REACTORS
330
47
102
}
330
47
100
AcDbScale
 70
     0
300
3/32" = 1'-0"
140
0.09375
141
12.0
290
     0
  0
SCALE
  5
5E
102
{ACAD_REACTORS
330
47
102
}
330
47
100
AcDbScale
 70
     0
300
1/8" = 1'-0"
140
0.125
141
12.0
290
     0
  0
SCALE
  5
5F
102
{ACAD_REACTORS
330
47
102
}
330
47
100
AcDbScale
 70
     0
300
3/16" = 1'-0"
140
0.1875
141
12.0
290
     0
  0
SCALE
  5
60
102
{ACAD_REACTORS
330
47
102
}
330
47
100
AcDbScale
 70
     0
300
1/4" = 1'-0"
140
0.25
141
12.0
290
     0
  0
SCALE
  5
61
102
{ACAD_REACTORS
330
47
102
}
330
47
100
AcDbScale
 70
     0
300
3/8" = 1'-0"
140
0.375
141
12.0
290
     0
  0
SCALE
  5
62
102
{ACAD_REACTORS
330
47
102
}
330
47
100
AcDbScale
 70
     0
300
1/2" = 1'-0"
140
0.5
141
12.0
290
     0
  0
SCALE
  5
63
102
{ACAD_REACTORS
330
47
102
}
330
47
100
AcDbScale
 70
     0
300
3/4" = 1'-0"
140
0.75
141
12.0
290
     0
  0
SCALE
  5
64
102
{ACAD_REACTORS
330
47
102
}
330
47
100
AcDbScale
 70
     0
300
1" = 1'-0"
140
1.0
141
12.0
290
     0
  0
SCALE
  5
65
102
{ACAD_REACTORS
330
47
102
}
330
47
100
AcDbScale
 70
     0
300
1-1/2" = 1'-0"
140
1.5
141
12.0
290
     0
  0
SCALE
  5
66
102
{ACAD_REACTORS
330
47
102
}
330
47
100
AcDbScale
 70
     0
300
3" = 1'-0"
140
3.0
141
12.0
290
     0
  0
SCALE
  5
67
102
{ACAD_REACTORS
330
47
102
}
330
47
100
AcDbScale
 70
     0
300
6" = 1'-0"
140
6.0
141
12.0
290
     0
  0
SCALE
  5
68
102
{ACAD_REACTORS
330
47
102
}
330
47
100
AcDbScale
 70
     0
300
1'-0" = 1'-0"
140
12.0
141
12.0
290
     0
  0
ENDSEC
  0
EOF
